ISO-10303-21;
HEADER;
FILE_DESCRIPTION (( 'STEP AP203' ),
    '1' );
FILE_NAME ('Êðûøêà íà óãîë âåðòèêàëüíûé âíåøíèé CDV 90_38343.STEP',
    '2012-11-09T08:45:09',
    ( 'Àñååâ' ),
    ( '' ),
    'SwSTEP 2.0',
    'SolidWorks 2012',
    '' );
FILE_SCHEMA (( 'CONFIG_CONTROL_DESIGN' ));
ENDSEC;

DATA;
#1 = CARTESIAN_POINT ( 'NONE',  ( -101.8000000000000000, 0.0000000000000000000, 210.0000000000000000 ) ) ;
#2 = CARTESIAN_POINT ( 'NONE',  ( -101.0000000000000000, 0.8000000000000000400, 0.0000000000000000000 ) ) ;
#3 = CARTESIAN_POINT ( 'NONE',  ( 1.734723475976807100E-015, 0.8000000000000000400, 14.99999999999999300 ) ) ;
#4 = CARTESIAN_POINT ( 'NONE',  ( 101.8000000000000000, 0.0000000000000000000, 210.0000000000000000 ) ) ;
#5 = CARTESIAN_POINT ( 'NONE',  ( 101.8000000000000000, 0.0000000000000000000, 0.0000000000000000000 ) ) ;
#6 = DIRECTION ( 'NONE',  ( 0.0000000000000000000, 1.000000000000000000, 0.0000000000000000000 ) ) ;
#7 = DIRECTION ( 'NONE',  ( -0.0000000000000000000, -1.000000000000000000, -0.0000000000000000000 ) ) ;
#8 = CARTESIAN_POINT ( 'NONE',  ( 1.734723475976807100E-015, 0.0000000000000000000, 194.9999999999999700 ) ) ;
#9 = CARTESIAN_POINT ( 'NONE',  ( -101.0000000000000000, 0.0000000000000000000, 0.0000000000000000000 ) ) ;
#10 = DIRECTION ( 'NONE',  ( -0.0000000000000000000, -1.000000000000000000, 0.0000000000000000000 ) ) ;
#11 = DIRECTION ( 'NONE',  ( 0.0000000000000000000, 0.0000000000000000000, 1.000000000000000000 ) ) ;
#12 = DIRECTION ( 'NONE',  ( 0.0000000000000000000, 0.0000000000000000000, 1.000000000000000000 ) ) ;
#13 = DIRECTION ( 'NONE',  ( -0.0000000000000000000, -1.000000000000000000, -0.0000000000000000000 ) ) ;
#14 = CARTESIAN_POINT ( 'NONE',  ( 1.734723475976807100E-015, -14.00099999999999900, 194.9999999999999700 ) ) ;
#15 = CARTESIAN_POINT ( 'NONE',  ( 1.734723475976807100E-015, 0.0000000000000000000, 14.99999999999999300 ) ) ;
#16 = DIRECTION ( 'NONE',  ( 0.0000000000000000000, -0.0000000000000000000, -1.000000000000000000 ) ) ;
#17 = DIRECTION ( 'NONE',  ( 0.0000000000000000000, -1.000000000000000000, 0.0000000000000000000 ) ) ;
#18 = CARTESIAN_POINT ( 'NONE',  ( -101.0000000000000000, 0.0000000000000000000, 210.0000000000000000 ) ) ;
#19 = DIRECTION ( 'NONE',  ( 1.000000000000000000, 0.0000000000000000000, 0.0000000000000000000 ) ) ;
#20 = CARTESIAN_POINT ( 'NONE',  ( -101.0000000000000000, -14.00000000000000000, 210.0000000000000000 ) ) ;
#21 = DIRECTION ( 'NONE',  ( 0.0000000000000000000, -1.000000000000000000, 0.0000000000000000000 ) ) ;
#22 = DIRECTION ( 'NONE',  ( -0.0000000000000000000, 1.000000000000000000, -0.0000000000000000000 ) ) ;
#23 = PLANE ( 'NONE',  #134 ) ;
#24 = DIRECTION ( 'NONE',  ( 0.0000000000000000000, 0.0000000000000000000, 1.000000000000000000 ) ) ;
#25 = DIRECTION ( 'NONE',  ( -1.000000000000000000, 0.0000000000000000000, 0.0000000000000000000 ) ) ;
#26 = DIRECTION ( 'NONE',  ( 0.0000000000000000000, 0.0000000000000000000, 1.000000000000000000 ) ) ;
#27 = PLANE ( 'NONE',  #121 ) ;
#28 = DIRECTION ( 'NONE',  ( -0.0000000000000000000, 0.0000000000000000000, -1.000000000000000000 ) ) ;
#29 = CARTESIAN_POINT ( 'NONE',  ( -101.8000000000000000, 0.0000000000000000000, 0.0000000000000000000 ) ) ;
#30 = CARTESIAN_POINT ( 'NONE',  ( -101.0000000000000000, -14.00000000000000000, 210.0000000000000000 ) ) ;
#31 = CARTESIAN_POINT ( 'NONE',  ( -101.8000000000000000, -14.00000000000000000, 210.0000000000000000 ) ) ;
#32 = DIRECTION ( 'NONE',  ( 0.0000000000000000000, 1.000000000000000000, 0.0000000000000000000 ) ) ;
#33 = DIRECTION ( 'NONE',  ( -0.0000000000000000000, 1.000000000000000000, -0.0000000000000000000 ) ) ;
#34 = DIRECTION ( 'NONE',  ( 0.0000000000000000000, 1.000000000000000000, 0.0000000000000000000 ) ) ;
#35 = DIRECTION ( 'NONE',  ( -0.0000000000000000000, -0.0000000000000000000, -1.000000000000000000 ) ) ;
#36 = DIRECTION ( 'NONE',  ( -1.000000000000000000, 0.0000000000000000000, 0.0000000000000000000 ) ) ;
#37 = CARTESIAN_POINT ( 'NONE',  ( -101.0000000000000000, -14.00000000000000000, 210.0000000000000000 ) ) ;
#38 = DIRECTION ( 'NONE',  ( 1.000000000000000000, 0.0000000000000000000, -0.0000000000000000000 ) ) ;
#39 = DIRECTION ( 'NONE',  ( 0.0000000000000000000, -0.0000000000000000000, -1.000000000000000000 ) ) ;
#40 = CARTESIAN_POINT ( 'NONE',  ( 101.0000000000000000, -14.00000000000000000, 210.0000000000000000 ) ) ;
#41 = DIRECTION ( 'NONE',  ( -0.0000000000000000000, -0.0000000000000000000, -1.000000000000000000 ) ) ;
#42 = CARTESIAN_POINT ( 'NONE',  ( 101.8000000000000000, 0.8000000000000000400, 210.0000000000000000 ) ) ;
#43 = CARTESIAN_POINT ( 'NONE',  ( 101.0000000000000000, 0.0000000000000000000, 210.0000000000000000 ) ) ;
#44 = CARTESIAN_POINT ( 'NONE',  ( -101.0000000000000000, 0.0000000000000000000, 210.0000000000000000 ) ) ;
#45 = CARTESIAN_POINT ( 'NONE',  ( 101.0000000000000000, 0.0000000000000000000, 210.0000000000000000 ) ) ;
#46 = DIRECTION ( 'NONE',  ( -1.000000000000000000, 0.0000000000000000000, 0.0000000000000000000 ) ) ;
#47 = DIRECTION ( 'NONE',  ( -0.0000000000000000000, -0.0000000000000000000, -1.000000000000000000 ) ) ;
#48 = DIRECTION ( 'NONE',  ( 0.0000000000000000000, -1.000000000000000000, 0.0000000000000000000 ) ) ;
#49 = CARTESIAN_POINT ( 'NONE',  ( -101.0000000000000000, -14.00000000000000000, 0.0000000000000000000 ) ) ;
#50 = PLANE ( 'NONE',  #127 ) ;
#51 = DIRECTION ( 'NONE',  ( -0.0000000000000000000, 1.000000000000000000, -0.0000000000000000000 ) ) ;
#52 = DIRECTION ( 'NONE',  ( -0.0000000000000000000, -0.0000000000000000000, -1.000000000000000000 ) ) ;
#53 = CARTESIAN_POINT ( 'NONE',  ( -101.0000000000000000, 0.0000000000000000000, 0.0000000000000000000 ) ) ;
#54 = DIRECTION ( 'NONE',  ( 0.0000000000000000000, 0.0000000000000000000, -1.000000000000000000 ) ) ;
#55 = DIRECTION ( 'NONE',  ( -0.0000000000000000000, 1.000000000000000000, -0.0000000000000000000 ) ) ;
#56 = CARTESIAN_POINT ( 'NONE',  ( 1.734723475976807100E-015, 0.8000000000000000400, 194.9999999999999700 ) ) ;
#57 = DIRECTION ( 'NONE',  ( -0.0000000000000000000, -0.0000000000000000000, -1.000000000000000000 ) ) ;
#58 = DIRECTION ( 'NONE',  ( -0.0000000000000000000, -0.0000000000000000000, -1.000000000000000000 ) ) ;
#59 = CARTESIAN_POINT ( 'NONE',  ( -101.8000000000000000, 0.8000000000000000400, 210.0000000000000000 ) ) ;
#60 = CARTESIAN_POINT ( 'NONE',  ( -101.0000000000000000, 0.0000000000000000000, 210.0000000000000000 ) ) ;
#61 = DIRECTION ( 'NONE',  ( -0.0000000000000000000, 0.0000000000000000000, -1.000000000000000000 ) ) ;
#62 = DIRECTION ( 'NONE',  ( 1.000000000000000000, 0.0000000000000000000, -0.0000000000000000000 ) ) ;
#63 = PLANE ( 'NONE',  #124 ) ;
#64 = DIRECTION ( 'NONE',  ( -1.000000000000000000, 0.0000000000000000000, 0.0000000000000000000 ) ) ;
#65 = DIRECTION ( 'NONE',  ( -0.0000000000000000000, 0.0000000000000000000, -1.000000000000000000 ) ) ;
#66 = DIRECTION ( 'NONE',  ( 0.0000000000000000000, 1.000000000000000000, 0.0000000000000000000 ) ) ;
#67 = PLANE ( 'NONE',  #125 ) ;
#68 = DIRECTION ( 'NONE',  ( 0.0000000000000000000, 0.0000000000000000000, 1.000000000000000000 ) ) ;
#69 = DIRECTION ( 'NONE',  ( -1.000000000000000000, 0.0000000000000000000, 0.0000000000000000000 ) ) ;
#70 = DIRECTION ( 'NONE',  ( 0.0000000000000000000, -0.0000000000000000000, 1.000000000000000000 ) ) ;
#71 = CARTESIAN_POINT ( 'NONE',  ( 0.0000000000000000000, 0.0000000000000000000, 210.0000000000000000 ) ) ;
#72 = DIRECTION ( 'NONE',  ( -0.0000000000000000000, 0.0000000000000000000, -1.000000000000000000 ) ) ;
#73 = CARTESIAN_POINT ( 'NONE',  ( -101.0000000000000000, 0.0000000000000000000, 210.0000000000000000 ) ) ;
#74 = PLANE ( 'NONE',  #119 ) ;
#75 = CARTESIAN_POINT ( 'NONE',  ( 1.734723475976807100E-015, -14.00099999999999900, 14.99999999999999300 ) ) ;
#76 = DIRECTION ( 'NONE',  ( 0.0000000000000000000, -0.0000000000000000000, 1.000000000000000000 ) ) ;
#77 = DIRECTION ( 'NONE',  ( 0.0000000000000000000, 0.0000000000000000000, 1.000000000000000000 ) ) ;
#78 = PLANE ( 'NONE',  #129 ) ;
#79 = PLANE ( 'NONE',  #130 ) ;
#80 = CARTESIAN_POINT ( 'NONE',  ( 101.8000000000000000, -14.00000000000000000, 210.0000000000000000 ) ) ;
#81 = DIRECTION ( 'NONE',  ( 0.0000000000000000000, -1.000000000000000000, 0.0000000000000000000 ) ) ;
#82 = CARTESIAN_POINT ( 'NONE',  ( -101.0000000000000000, 0.0000000000000000000, 210.0000000000000000 ) ) ;
#83 = DIRECTION ( 'NONE',  ( -0.0000000000000000000, 1.000000000000000000, -0.0000000000000000000 ) ) ;
#84 = CARTESIAN_POINT ( 'NONE',  ( -101.8000000000000000, -14.00000000000000000, 210.0000000000000000 ) ) ;
#85 = DIRECTION ( 'NONE',  ( 1.000000000000000000, 0.0000000000000000000, 0.0000000000000000000 ) ) ;
#86 = CARTESIAN_POINT ( 'NONE',  ( 101.0000000000000000, 0.0000000000000000000, 210.0000000000000000 ) ) ;
#87 = DIRECTION ( 'NONE',  ( 1.000000000000000000, 0.0000000000000000000, 0.0000000000000000000 ) ) ;
#88 = CARTESIAN_POINT ( 'NONE',  ( -101.0000000000000000, 0.8000000000000000400, 210.0000000000000000 ) ) ;
#89 = DIRECTION ( 'NONE',  ( 0.0000000000000000000, 0.0000000000000000000, 1.000000000000000000 ) ) ;
#90 = CARTESIAN_POINT ( 'NONE',  ( 101.0000000000000000, 0.0000000000000000000, 0.0000000000000000000 ) ) ;
#91 = PLANE ( 'NONE',  #126 ) ;
#92 = CARTESIAN_POINT ( 'NONE',  ( 0.0000000000000000000, 0.0000000000000000000, 0.0000000000000000000 ) ) ;
#93 = CARTESIAN_POINT ( 'NONE',  ( -101.8000000000000000, 0.0000000000000000000, 210.0000000000000000 ) ) ;
#94 = CARTESIAN_POINT ( 'NONE',  ( -101.0000000000000000, 0.8000000000000000400, 210.0000000000000000 ) ) ;
#95 = CARTESIAN_POINT ( 'NONE',  ( 101.8000000000000000, 0.0000000000000000000, 210.0000000000000000 ) ) ;
#96 = PLANE ( 'NONE',  #122 ) ;
#97 = DIRECTION ( 'NONE',  ( 1.000000000000000000, 0.0000000000000000000, 0.0000000000000000000 ) ) ;
#98 = DIRECTION ( 'NONE',  ( 0.0000000000000000000, 1.000000000000000000, 0.0000000000000000000 ) ) ;
#99 = DIRECTION ( 'NONE',  ( -1.000000000000000000, 0.0000000000000000000, 0.0000000000000000000 ) ) ;
#100 = CARTESIAN_POINT ( 'NONE',  ( -101.0000000000000000, 0.0000000000000000000, 0.0000000000000000000 ) ) ;
#101 = DIRECTION ( 'NONE',  ( -0.0000000000000000000, -0.0000000000000000000, -1.000000000000000000 ) ) ;
#102 = PERSON ( 'UNSPECIFIED', 'UNSPECIFIED', 'UNSPECIFIED', ('UNSPECIFIED'), ('UNSPECIFIED'), ('UNSPECIFIED') ) ;
#103 = PRODUCT ( 'Êðûøêà íà óãîë âåðòèêàëüíûé âíåøíèé CDV 90_38343', 'Êðûøêà íà óãîë âåðòèêàëüíûé âíåøíèé CDV 90_38343', '', ( #392 ) ) ;
#104 = UNCERTAINTY_MEASURE_WITH_UNIT (LENGTH_MEASURE( 1.000000000000000100E-005 ), #437, 'distance_accuracy_value', 'NONE');
#105 = MANIFOLD_SOLID_BREP ( 'Âûðåç-Âûòÿíóòü1', #246 ) ;
#106 = ADVANCED_BREP_SHAPE_REPRESENTATION ( '¦¨v°úð ýð ºóþû òõ¨ªøúðû¹ývù òýõ°ýøù CDV 90_38343', ( #105, #162 ), #164 ) ;
#107 = ADVANCED_FACE ( 'NONE', ( #275 ), #79, .T. ) ;
#108 = ADVANCED_FACE ( 'NONE', ( #272, #328, #372 ), #78, .F. ) ;
#109 = ADVANCED_FACE ( 'NONE', ( #280, #327 ), #380, .F. ) ;
#110 = ADVANCED_FACE ( 'NONE', ( #279 ), #91, .F. ) ;
#111 = ADVANCED_FACE ( 'NONE', ( #282 ), #67, .T. ) ;
#112 = ADVANCED_FACE ( 'NONE', ( #379 ), #63, .T. ) ;
#113 = ADVANCED_FACE ( 'NONE', ( #314, #326, #381 ), #96, .T. ) ;
#114 = ADVANCED_FACE ( 'NONE', ( #283 ), #74, .F. ) ;
#115 = ADVANCED_FACE ( 'NONE', ( #281 ), #50, .T. ) ;
#116 = ADVANCED_FACE ( 'NONE', ( #324 ), #27, .F. ) ;
#117 = ADVANCED_FACE ( 'NONE', ( #323 ), #23, .T. ) ;
#118 = ADVANCED_FACE ( 'NONE', ( #322, #319 ), #321, .F. ) ;
#119 = AXIS2_PLACEMENT_3D ( 'NONE', #71, #72, #36 ) ;
#120 = AXIS2_PLACEMENT_3D ( 'NONE', #3, #6, #89 ) ;
#121 = AXIS2_PLACEMENT_3D ( 'NONE', #73, #25, #24 ) ;
#122 = AXIS2_PLACEMENT_3D ( 'NONE', #94, #66, #70 ) ;
#123 = AXIS2_PLACEMENT_3D ( 'NONE', #56, #55, #54 ) ;
#124 = AXIS2_PLACEMENT_3D ( 'NONE', #93, #69, #68 ) ;
#125 = AXIS2_PLACEMENT_3D ( 'NONE', #92, #65, #64 ) ;
#126 = AXIS2_PLACEMENT_3D ( 'NONE', #43, #62, #61 ) ;
#127 = AXIS2_PLACEMENT_3D ( 'NONE', #95, #38, #28 ) ;
#128 = AXIS2_PLACEMENT_3D ( 'NONE', #75, #33, #77 ) ;
#129 = AXIS2_PLACEMENT_3D ( 'NONE', #60, #98, #76 ) ;
#130 = AXIS2_PLACEMENT_3D ( 'NONE', #80, #81, #39 ) ;
#131 = EDGE_CURVE ( 'NONE', #195, #199, #318, .T. ) ;
#132 = EDGE_CURVE ( 'NONE', #195, #201, #325, .T. ) ;
#133 = EDGE_CURVE ( 'NONE', #376, #376, #320, .T. ) ;
#134 = AXIS2_PLACEMENT_3D ( 'NONE', #37, #17, #16 ) ;
#135 = EDGE_CURVE ( 'NONE', #187, #191, #315, .T. ) ;
#136 = EDGE_CURVE ( 'NONE', #384, #384, #311, .T. ) ;
#137 = EDGE_CURVE ( 'NONE', #192, #199, #316, .T. ) ;
#138 = EDGE_CURVE ( 'NONE', #200, #192, #313, .T. ) ;
#139 = EDGE_CURVE ( 'NONE', #200, #195, #307, .T. ) ;
#140 = EDGE_CURVE ( 'NONE', #198, #192, #301, .T. ) ;
#141 = EDGE_CURVE ( 'NONE', #185, #198, #303, .T. ) ;
#142 = EDGE_CURVE ( 'NONE', #185, #200, #310, .T. ) ;
#143 = EDGE_CURVE ( 'NONE', #186, #198, #299, .T. ) ;
#144 = EDGE_CURVE ( 'NONE', #189, #187, #289, .T. ) ;
#145 = AXIS2_PLACEMENT_3D ( 'NONE', #14, #22, #26 ) ;
#146 = EDGE_CURVE ( 'NONE', #196, #186, #305, .T. ) ;
#147 = EDGE_CURVE ( 'NONE', #196, #185, #287, .T. ) ;
#148 = EDGE_CURVE ( 'NONE', #186, #193, #293, .T. ) ;
#149 = EDGE_CURVE ( 'NONE', #190, #193, #291, .T. ) ;
#150 = EDGE_CURVE ( 'NONE', #196, #190, #285, .T. ) ;
#151 = EDGE_CURVE ( 'NONE', #373, #373, #295, .T. ) ;
#152 = EDGE_CURVE ( 'NONE', #383, #383, #336, .T. ) ;
#153 = EDGE_CURVE ( 'NONE', #193, #197, #338, .T. ) ;
#154 = EDGE_CURVE ( 'NONE', #190, #189, #337, .T. ) ;
#155 = AXIS2_PLACEMENT_3D ( 'NONE', #8, #7, #11 ) ;
#156 = EDGE_CURVE ( 'NONE', #189, #197, #371, .T. ) ;
#157 = EDGE_CURVE ( 'NONE', #197, #191, #298, .T. ) ;
#158 = EDGE_CURVE ( 'NONE', #199, #194, #330, .T. ) ;
#159 = EDGE_CURVE ( 'NONE', #201, #187, #358, .T. ) ;
#160 = EDGE_CURVE ( 'NONE', #201, #194, #184, .T. ) ;
#161 = EDGE_CURVE ( 'NONE', #194, #191, #382, .T. ) ;
#162 = AXIS2_PLACEMENT_3D ( 'NONE', #416, #419, #435 ) ;
#163 = CC_DESIGN_PERSON_AND_ORGANIZATION_ASSIGNMENT ( #370, #402, ( #103 ) ) ;
#164 =( GEOMETRIC_REPRESENTATION_CONTEXT ( 3 ) GLOBAL_UNCERTAINTY_ASSIGNED_CONTEXT ( ( #104 ) ) GLOBAL_UNIT_ASSIGNED_CONTEXT ( ( #437, #427, #424 ) ) REPRESENTATION_CONTEXT ( 'NONE', 'WORKASPACE' ) );
#165 = PRODUCT_RELATED_PRODUCT_CATEGORY ( 'detail', '', ( #103 ) ) ;
#166 = CC_DESIGN_SECURITY_CLASSIFICATION ( #171, ( #178 ) ) ;
#167 = CC_DESIGN_APPROVAL ( #168, ( #171 ) ) ;
#168 = APPROVAL ( #433, 'UNSPECIFIED' ) ;
#169 = CC_DESIGN_DATE_AND_TIME_ASSIGNMENT ( #346, #431, ( #171 ) ) ;
#170 = CC_DESIGN_PERSON_AND_ORGANIZATION_ASSIGNMENT ( #350, #432, ( #171 ) ) ;
#171 = SECURITY_CLASSIFICATION ( '', '', #421 ) ;
#172 = CC_DESIGN_PERSON_AND_ORGANIZATION_ASSIGNMENT ( #351, #420, ( #178 ) ) ;
#173 = CC_DESIGN_PERSON_AND_ORGANIZATION_ASSIGNMENT ( #352, #429, ( #178 ) ) ;
#174 = AXIS2_PLACEMENT_3D ( 'NONE', #15, #13, #12 ) ;
#175 = PRODUCT_DEFINITION ( 'UNKNOWN', '', #178, #387 ) ;
#176 = CC_DESIGN_APPROVAL ( #177, ( #178 ) ) ;
#177 = APPROVAL ( #425, 'UNSPECIFIED' ) ;
#178 = PRODUCT_DEFINITION_FORMATION_WITH_SPECIFIED_SOURCE ( 'ANY', '', #103, .NOT_KNOWN. ) ;
#179 = CC_DESIGN_DATE_AND_TIME_ASSIGNMENT ( #361, #389, ( #175 ) ) ;
#180 = CC_DESIGN_PERSON_AND_ORGANIZATION_ASSIGNMENT ( #364, #430, ( #175 ) ) ;
#181 = CC_DESIGN_APPROVAL ( #182, ( #175 ) ) ;
#182 = APPROVAL ( #423, 'UNSPECIFIED' ) ;
#183 = VECTOR ( 'NONE', #21, 1000.000000000000000 ) ;
#184 = LINE ( 'NONE', #411, #334 ) ;
#185 = VERTEX_POINT ( 'NONE', #84 ) ;
#186 = VERTEX_POINT ( 'NONE', #394 ) ;
#187 = VERTEX_POINT ( 'NONE', #397 ) ;
#188 = VECTOR ( 'NONE', #413, 1000.000000000000000 ) ;
#189 = VERTEX_POINT ( 'NONE', #398 ) ;
#190 = VERTEX_POINT ( 'NONE', #399 ) ;
#191 = VERTEX_POINT ( 'NONE', #396 ) ;
#192 = VERTEX_POINT ( 'NONE', #400 ) ;
#193 = VERTEX_POINT ( 'NONE', #9 ) ;
#194 = VERTEX_POINT ( 'NONE', #401 ) ;
#195 = VERTEX_POINT ( 'NONE', #403 ) ;
#196 = VERTEX_POINT ( 'NONE', #404 ) ;
#197 = VERTEX_POINT ( 'NONE', #405 ) ;
#198 = VERTEX_POINT ( 'NONE', #406 ) ;
#199 = VERTEX_POINT ( 'NONE', #407 ) ;
#200 = VERTEX_POINT ( 'NONE', #409 ) ;
#201 = VERTEX_POINT ( 'NONE', #410 ) ;
#202 = ORIENTED_EDGE ( 'NONE', *, *, #161, .F. ) ;
#203 = ORIENTED_EDGE ( 'NONE', *, *, #159, .F. ) ;
#204 = ORIENTED_EDGE ( 'NONE', *, *, #156, .T. ) ;
#205 = ORIENTED_EDGE ( 'NONE', *, *, #159, .T. ) ;
#206 = ORIENTED_EDGE ( 'NONE', *, *, #160, .F. ) ;
#207 = ORIENTED_EDGE ( 'NONE', *, *, #149, .T. ) ;
#208 = ORIENTED_EDGE ( 'NONE', *, *, #135, .T. ) ;
#209 = ORIENTED_EDGE ( 'NONE', *, *, #137, .F. ) ;
#210 = ORIENTED_EDGE ( 'NONE', *, *, #142, .F. ) ;
#211 = ORIENTED_EDGE ( 'NONE', *, *, #147, .T. ) ;
#212 = ORIENTED_EDGE ( 'NONE', *, *, #141, .T. ) ;
#213 = ORIENTED_EDGE ( 'NONE', *, *, #141, .F. ) ;
#214 = ORIENTED_EDGE ( 'NONE', *, *, #148, .T. ) ;
#215 = ORIENTED_EDGE ( 'NONE', *, *, #149, .F. ) ;
#216 = ORIENTED_EDGE ( 'NONE', *, *, #142, .T. ) ;
#217 = ORIENTED_EDGE ( 'NONE', *, *, #138, .T. ) ;
#218 = ORIENTED_EDGE ( 'NONE', *, *, #150, .F. ) ;
#219 = ORIENTED_EDGE ( 'NONE', *, *, #131, .T. ) ;
#220 = ORIENTED_EDGE ( 'NONE', *, *, #140, .F. ) ;
#221 = ORIENTED_EDGE ( 'NONE', *, *, #158, .T. ) ;
#222 = ORIENTED_EDGE ( 'NONE', *, *, #158, .F. ) ;
#223 = ORIENTED_EDGE ( 'NONE', *, *, #131, .F. ) ;
#224 = ORIENTED_EDGE ( 'NONE', *, *, #136, .T. ) ;
#225 = ORIENTED_EDGE ( 'NONE', *, *, #137, .T. ) ;
#226 = ORIENTED_EDGE ( 'NONE', *, *, #143, .F. ) ;
#227 = ORIENTED_EDGE ( 'NONE', *, *, #160, .T. ) ;
#228 = ORIENTED_EDGE ( 'NONE', *, *, #136, .F. ) ;
#229 = ORIENTED_EDGE ( 'NONE', *, *, #146, .T. ) ;
#230 = ORIENTED_EDGE ( 'NONE', *, *, #151, .F. ) ;
#231 = ORIENTED_EDGE ( 'NONE', *, *, #144, .T. ) ;
#232 = ORIENTED_EDGE ( 'NONE', *, *, #154, .F. ) ;
#233 = ORIENTED_EDGE ( 'NONE', *, *, #144, .F. ) ;
#234 = ORIENTED_EDGE ( 'NONE', *, *, #156, .F. ) ;
#235 = ORIENTED_EDGE ( 'NONE', *, *, #133, .F. ) ;
#236 = ORIENTED_EDGE ( 'NONE', *, *, #138, .F. ) ;
#237 = ORIENTED_EDGE ( 'NONE', *, *, #139, .T. ) ;
#238 = ORIENTED_EDGE ( 'NONE', *, *, #153, .T. ) ;
#239 = ORIENTED_EDGE ( 'NONE', *, *, #152, .F. ) ;
#240 = ORIENTED_EDGE ( 'NONE', *, *, #135, .F. ) ;
#241 = ORIENTED_EDGE ( 'NONE', *, *, #132, .F. ) ;
#242 = ORIENTED_EDGE ( 'NONE', *, *, #157, .T. ) ;
#243 = ORIENTED_EDGE ( 'NONE', *, *, #161, .T. ) ;
#244 = ORIENTED_EDGE ( 'NONE', *, *, #133, .T. ) ;
#245 = ORIENTED_EDGE ( 'NONE', *, *, #146, .F. ) ;
#246 = CLOSED_SHELL ( 'NONE', ( #110, #107, #115, #113, #112, #117, #116, #108, #114, #111, #109, #118 ) ) ;
#247 = ORIENTED_EDGE ( 'NONE', *, *, #132, .T. ) ;
#248 = ORIENTED_EDGE ( 'NONE', *, *, #140, .T. ) ;
#249 = ORIENTED_EDGE ( 'NONE', *, *, #152, .T. ) ;
#250 = ORIENTED_EDGE ( 'NONE', *, *, #151, .T. ) ;
#251 = ORIENTED_EDGE ( 'NONE', *, *, #139, .F. ) ;
#252 = ORIENTED_EDGE ( 'NONE', *, *, #147, .F. ) ;
#253 = ORIENTED_EDGE ( 'NONE', *, *, #150, .T. ) ;
#254 = ORIENTED_EDGE ( 'NONE', *, *, #143, .T. ) ;
#255 = ORIENTED_EDGE ( 'NONE', *, *, #153, .F. ) ;
#256 = ORIENTED_EDGE ( 'NONE', *, *, #148, .F. ) ;
#257 = ORIENTED_EDGE ( 'NONE', *, *, #157, .F. ) ;
#258 = ORIENTED_EDGE ( 'NONE', *, *, #154, .T. ) ;
#259 = EDGE_LOOP ( 'NONE', ( #235 ) ) ;
#260 = EDGE_LOOP ( 'NONE', ( #202, #206, #205, #208 ) ) ;
#261 = EDGE_LOOP ( 'NONE', ( #242, #240, #233, #204 ) ) ;
#262 = EDGE_LOOP ( 'NONE', ( #214, #215, #218, #229 ) ) ;
#263 = EDGE_LOOP ( 'NONE', ( #220, #213, #216, #217 ) ) ;
#264 = EDGE_LOOP ( 'NONE', ( #226, #245, #211, #212 ) ) ;
#265 = EDGE_LOOP ( 'NONE', ( #209, #236, #237, #219 ) ) ;
#266 = EDGE_LOOP ( 'NONE', ( #230 ) ) ;
#267 = EDGE_LOOP ( 'NONE', ( #222, #223, #247, #227 ) ) ;
#268 = EDGE_LOOP ( 'NONE', ( #231, #203, #241, #251, #210, #252, #253, #258 ) ) ;
#269 = EDGE_LOOP ( 'NONE', ( #257, #255, #256, #254, #248, #225, #221, #243 ) ) ;
#270 = EDGE_LOOP ( 'NONE', ( #250 ) ) ;
#271 = EDGE_LOOP ( 'NONE', ( #224 ) ) ;
#272 = FACE_BOUND ( 'NONE', #266, .T. ) ;
#273 = EDGE_LOOP ( 'NONE', ( #238, #234, #232, #207 ) ) ;
#274 = EDGE_LOOP ( 'NONE', ( #244 ) ) ;
#275 = FACE_OUTER_BOUND ( 'NONE', #260, .T. ) ;
#276 = EDGE_LOOP ( 'NONE', ( #239 ) ) ;
#277 = EDGE_LOOP ( 'NONE', ( #228 ) ) ;
#278 = EDGE_LOOP ( 'NONE', ( #249 ) ) ;
#279 = FACE_OUTER_BOUND ( 'NONE', #261, .T. ) ;
#280 = FACE_OUTER_BOUND ( 'NONE', #271, .T. ) ;
#281 = FACE_OUTER_BOUND ( 'NONE', #267, .T. ) ;
#282 = FACE_OUTER_BOUND ( 'NONE', #269, .T. ) ;
#283 = FACE_OUTER_BOUND ( 'NONE', #268, .T. ) ;
#284 = VECTOR ( 'NONE', #34, 1000.000000000000000 ) ;
#285 = LINE ( 'NONE', #44, #296 ) ;
#286 = VECTOR ( 'NONE', #48, 1000.000000000000000 ) ;
#287 = LINE ( 'NONE', #30, #292 ) ;
#288 = VECTOR ( 'NONE', #46, 1000.000000000000000 ) ;
#289 = LINE ( 'NONE', #45, #286 ) ;
#290 = VECTOR ( 'NONE', #83, 1000.000000000000000 ) ;
#291 = LINE ( 'NONE', #82, #297 ) ;
#292 = VECTOR ( 'NONE', #99, 1000.000000000000000 ) ;
#293 = LINE ( 'NONE', #100, #290 ) ;
#294 = VECTOR ( 'NONE', #47, 1000.000000000000000 ) ;
#295 = CIRCLE ( 'NONE', #155, 2.500000000000002200 ) ;
#296 = VECTOR ( 'NONE', #51, 1000.000000000000000 ) ;
#297 = VECTOR ( 'NONE', #52, 1000.000000000000000 ) ;
#298 = LINE ( 'NONE', #90, #183 ) ;
#299 = LINE ( 'NONE', #49, #288 ) ;
#300 = VECTOR ( 'NONE', #35, 1000.000000000000000 ) ;
#301 = LINE ( 'NONE', #29, #304 ) ;
#302 = VECTOR ( 'NONE', #19, 1000.000000000000000 ) ;
#303 = LINE ( 'NONE', #31, #300 ) ;
#304 = VECTOR ( 'NONE', #32, 1000.000000000000000 ) ;
#305 = LINE ( 'NONE', #20, #294 ) ;
#306 = VECTOR ( 'NONE', #57, 1000.000000000000000 ) ;
#307 = LINE ( 'NONE', #88, #302 ) ;
#308 = VECTOR ( 'NONE', #101, 1000.000000000000000 ) ;
#309 = VECTOR ( 'NONE', #97, 1000.000000000000000 ) ;
#310 = LINE ( 'NONE', #1, #284 ) ;
#311 = CIRCLE ( 'NONE', #120, 2.500000000000002200 ) ;
#312 = VECTOR ( 'NONE', #10, 1000.000000000000000 ) ;
#313 = LINE ( 'NONE', #59, #308 ) ;
#314 = FACE_BOUND ( 'NONE', #259, .T. ) ;
#315 = LINE ( 'NONE', #40, #306 ) ;
#316 = LINE ( 'NONE', #2, #309 ) ;
#317 = VECTOR ( 'NONE', #41, 1000.000000000000000 ) ;
#318 = LINE ( 'NONE', #42, #317 ) ;
#319 = FACE_OUTER_BOUND ( 'NONE', #270, .T. ) ;
#320 = CIRCLE ( 'NONE', #123, 2.500000000000002200 ) ;
#321 = CYLINDRICAL_SURFACE ( 'NONE', #145, 2.500000000000002200 ) ;
#322 = FACE_OUTER_BOUND ( 'NONE', #274, .T. ) ;
#323 = FACE_OUTER_BOUND ( 'NONE', #264, .T. ) ;
#324 = FACE_OUTER_BOUND ( 'NONE', #262, .T. ) ;
#325 = LINE ( 'NONE', #4, #312 ) ;
#326 = FACE_BOUND ( 'NONE', #277, .T. ) ;
#327 = FACE_OUTER_BOUND ( 'NONE', #278, .T. ) ;
#328 = FACE_BOUND ( 'NONE', #276, .T. ) ;
#329 = VECTOR ( 'NONE', #58, 1000.000000000000000 ) ;
#330 = LINE ( 'NONE', #5, #188 ) ;
#331 = COORDINATED_UNIVERSAL_TIME_OFFSET ( 4, 0, .AHEAD. ) ;
#332 = APPROVAL_DATE_TIME ( #366, #182 ) ;
#333 = CALENDAR_DATE ( 2012, 9, 11 ) ;
#334 = VECTOR ( 'NONE', #388, 1000.000000000000000 ) ;
#335 = ORGANIZATION ( 'UNSPECIFIED', 'UNSPECIFIED', '' ) ;
#336 = CIRCLE ( 'NONE', #174, 2.500000000000002200 ) ;
#337 = LINE ( 'NONE', #18, #385 ) ;
#338 = LINE ( 'NONE', #53, #375 ) ;
#339 = COORDINATED_UNIVERSAL_TIME_OFFSET ( 4, 0, .AHEAD. ) ;
#340 = LOCAL_TIME ( 12, 45, 9.000000000000000000, #339 ) ;
#341 = CALENDAR_DATE ( 2012, 9, 11 ) ;
#342 = DATE_AND_TIME ( #341, #340 ) ;
#343 = APPROVAL_DATE_TIME ( #342, #168 ) ;
#344 = APPROVAL_PERSON_ORGANIZATION ( #345, #168, #434 ) ;
#345 = PERSON_AND_ORGANIZATION ( #102, #335 ) ;
#346 = DATE_AND_TIME ( #347, #348 ) ;
#347 = CALENDAR_DATE ( 2012, 9, 11 ) ;
#348 = LOCAL_TIME ( 12, 45, 9.000000000000000000, #349 ) ;
#349 = COORDINATED_UNIVERSAL_TIME_OFFSET ( 4, 0, .AHEAD. ) ;
#350 = PERSON_AND_ORGANIZATION ( #102, #335 ) ;
#351 = PERSON_AND_ORGANIZATION ( #102, #335 ) ;
#352 = PERSON_AND_ORGANIZATION ( #102, #335 ) ;
#353 = APPROVAL_DATE_TIME ( #354, #177 ) ;
#354 = DATE_AND_TIME ( #355, #356 ) ;
#355 = CALENDAR_DATE ( 2012, 9, 11 ) ;
#356 = LOCAL_TIME ( 12, 45, 9.000000000000000000, #357 ) ;
#357 = COORDINATED_UNIVERSAL_TIME_OFFSET ( 4, 0, .AHEAD. ) ;
#358 = LINE ( 'NONE', #415, #374 ) ;
#359 = APPROVAL_PERSON_ORGANIZATION ( #360, #177, #428 ) ;
#360 = PERSON_AND_ORGANIZATION ( #102, #335 ) ;
#361 = DATE_AND_TIME ( #333, #363 ) ;
#362 = COORDINATED_UNIVERSAL_TIME_OFFSET ( 4, 0, .AHEAD. ) ;
#363 = LOCAL_TIME ( 12, 45, 9.000000000000000000, #362 ) ;
#364 = PERSON_AND_ORGANIZATION ( #102, #335 ) ;
#365 = CALENDAR_DATE ( 2012, 9, 11 ) ;
#366 = DATE_AND_TIME ( #365, #367 ) ;
#367 = LOCAL_TIME ( 12, 45, 9.000000000000000000, #331 ) ;
#368 = PERSON_AND_ORGANIZATION ( #102, #335 ) ;
#369 = APPROVAL_PERSON_ORGANIZATION ( #368, #182, #436 ) ;
#370 = PERSON_AND_ORGANIZATION ( #102, #335 ) ;
#371 = LINE ( 'NONE', #86, #329 ) ;
#372 = FACE_OUTER_BOUND ( 'NONE', #273, .T. ) ;
#373 = VERTEX_POINT ( 'NONE', #412 ) ;
#374 = VECTOR ( 'NONE', #390, 1000.000000000000000 ) ;
#375 = VECTOR ( 'NONE', #87, 1000.000000000000000 ) ;
#376 = VERTEX_POINT ( 'NONE', #414 ) ;
#377 = VECTOR ( 'NONE', #395, 1000.000000000000000 ) ;
#378 = SHAPE_DEFINITION_REPRESENTATION ( #386, #106 ) ;
#379 = FACE_OUTER_BOUND ( 'NONE', #263, .T. ) ;
#380 = CYLINDRICAL_SURFACE ( 'NONE', #128, 2.500000000000002200 ) ;
#381 = FACE_OUTER_BOUND ( 'NONE', #265, .T. ) ;
#382 = LINE ( 'NONE', #391, #377 ) ;
#383 = VERTEX_POINT ( 'NONE', #418 ) ;
#384 = VERTEX_POINT ( 'NONE', #408 ) ;
#385 = VECTOR ( 'NONE', #85, 1000.000000000000000 ) ;
#386 = PRODUCT_DEFINITION_SHAPE ( 'NONE', 'NONE',  #175 ) ;
#387 = DESIGN_CONTEXT ( 'detailed design', #422, 'design' ) ;
#388 = DIRECTION ( 'NONE',  ( -0.0000000000000000000, -0.0000000000000000000, -1.000000000000000000 ) ) ;
#389 = DATE_TIME_ROLE ( 'creation_date' ) ;
#390 = DIRECTION ( 'NONE',  ( -1.000000000000000000, 0.0000000000000000000, 0.0000000000000000000 ) ) ;
#391 = CARTESIAN_POINT ( 'NONE',  ( 101.8000000000000000, -14.00000000000000000, 0.0000000000000000000 ) ) ;
#392 = MECHANICAL_CONTEXT ( 'NONE', #426, 'mechanical' ) ;
#393 = APPLICATION_PROTOCOL_DEFINITION ( 'international standard', 'config_control_design', 1994, #426 ) ;
#394 = CARTESIAN_POINT ( 'NONE',  ( -101.0000000000000000, -14.00000000000000000, 0.0000000000000000000 ) ) ;
#395 = DIRECTION ( 'NONE',  ( -1.000000000000000000, 0.0000000000000000000, 0.0000000000000000000 ) ) ;
#396 = CARTESIAN_POINT ( 'NONE',  ( 101.0000000000000000, -14.00000000000000000, 0.0000000000000000000 ) ) ;
#397 = CARTESIAN_POINT ( 'NONE',  ( 101.0000000000000000, -14.00000000000000000, 210.0000000000000000 ) ) ;
#398 = CARTESIAN_POINT ( 'NONE',  ( 101.0000000000000000, 0.0000000000000000000, 210.0000000000000000 ) ) ;
#399 = CARTESIAN_POINT ( 'NONE',  ( -101.0000000000000000, 0.0000000000000000000, 210.0000000000000000 ) ) ;
#400 = CARTESIAN_POINT ( 'NONE',  ( -101.8000000000000000, 0.8000000000000000400, 0.0000000000000000000 ) ) ;
#401 = CARTESIAN_POINT ( 'NONE',  ( 101.8000000000000000, -14.00000000000000000, 0.0000000000000000000 ) ) ;
#402 = PERSON_AND_ORGANIZATION_ROLE ( 'design_owner' ) ;
#403 = CARTESIAN_POINT ( 'NONE',  ( 101.8000000000000000, 0.8000000000000000400, 210.0000000000000000 ) ) ;
#404 = CARTESIAN_POINT ( 'NONE',  ( -101.0000000000000000, -14.00000000000000000, 210.0000000000000000 ) ) ;
#405 = CARTESIAN_POINT ( 'NONE',  ( 101.0000000000000000, 0.0000000000000000000, 0.0000000000000000000 ) ) ;
#406 = CARTESIAN_POINT ( 'NONE',  ( -101.8000000000000000, -14.00000000000000000, 0.0000000000000000000 ) ) ;
#407 = CARTESIAN_POINT ( 'NONE',  ( 101.8000000000000000, 0.8000000000000000400, 0.0000000000000000000 ) ) ;
#408 = CARTESIAN_POINT ( 'NONE',  ( 1.734723475976807100E-015, 0.8000000000000000400, 17.49999999999999600 ) ) ;
#409 = CARTESIAN_POINT ( 'NONE',  ( -101.8000000000000000, 0.8000000000000000400, 210.0000000000000000 ) ) ;
#410 = CARTESIAN_POINT ( 'NONE',  ( 101.8000000000000000, -14.00000000000000000, 210.0000000000000000 ) ) ;
#411 = CARTESIAN_POINT ( 'NONE',  ( 101.8000000000000000, -14.00000000000000000, 210.0000000000000000 ) ) ;
#412 = CARTESIAN_POINT ( 'NONE',  ( 1.734723475976807100E-015, 0.0000000000000000000, 197.4999999999999700 ) ) ;
#413 = DIRECTION ( 'NONE',  ( -0.0000000000000000000, -1.000000000000000000, 0.0000000000000000000 ) ) ;
#414 = CARTESIAN_POINT ( 'NONE',  ( 1.734723475976807100E-015, 0.8000000000000000400, 192.4999999999999700 ) ) ;
#415 = CARTESIAN_POINT ( 'NONE',  ( 101.8000000000000000, -14.00000000000000000, 210.0000000000000000 ) ) ;
#416 = CARTESIAN_POINT ( 'NONE',  ( 0.0000000000000000000, 0.0000000000000000000, 0.0000000000000000000 ) ) ;
#417 = APPLICATION_PROTOCOL_DEFINITION ( 'international standard', 'config_control_design', 1994, #422 ) ;
#418 = CARTESIAN_POINT ( 'NONE',  ( 1.734723475976807100E-015, 0.0000000000000000000, 17.49999999999999600 ) ) ;
#419 = DIRECTION ( 'NONE',  ( 0.0000000000000000000, 0.0000000000000000000, 1.000000000000000000 ) ) ;
#420 = PERSON_AND_ORGANIZATION_ROLE ( 'design_supplier' ) ;
#421 = SECURITY_CLASSIFICATION_LEVEL ( 'unclassified' ) ;
#422 = APPLICATION_CONTEXT ( 'configuration controlled 3d designs of mechanical parts and assemblies' ) ;
#423 = APPROVAL_STATUS ( 'not_yet_approved' ) ;
#424 =( NAMED_UNIT ( * ) SI_UNIT ( $, .STERADIAN. ) SOLID_ANGLE_UNIT ( ) );
#425 = APPROVAL_STATUS ( 'not_yet_approved' ) ;
#426 = APPLICATION_CONTEXT ( 'configuration controlled 3d designs of mechanical parts and assemblies' ) ;
#427 =( NAMED_UNIT ( * ) PLANE_ANGLE_UNIT ( ) SI_UNIT ( $, .RADIAN. ) );
#428 = APPROVAL_ROLE ( '' ) ;
#429 = PERSON_AND_ORGANIZATION_ROLE ( 'creator' ) ;
#430 = PERSON_AND_ORGANIZATION_ROLE ( 'creator' ) ;
#431 = DATE_TIME_ROLE ( 'classification_date' ) ;
#432 = PERSON_AND_ORGANIZATION_ROLE ( 'classification_officer' ) ;
#433 = APPROVAL_STATUS ( 'not_yet_approved' ) ;
#434 = APPROVAL_ROLE ( '' ) ;
#435 = DIRECTION ( 'NONE',  ( 1.000000000000000000, 0.0000000000000000000, 0.0000000000000000000 ) ) ;
#436 = APPROVAL_ROLE ( '' ) ;
#437 =( LENGTH_UNIT ( ) NAMED_UNIT ( * ) SI_UNIT ( .MILLI., .METRE. ) );
ENDSEC;
END-ISO-10303-21;
