ISO-10303-21;
HEADER;
FILE_DESCRIPTION (( 'STEP AP203' ),
    '1' );
FILE_NAME ('Ïëàñòèíà ñîåäèíèòåëüíàÿ L-îáðàçíàÿ_BMD1021HDZ.STEP',
    '2012-11-16T13:57:09',
    ( 'Àñååâ' ),
    ( '' ),
    'SwSTEP 2.0',
    'SolidWorks 2012',
    '' );
FILE_SCHEMA (( 'CONFIG_CONTROL_DESIGN' ));
ENDSEC;

DATA;
#1 = EDGE_CURVE ( 'NONE', #81, #82, #145, .T. ) ;
#2 = EDGE_CURVE ( 'NONE', #80, #76, #148, .T. ) ;
#3 = EDGE_CURVE ( 'NONE', #80, #81, #151, .T. ) ;
#4 = EDGE_CURVE ( 'NONE', #82, #76, #150, .T. ) ;
#5 = EDGE_CURVE ( 'NONE', #75, #79, #153, .T. ) ;
#6 = EDGE_CURVE ( 'NONE', #79, #85, #147, .T. ) ;
#7 = EDGE_CURVE ( 'NONE', #84, #85, #157, .T. ) ;
#8 = EDGE_CURVE ( 'NONE', #75, #84, #159, .T. ) ;
#9 = EDGE_CURVE ( 'NONE', #83, #84, #155, .T. ) ;
#10 = EDGE_CURVE ( 'NONE', #77, #83, #163, .T. ) ;
#11 = EDGE_CURVE ( 'NONE', #77, #75, #161, .T. ) ;
#12 = EDGE_LOOP ( 'NONE', ( #115 ) ) ;
#13 = EDGE_LOOP ( 'NONE', ( #136 ) ) ;
#14 = EDGE_LOOP ( 'NONE', ( #133 ) ) ;
#15 = EDGE_LOOP ( 'NONE', ( #98, #99, #100, #101 ) ) ;
#16 = MANIFOLD_SOLID_BREP ( 'Fillet1', #344 ) ;
#17 = UNCERTAINTY_MEASURE_WITH_UNIT (LENGTH_MEASURE( 1.000000000000000100E-005 ), #309, 'distance_accuracy_value', 'NONE');
#18 = ADVANCED_BREP_SHAPE_REPRESENTATION ( '¦ûð¸ªøýð ¸þõôøýøªõû¹ýð  L-þñ¨ð÷ýð _BMD1021HDZ', ( #16, #54 ), #48 ) ;
#19 = DESIGN_CONTEXT ( 'detailed design', #317, 'design' ) ;
#20 = PRODUCT_DEFINITION_SHAPE ( 'NONE', 'NONE',  #56 ) ;
#21 = EDGE_CURVE ( 'NONE', #88, #78, #165, .T. ) ;
#22 = EDGE_CURVE ( 'NONE', #88, #87, #167, .T. ) ;
#23 = EDGE_CURVE ( 'NONE', #76, #78, #169, .T. ) ;
#24 = EDGE_CURVE ( 'NONE', #82, #88, #173, .T. ) ;
#25 = EDGE_CURVE ( 'NONE', #375, #375, #175, .T. ) ;
#26 = EDGE_CURVE ( 'NONE', #384, #384, #179, .T. ) ;
#27 = EDGE_CURVE ( 'NONE', #385, #385, #180, .T. ) ;
#28 = EDGE_CURVE ( 'NONE', #81, #79, #144, .T. ) ;
#29 = EDGE_CURVE ( 'NONE', #386, #386, #171, .T. ) ;
#30 = EDGE_CURVE ( 'NONE', #387, #387, #177, .T. ) ;
#31 = EDGE_CURVE ( 'NONE', #388, #388, #348, .T. ) ;
#32 = EDGE_CURVE ( 'NONE', #85, #80, #350, .T. ) ;
#33 = AXIS2_PLACEMENT_3D ( 'NONE', #211, #212, #213 ) ;
#34 = AXIS2_PLACEMENT_3D ( 'NONE', #214, #215, #216 ) ;
#35 = AXIS2_PLACEMENT_3D ( 'NONE', #217, #218, #219 ) ;
#36 = AXIS2_PLACEMENT_3D ( 'NONE', #220, #221, #222 ) ;
#37 = AXIS2_PLACEMENT_3D ( 'NONE', #225, #226, #227 ) ;
#38 = AXIS2_PLACEMENT_3D ( 'NONE', #229, #230, #231 ) ;
#39 = AXIS2_PLACEMENT_3D ( 'NONE', #233, #234, #235 ) ;
#40 = AXIS2_PLACEMENT_3D ( 'NONE', #237, #238, #239 ) ;
#41 = AXIS2_PLACEMENT_3D ( 'NONE', #260, #261, #262 ) ;
#42 = AXIS2_PLACEMENT_3D ( 'NONE', #257, #265, #266 ) ;
#43 = AXIS2_PLACEMENT_3D ( 'NONE', #259, #269, #270 ) ;
#44 = AXIS2_PLACEMENT_3D ( 'NONE', #264, #273, #274 ) ;
#45 = AXIS2_PLACEMENT_3D ( 'NONE', #268, #277, #278 ) ;
#46 = AXIS2_PLACEMENT_3D ( 'NONE', #272, #281, #282 ) ;
#47 = AXIS2_PLACEMENT_3D ( 'NONE', #284, #276, #286 ) ;
#48 =( GEOMETRIC_REPRESENTATION_CONTEXT ( 3 ) GLOBAL_UNCERTAINTY_ASSIGNED_CONTEXT ( ( #17 ) ) GLOBAL_UNIT_ASSIGNED_CONTEXT ( ( #309, #310, #311 ) ) REPRESENTATION_CONTEXT ( 'NONE', 'WORKASPACE' ) );
#49 = AXIS2_PLACEMENT_3D ( 'NONE', #288, #283, #290 ) ;
#50 = AXIS2_PLACEMENT_3D ( 'NONE', #291, #280, #287 ) ;
#51 = AXIS2_PLACEMENT_3D ( 'NONE', #295, #293, #292 ) ;
#52 = AXIS2_PLACEMENT_3D ( 'NONE', #296, #297, #294 ) ;
#53 = AXIS2_PLACEMENT_3D ( 'NONE', #299, #300, #298 ) ;
#54 = AXIS2_PLACEMENT_3D ( 'NONE', #305, #308, #314 ) ;
#55 = CC_DESIGN_PERSON_AND_ORGANIZATION_ASSIGNMENT ( #390, #316, ( #381 ) ) ;
#56 = PRODUCT_DEFINITION ( 'UNKNOWN', '', #61, #19 ) ;
#57 = APPROVAL ( #319, 'UNSPECIFIED' ) ;
#58 = CC_DESIGN_APPROVAL ( #57, ( #56 ) ) ;
#59 = CC_DESIGN_PERSON_AND_ORGANIZATION_ASSIGNMENT ( #398, #321, ( #56 ) ) ;
#60 = CC_DESIGN_DATE_AND_TIME_ASSIGNMENT ( #402, #322, ( #56 ) ) ;
#61 = PRODUCT_DEFINITION_FORMATION_WITH_SPECIFIED_SOURCE ( 'ANY', '', #381, .NOT_KNOWN. ) ;
#62 = APPROVAL ( #323, 'UNSPECIFIED' ) ;
#63 = CC_DESIGN_APPROVAL ( #62, ( #61 ) ) ;
#64 = CC_DESIGN_PERSON_AND_ORGANIZATION_ASSIGNMENT ( #426, #325, ( #61 ) ) ;
#65 = CC_DESIGN_PERSON_AND_ORGANIZATION_ASSIGNMENT ( #427, #326, ( #61 ) ) ;
#66 = SECURITY_CLASSIFICATION ( '', '', #327 ) ;
#67 = CC_DESIGN_PERSON_AND_ORGANIZATION_ASSIGNMENT ( #428, #328, ( #66 ) ) ;
#68 = CC_DESIGN_DATE_AND_TIME_ASSIGNMENT ( #432, #329, ( #66 ) ) ;
#69 = APPROVAL ( #330, 'UNSPECIFIED' ) ;
#70 = CC_DESIGN_APPROVAL ( #69, ( #66 ) ) ;
#71 = CC_DESIGN_SECURITY_CLASSIFICATION ( #66, ( #61 ) ) ;
#72 = PRODUCT_RELATED_PRODUCT_CATEGORY ( 'detail', '', ( #381 ) ) ;
#73 = EDGE_LOOP ( 'NONE', ( #135 ) ) ;
#74 = EDGE_LOOP ( 'NONE', ( #90, #91, #92, #93 ) ) ;
#75 = VERTEX_POINT ( 'NONE', #223 ) ;
#76 = VERTEX_POINT ( 'NONE', #232 ) ;
#77 = VERTEX_POINT ( 'NONE', #240 ) ;
#78 = VERTEX_POINT ( 'NONE', #224 ) ;
#79 = VERTEX_POINT ( 'NONE', #241 ) ;
#80 = VERTEX_POINT ( 'NONE', #228 ) ;
#81 = VERTEX_POINT ( 'NONE', #242 ) ;
#82 = VERTEX_POINT ( 'NONE', #236 ) ;
#83 = VERTEX_POINT ( 'NONE', #243 ) ;
#84 = VERTEX_POINT ( 'NONE', #244 ) ;
#85 = VERTEX_POINT ( 'NONE', #245 ) ;
#86 = VERTEX_POINT ( 'NONE', #246 ) ;
#87 = VERTEX_POINT ( 'NONE', #247 ) ;
#88 = VERTEX_POINT ( 'NONE', #248 ) ;
#89 = ORIENTED_EDGE ( 'NONE', *, *, #21, .F. ) ;
#90 = ORIENTED_EDGE ( 'NONE', *, *, #2, .F. ) ;
#91 = ORIENTED_EDGE ( 'NONE', *, *, #3, .T. ) ;
#92 = ORIENTED_EDGE ( 'NONE', *, *, #1, .T. ) ;
#93 = ORIENTED_EDGE ( 'NONE', *, *, #4, .T. ) ;
#94 = ORIENTED_EDGE ( 'NONE', *, *, #5, .T. ) ;
#95 = ORIENTED_EDGE ( 'NONE', *, *, #6, .T. ) ;
#96 = ORIENTED_EDGE ( 'NONE', *, *, #7, .F. ) ;
#97 = ORIENTED_EDGE ( 'NONE', *, *, #8, .F. ) ;
#98 = ORIENTED_EDGE ( 'NONE', *, *, #9, .F. ) ;
#99 = ORIENTED_EDGE ( 'NONE', *, *, #10, .F. ) ;
#100 = ORIENTED_EDGE ( 'NONE', *, *, #11, .T. ) ;
#101 = ORIENTED_EDGE ( 'NONE', *, *, #8, .T. ) ;
#102 = ORIENTED_EDGE ( 'NONE', *, *, #332, .F. ) ;
#103 = ORIENTED_EDGE ( 'NONE', *, *, #334, .F. ) ;
#104 = ORIENTED_EDGE ( 'NONE', *, *, #335, .T. ) ;
#105 = ORIENTED_EDGE ( 'NONE', *, *, #10, .T. ) ;
#106 = ORIENTED_EDGE ( 'NONE', *, *, #333, .F. ) ;
#107 = ORIENTED_EDGE ( 'NONE', *, *, #22, .T. ) ;
#108 = ORIENTED_EDGE ( 'NONE', *, *, #334, .T. ) ;
#109 = ORIENTED_EDGE ( 'NONE', *, *, #23, .F. ) ;
#110 = ORIENTED_EDGE ( 'NONE', *, *, #4, .F. ) ;
#111 = ORIENTED_EDGE ( 'NONE', *, *, #24, .T. ) ;
#112 = ORIENTED_EDGE ( 'NONE', *, *, #21, .T. ) ;
#113 = ORIENTED_EDGE ( 'NONE', *, *, #25, .T. ) ;
#114 = ORIENTED_EDGE ( 'NONE', *, *, #26, .T. ) ;
#115 = ORIENTED_EDGE ( 'NONE', *, *, #27, .T. ) ;
#116 = ORIENTED_EDGE ( 'NONE', *, *, #1, .F. ) ;
#117 = ORIENTED_EDGE ( 'NONE', *, *, #28, .T. ) ;
#118 = ORIENTED_EDGE ( 'NONE', *, *, #5, .F. ) ;
#119 = ORIENTED_EDGE ( 'NONE', *, *, #11, .F. ) ;
#120 = ORIENTED_EDGE ( 'NONE', *, *, #335, .F. ) ;
#121 = ORIENTED_EDGE ( 'NONE', *, *, #22, .F. ) ;
#122 = ORIENTED_EDGE ( 'NONE', *, *, #24, .F. ) ;
#123 = ORIENTED_EDGE ( 'NONE', *, *, #29, .F. ) ;
#124 = ORIENTED_EDGE ( 'NONE', *, *, #30, .F. ) ;
#125 = ORIENTED_EDGE ( 'NONE', *, *, #31, .F. ) ;
#126 = ORIENTED_EDGE ( 'NONE', *, *, #7, .T. ) ;
#127 = ORIENTED_EDGE ( 'NONE', *, *, #32, .T. ) ;
#128 = ORIENTED_EDGE ( 'NONE', *, *, #2, .T. ) ;
#129 = ORIENTED_EDGE ( 'NONE', *, *, #23, .T. ) ;
#130 = ORIENTED_EDGE ( 'NONE', *, *, #333, .T. ) ;
#131 = ORIENTED_EDGE ( 'NONE', *, *, #332, .T. ) ;
#132 = ORIENTED_EDGE ( 'NONE', *, *, #9, .T. ) ;
#133 = ORIENTED_EDGE ( 'NONE', *, *, #27, .F. ) ;
#134 = ORIENTED_EDGE ( 'NONE', *, *, #31, .T. ) ;
#135 = ORIENTED_EDGE ( 'NONE', *, *, #26, .F. ) ;
#136 = ORIENTED_EDGE ( 'NONE', *, *, #30, .T. ) ;
#137 = ORIENTED_EDGE ( 'NONE', *, *, #25, .F. ) ;
#138 = ORIENTED_EDGE ( 'NONE', *, *, #29, .T. ) ;
#139 = ORIENTED_EDGE ( 'NONE', *, *, #28, .F. ) ;
#140 = ORIENTED_EDGE ( 'NONE', *, *, #3, .F. ) ;
#141 = ORIENTED_EDGE ( 'NONE', *, *, #32, .F. ) ;
#142 = ORIENTED_EDGE ( 'NONE', *, *, #6, .F. ) ;
#143 = EDGE_LOOP ( 'NONE', ( #139, #140, #141, #142 ) ) ;
#144 = CIRCLE ( 'NONE', #36, 3.000000000000000000 ) ;
#145 = LINE ( 'NONE', #181, #146 ) ;
#146 = VECTOR ( 'NONE', #182, 1000.000000000000000 ) ;
#147 = LINE ( 'NONE', #186, #158 ) ;
#148 = LINE ( 'NONE', #184, #149 ) ;
#149 = VECTOR ( 'NONE', #183, 1000.000000000000000 ) ;
#150 = LINE ( 'NONE', #189, #154 ) ;
#151 = LINE ( 'NONE', #185, #152 ) ;
#152 = VECTOR ( 'NONE', #188, 1000.000000000000000 ) ;
#153 = LINE ( 'NONE', #191, #156 ) ;
#154 = VECTOR ( 'NONE', #190, 1000.000000000000000 ) ;
#155 = LINE ( 'NONE', #187, #164 ) ;
#156 = VECTOR ( 'NONE', #193, 1000.000000000000000 ) ;
#157 = LINE ( 'NONE', #195, #160 ) ;
#158 = VECTOR ( 'NONE', #194, 1000.000000000000000 ) ;
#159 = LINE ( 'NONE', #197, #162 ) ;
#160 = VECTOR ( 'NONE', #196, 1000.000000000000000 ) ;
#161 = LINE ( 'NONE', #192, #168 ) ;
#162 = VECTOR ( 'NONE', #199, 1000.000000000000000 ) ;
#163 = LINE ( 'NONE', #201, #166 ) ;
#164 = VECTOR ( 'NONE', #200, 1000.000000000000000 ) ;
#165 = LINE ( 'NONE', #198, #170 ) ;
#166 = VECTOR ( 'NONE', #203, 1000.000000000000000 ) ;
#167 = LINE ( 'NONE', #202, #172 ) ;
#168 = VECTOR ( 'NONE', #204, 1000.000000000000000 ) ;
#169 = LINE ( 'NONE', #205, #174 ) ;
#170 = VECTOR ( 'NONE', #206, 1000.000000000000000 ) ;
#171 = CIRCLE ( 'NONE', #37, 6.499999999999999100 ) ;
#172 = VECTOR ( 'NONE', #207, 1000.000000000000000 ) ;
#173 = LINE ( 'NONE', #209, #176 ) ;
#174 = VECTOR ( 'NONE', #208, 1000.000000000000000 ) ;
#175 = CIRCLE ( 'NONE', #33, 6.499999999999999100 ) ;
#176 = VECTOR ( 'NONE', #210, 1000.000000000000000 ) ;
#177 = CIRCLE ( 'NONE', #38, 6.500000000000008900 ) ;
#178 = SHAPE_DEFINITION_REPRESENTATION ( #20, #18 ) ;
#179 = CIRCLE ( 'NONE', #34, 6.500000000000008900 ) ;
#180 = CIRCLE ( 'NONE', #35, 6.500000000000008900 ) ;
#181 = CARTESIAN_POINT ( 'NONE',  ( -3.999999999999982700, 20.00000000000005700, -6.000000000000000000 ) ) ;
#182 = DIRECTION ( 'NONE',  ( -2.891205793294687700E-016, 1.000000000000000000, 0.0000000000000000000 ) ) ;
#183 = DIRECTION ( 'NONE',  ( -2.891205793294687700E-016, 1.000000000000000000, 0.0000000000000000000 ) ) ;
#184 = CARTESIAN_POINT ( 'NONE',  ( -3.999999999999982700, 20.00000000000005700, 0.0000000000000000000 ) ) ;
#185 = CARTESIAN_POINT ( 'NONE',  ( -3.999999999999983600, 23.00000000000005700, -6.000000000000000000 ) ) ;
#186 = CARTESIAN_POINT ( 'NONE',  ( -0.9999999999999802400, 20.00000000000005700, 0.0000000000000000000 ) ) ;
#187 = CARTESIAN_POINT ( 'NONE',  ( 44.00000000000000000, -20.00000000000006800, 0.0000000000000000000 ) ) ;
#188 = DIRECTION ( 'NONE',  ( -0.0000000000000000000, -0.0000000000000000000, -1.000000000000000000 ) ) ;
#189 = CARTESIAN_POINT ( 'NONE',  ( -3.999999999999996400, 67.99999999999991500, -6.000000000000000000 ) ) ;
#190 = DIRECTION ( 'NONE',  ( 0.0000000000000000000, 0.0000000000000000000, 1.000000000000000000 ) ) ;
#191 = CARTESIAN_POINT ( 'NONE',  ( 44.00000000000000000, 20.00000000000005300, -6.000000000000000000 ) ) ;
#192 = CARTESIAN_POINT ( 'NONE',  ( 44.00000000000000000, -20.00000000000006800, -6.000000000000000000 ) ) ;
#193 = DIRECTION ( 'NONE',  ( -1.000000000000000000, 7.228014483236699500E-017, 0.0000000000000000000 ) ) ;
#194 = DIRECTION ( 'NONE',  ( 0.0000000000000000000, 0.0000000000000000000, 1.000000000000000000 ) ) ;
#195 = CARTESIAN_POINT ( 'NONE',  ( 44.00000000000000000, 20.00000000000005300, 0.0000000000000000000 ) ) ;
#196 = DIRECTION ( 'NONE',  ( -1.000000000000000000, 7.228014483236699500E-017, 0.0000000000000000000 ) ) ;
#197 = CARTESIAN_POINT ( 'NONE',  ( 44.00000000000000000, 20.00000000000005300, -6.000000000000000000 ) ) ;
#198 = CARTESIAN_POINT ( 'NONE',  ( -44.00000000000000000, 67.99999999999991500, -6.000000000000000000 ) ) ;
#199 = DIRECTION ( 'NONE',  ( 0.0000000000000000000, 0.0000000000000000000, 1.000000000000000000 ) ) ;
#200 = DIRECTION ( 'NONE',  ( 0.0000000000000000000, 1.000000000000000000, 0.0000000000000000000 ) ) ;
#201 = CARTESIAN_POINT ( 'NONE',  ( 44.00000000000000000, -20.00000000000006800, -6.000000000000000000 ) ) ;
#202 = CARTESIAN_POINT ( 'NONE',  ( -44.00000000000000000, 20.00000000000005300, -6.000000000000000000 ) ) ;
#203 = DIRECTION ( 'NONE',  ( 0.0000000000000000000, 0.0000000000000000000, 1.000000000000000000 ) ) ;
#204 = DIRECTION ( 'NONE',  ( 0.0000000000000000000, 1.000000000000000000, 0.0000000000000000000 ) ) ;
#205 = CARTESIAN_POINT ( 'NONE',  ( -44.00000000000000000, 67.99999999999991500, 0.0000000000000000000 ) ) ;
#206 = DIRECTION ( 'NONE',  ( 0.0000000000000000000, 0.0000000000000000000, 1.000000000000000000 ) ) ;
#207 = DIRECTION ( 'NONE',  ( -0.0000000000000000000, -1.000000000000000000, -0.0000000000000000000 ) ) ;
#208 = DIRECTION ( 'NONE',  ( -1.000000000000000000, 3.469446951953614200E-016, -0.0000000000000000000 ) ) ;
#209 = CARTESIAN_POINT ( 'NONE',  ( -44.00000000000000000, 67.99999999999991500, -6.000000000000000000 ) ) ;
#210 = DIRECTION ( 'NONE',  ( -1.000000000000000000, 3.469446951953614200E-016, -0.0000000000000000000 ) ) ;
#211 = CARTESIAN_POINT ( 'NONE',  ( 24.00000000000001400, -5.204170427930421300E-015, -6.000000000000000000 ) ) ;
#212 = DIRECTION ( 'NONE',  ( 0.0000000000000000000, 0.0000000000000000000, 1.000000000000000000 ) ) ;
#213 = DIRECTION ( 'NONE',  ( 1.000000000000000000, 0.0000000000000000000, 0.0000000000000000000 ) ) ;
#214 = CARTESIAN_POINT ( 'NONE',  ( -23.99999999999999300, 47.99999999999991500, -6.000000000000000000 ) ) ;
#215 = DIRECTION ( 'NONE',  ( 0.0000000000000000000, 0.0000000000000000000, 1.000000000000000000 ) ) ;
#216 = DIRECTION ( 'NONE',  ( 1.000000000000000000, 0.0000000000000000000, 0.0000000000000000000 ) ) ;
#217 = CARTESIAN_POINT ( 'NONE',  ( -23.99999999999998600, -5.204170427930421300E-015, -6.000000000000000000 ) ) ;
#218 = DIRECTION ( 'NONE',  ( 0.0000000000000000000, 0.0000000000000000000, 1.000000000000000000 ) ) ;
#219 = DIRECTION ( 'NONE',  ( 1.000000000000000000, 0.0000000000000000000, 0.0000000000000000000 ) ) ;
#220 = CARTESIAN_POINT ( 'NONE',  ( -0.9999999999999800200, 23.00000000000005700, -6.000000000000000000 ) ) ;
#221 = DIRECTION ( 'NONE',  ( -0.0000000000000000000, -0.0000000000000000000, 1.000000000000000000 ) ) ;
#222 = DIRECTION ( 'NONE',  ( -1.000000000000000000, 0.0000000000000000000, 0.0000000000000000000 ) ) ;
#223 = CARTESIAN_POINT ( 'NONE',  ( 44.00000000000000000, 20.00000000000005300, -6.000000000000000000 ) ) ;
#224 = CARTESIAN_POINT ( 'NONE',  ( -44.00000000000000000, 67.99999999999991500, 0.0000000000000000000 ) ) ;
#225 = CARTESIAN_POINT ( 'NONE',  ( 24.00000000000001400, -5.204170427930421300E-015, 0.0000000000000000000 ) ) ;
#226 = DIRECTION ( 'NONE',  ( 0.0000000000000000000, 0.0000000000000000000, 1.000000000000000000 ) ) ;
#227 = DIRECTION ( 'NONE',  ( 1.000000000000000000, 0.0000000000000000000, 0.0000000000000000000 ) ) ;
#228 = CARTESIAN_POINT ( 'NONE',  ( -3.999999999999983600, 23.00000000000005700, 0.0000000000000000000 ) ) ;
#229 = CARTESIAN_POINT ( 'NONE',  ( -23.99999999999999300, 47.99999999999991500, 0.0000000000000000000 ) ) ;
#230 = DIRECTION ( 'NONE',  ( 0.0000000000000000000, 0.0000000000000000000, 1.000000000000000000 ) ) ;
#231 = DIRECTION ( 'NONE',  ( 1.000000000000000000, 0.0000000000000000000, 0.0000000000000000000 ) ) ;
#232 = CARTESIAN_POINT ( 'NONE',  ( -3.999999999999996400, 67.99999999999991500, 0.0000000000000000000 ) ) ;
#233 = CARTESIAN_POINT ( 'NONE',  ( -23.99999999999998600, -5.204170427930421300E-015, 0.0000000000000000000 ) ) ;
#234 = DIRECTION ( 'NONE',  ( 0.0000000000000000000, 0.0000000000000000000, 1.000000000000000000 ) ) ;
#235 = DIRECTION ( 'NONE',  ( 1.000000000000000000, 0.0000000000000000000, 0.0000000000000000000 ) ) ;
#236 = CARTESIAN_POINT ( 'NONE',  ( -3.999999999999996400, 67.99999999999991500, -6.000000000000000000 ) ) ;
#237 = CARTESIAN_POINT ( 'NONE',  ( -0.9999999999999800200, 23.00000000000005700, 0.0000000000000000000 ) ) ;
#238 = DIRECTION ( 'NONE',  ( 0.0000000000000000000, 0.0000000000000000000, -1.000000000000000000 ) ) ;
#239 = DIRECTION ( 'NONE',  ( -1.000000000000000000, 0.0000000000000000000, 0.0000000000000000000 ) ) ;
#240 = CARTESIAN_POINT ( 'NONE',  ( 44.00000000000000000, -20.00000000000006800, -6.000000000000000000 ) ) ;
#241 = CARTESIAN_POINT ( 'NONE',  ( -0.9999999999999800200, 20.00000000000005700, -6.000000000000000000 ) ) ;
#242 = CARTESIAN_POINT ( 'NONE',  ( -3.999999999999983600, 23.00000000000005700, -6.000000000000000000 ) ) ;
#243 = CARTESIAN_POINT ( 'NONE',  ( 44.00000000000000000, -20.00000000000006800, 0.0000000000000000000 ) ) ;
#244 = CARTESIAN_POINT ( 'NONE',  ( 44.00000000000000000, 20.00000000000005300, 0.0000000000000000000 ) ) ;
#245 = CARTESIAN_POINT ( 'NONE',  ( -0.9999999999999800200, 20.00000000000005700, 0.0000000000000000000 ) ) ;
#246 = CARTESIAN_POINT ( 'NONE',  ( -44.00000000000000000, -20.00000000000006800, 0.0000000000000000000 ) ) ;
#247 = CARTESIAN_POINT ( 'NONE',  ( -44.00000000000000000, -20.00000000000006800, -6.000000000000000000 ) ) ;
#248 = CARTESIAN_POINT ( 'NONE',  ( -44.00000000000000000, 67.99999999999991500, -6.000000000000000000 ) ) ;
#249 = DIRECTION ( 'NONE',  ( 1.000000000000000000, 0.0000000000000000000, 0.0000000000000000000 ) ) ;
#250 = CARTESIAN_POINT ( 'NONE',  ( -44.00000000000000000, -20.00000000000006800, 0.0000000000000000000 ) ) ;
#251 = PLANE ( 'NONE',  #41 ) ;
#252 = CARTESIAN_POINT ( 'NONE',  ( -44.00000000000000000, 20.00000000000005300, 0.0000000000000000000 ) ) ;
#253 = DIRECTION ( 'NONE',  ( 0.0000000000000000000, -1.000000000000000000, 0.0000000000000000000 ) ) ;
#254 = CARTESIAN_POINT ( 'NONE',  ( -44.00000000000000000, -20.00000000000006800, -6.000000000000000000 ) ) ;
#255 = DIRECTION ( 'NONE',  ( 0.0000000000000000000, 0.0000000000000000000, 1.000000000000000000 ) ) ;
#256 = CARTESIAN_POINT ( 'NONE',  ( -44.00000000000000000, -20.00000000000006800, -6.000000000000000000 ) ) ;
#257 = CARTESIAN_POINT ( 'NONE',  ( -3.999999999999982700, 20.00000000000005700, -6.000000000000000000 ) ) ;
#258 = DIRECTION ( 'NONE',  ( 1.000000000000000000, 0.0000000000000000000, 0.0000000000000000000 ) ) ;
#259 = CARTESIAN_POINT ( 'NONE',  ( 44.00000000000000000, -20.00000000000006800, -6.000000000000000000 ) ) ;
#260 = CARTESIAN_POINT ( 'NONE',  ( 44.00000000000000000, 20.00000000000005300, -6.000000000000000000 ) ) ;
#261 = DIRECTION ( 'NONE',  ( 7.228014483236699500E-017, 1.000000000000000000, -0.0000000000000000000 ) ) ;
#262 = DIRECTION ( 'NONE',  ( -1.000000000000000000, 7.228014483236699500E-017, 0.0000000000000000000 ) ) ;
#263 = PLANE ( 'NONE',  #42 ) ;
#264 = CARTESIAN_POINT ( 'NONE',  ( -44.00000000000000000, -20.00000000000006800, -6.000000000000000000 ) ) ;
#265 = DIRECTION ( 'NONE',  ( 1.000000000000000000, 2.891205793294687200E-016, -0.0000000000000000000 ) ) ;
#266 = DIRECTION ( 'NONE',  ( -2.891205793294687200E-016, 1.000000000000000000, 0.0000000000000000000 ) ) ;
#267 = PLANE ( 'NONE',  #43 ) ;
#268 = CARTESIAN_POINT ( 'NONE',  ( -44.00000000000000000, 20.00000000000005300, -6.000000000000000000 ) ) ;
#269 = DIRECTION ( 'NONE',  ( 1.000000000000000000, 0.0000000000000000000, 0.0000000000000000000 ) ) ;
#270 = DIRECTION ( 'NONE',  ( 0.0000000000000000000, 0.0000000000000000000, -1.000000000000000000 ) ) ;
#271 = PLANE ( 'NONE',  #44 ) ;
#272 = CARTESIAN_POINT ( 'NONE',  ( -44.00000000000000000, 67.99999999999991500, -6.000000000000000000 ) ) ;
#273 = DIRECTION ( 'NONE',  ( 0.0000000000000000000, -1.000000000000000000, 0.0000000000000000000 ) ) ;
#274 = DIRECTION ( 'NONE',  ( 0.0000000000000000000, -0.0000000000000000000, -1.000000000000000000 ) ) ;
#275 = PLANE ( 'NONE',  #45 ) ;
#276 = DIRECTION ( 'NONE',  ( 0.0000000000000000000, 0.0000000000000000000, -1.000000000000000000 ) ) ;
#277 = DIRECTION ( 'NONE',  ( -1.000000000000000000, 0.0000000000000000000, 0.0000000000000000000 ) ) ;
#278 = DIRECTION ( 'NONE',  ( 0.0000000000000000000, 0.0000000000000000000, 1.000000000000000000 ) ) ;
#279 = PLANE ( 'NONE',  #46 ) ;
#280 = DIRECTION ( 'NONE',  ( 0.0000000000000000000, 0.0000000000000000000, 1.000000000000000000 ) ) ;
#281 = DIRECTION ( 'NONE',  ( 3.469446951953613700E-016, 1.000000000000000000, -0.0000000000000000000 ) ) ;
#282 = DIRECTION ( 'NONE',  ( -1.000000000000000000, 3.469446951953613700E-016, 0.0000000000000000000 ) ) ;
#283 = DIRECTION ( 'NONE',  ( 0.0000000000000000000, 0.0000000000000000000, -1.000000000000000000 ) ) ;
#284 = CARTESIAN_POINT ( 'NONE',  ( -3.999999999999996400, 67.99999999999991500, -6.000000000000000000 ) ) ;
#285 = PLANE ( 'NONE',  #47 ) ;
#286 = DIRECTION ( 'NONE',  ( -1.000000000000000000, 0.0000000000000000000, -0.0000000000000000000 ) ) ;
#287 = DIRECTION ( 'NONE',  ( 1.000000000000000000, 0.0000000000000000000, 0.0000000000000000000 ) ) ;
#288 = CARTESIAN_POINT ( 'NONE',  ( -3.999999999999996400, 67.99999999999991500, 0.0000000000000000000 ) ) ;
#289 = PLANE ( 'NONE',  #49 ) ;
#290 = DIRECTION ( 'NONE',  ( -1.000000000000000000, 0.0000000000000000000, -0.0000000000000000000 ) ) ;
#291 = CARTESIAN_POINT ( 'NONE',  ( 24.00000000000001400, -5.204170427930421300E-015, -6.000000000000000000 ) ) ;
#292 = DIRECTION ( 'NONE',  ( -1.000000000000000000, 0.0000000000000000000, 0.0000000000000000000 ) ) ;
#293 = DIRECTION ( 'NONE',  ( 0.0000000000000000000, 0.0000000000000000000, -1.000000000000000000 ) ) ;
#294 = DIRECTION ( 'NONE',  ( 1.000000000000000000, 0.0000000000000000000, 0.0000000000000000000 ) ) ;
#295 = CARTESIAN_POINT ( 'NONE',  ( -0.9999999999999800200, 23.00000000000005700, -6.000000000000000000 ) ) ;
#296 = CARTESIAN_POINT ( 'NONE',  ( -23.99999999999998600, -5.204170427930421300E-015, -6.000000000000000000 ) ) ;
#297 = DIRECTION ( 'NONE',  ( 0.0000000000000000000, 0.0000000000000000000, 1.000000000000000000 ) ) ;
#298 = DIRECTION ( 'NONE',  ( 1.000000000000000000, 0.0000000000000000000, 0.0000000000000000000 ) ) ;
#299 = CARTESIAN_POINT ( 'NONE',  ( -23.99999999999999300, 47.99999999999991500, -6.000000000000000000 ) ) ;
#300 = DIRECTION ( 'NONE',  ( 0.0000000000000000000, 0.0000000000000000000, 1.000000000000000000 ) ) ;
#301 = CARTESIAN_POINT ( 'NONE',  ( 30.50000000000001400, -5.204170427930421300E-015, 0.0000000000000000000 ) ) ;
#302 = CARTESIAN_POINT ( 'NONE',  ( -17.49999999999998600, 47.99999999999991500, -6.000000000000000000 ) ) ;
#303 = CARTESIAN_POINT ( 'NONE',  ( 30.50000000000001400, -5.204170427930421300E-015, -6.000000000000000000 ) ) ;
#304 = CARTESIAN_POINT ( 'NONE',  ( -17.49999999999997900, -5.204170427930421300E-015, -6.000000000000000000 ) ) ;
#305 = CARTESIAN_POINT ( 'NONE',  ( 0.0000000000000000000, 0.0000000000000000000, 0.0000000000000000000 ) ) ;
#306 = CARTESIAN_POINT ( 'NONE',  ( -17.49999999999998600, 47.99999999999991500, 0.0000000000000000000 ) ) ;
#307 = CARTESIAN_POINT ( 'NONE',  ( -17.49999999999997900, -5.204170427930421300E-015, 0.0000000000000000000 ) ) ;
#308 = DIRECTION ( 'NONE',  ( 0.0000000000000000000, 0.0000000000000000000, 1.000000000000000000 ) ) ;
#309 =( LENGTH_UNIT ( ) NAMED_UNIT ( * ) SI_UNIT ( .MILLI., .METRE. ) );
#310 =( NAMED_UNIT ( * ) PLANE_ANGLE_UNIT ( ) SI_UNIT ( $, .RADIAN. ) );
#311 =( NAMED_UNIT ( * ) SI_UNIT ( $, .STERADIAN. ) SOLID_ANGLE_UNIT ( ) );
#312 = APPLICATION_PROTOCOL_DEFINITION ( 'international standard', 'config_control_design', 1994, #313 ) ;
#313 = APPLICATION_CONTEXT ( 'configuration controlled 3d designs of mechanical parts and assemblies' ) ;
#314 = DIRECTION ( 'NONE',  ( 1.000000000000000000, 0.0000000000000000000, 0.0000000000000000000 ) ) ;
#315 = MECHANICAL_CONTEXT ( 'NONE', #313, 'mechanical' ) ;
#316 = PERSON_AND_ORGANIZATION_ROLE ( 'design_owner' ) ;
#317 = APPLICATION_CONTEXT ( 'configuration controlled 3d designs of mechanical parts and assemblies' ) ;
#318 = APPLICATION_PROTOCOL_DEFINITION ( 'international standard', 'config_control_design', 1994, #317 ) ;
#319 = APPROVAL_STATUS ( 'not_yet_approved' ) ;
#320 = APPROVAL_ROLE ( '' ) ;
#321 = PERSON_AND_ORGANIZATION_ROLE ( 'creator' ) ;
#322 = DATE_TIME_ROLE ( 'creation_date' ) ;
#323 = APPROVAL_STATUS ( 'not_yet_approved' ) ;
#324 = APPROVAL_ROLE ( '' ) ;
#325 = PERSON_AND_ORGANIZATION_ROLE ( 'creator' ) ;
#326 = PERSON_AND_ORGANIZATION_ROLE ( 'design_supplier' ) ;
#327 = SECURITY_CLASSIFICATION_LEVEL ( 'unclassified' ) ;
#328 = PERSON_AND_ORGANIZATION_ROLE ( 'classification_officer' ) ;
#329 = DATE_TIME_ROLE ( 'classification_date' ) ;
#330 = APPROVAL_STATUS ( 'not_yet_approved' ) ;
#331 = APPROVAL_ROLE ( '' ) ;
#332 = EDGE_CURVE ( 'NONE', #86, #83, #351, .T. ) ;
#333 = EDGE_CURVE ( 'NONE', #78, #86, #352, .T. ) ;
#334 = EDGE_CURVE ( 'NONE', #87, #86, #356, .T. ) ;
#335 = EDGE_CURVE ( 'NONE', #87, #77, #354, .T. ) ;
#336 = EDGE_LOOP ( 'NONE', ( #102, #103, #104, #105 ) ) ;
#337 = EDGE_LOOP ( 'NONE', ( #137 ) ) ;
#338 = EDGE_LOOP ( 'NONE', ( #126, #127, #128, #129, #130, #131, #132 ) ) ;
#339 = EDGE_LOOP ( 'NONE', ( #94, #95, #96, #97 ) ) ;
#340 = EDGE_LOOP ( 'NONE', ( #113 ) ) ;
#341 = FACE_OUTER_BOUND ( 'NONE', #13, .T. ) ;
#342 = EDGE_LOOP ( 'NONE', ( #134 ) ) ;
#343 = EDGE_LOOP ( 'NONE', ( #109, #110, #111, #112 ) ) ;
#344 = CLOSED_SHELL ( 'NONE', ( #409, #408, #410, #411, #412, #413, #414, #415, #418, #419, #416, #417 ) ) ;
#345 = EDGE_LOOP ( 'NONE', ( #123 ) ) ;
#346 = EDGE_LOOP ( 'NONE', ( #116, #117, #118, #119, #120, #121, #122 ) ) ;
#347 = VECTOR ( 'NONE', #255, 1000.000000000000000 ) ;
#348 = CIRCLE ( 'NONE', #39, 6.500000000000008900 ) ;
#349 = FACE_BOUND ( 'NONE', #345, .T. ) ;
#350 = CIRCLE ( 'NONE', #40, 3.000000000000000000 ) ;
#351 = LINE ( 'NONE', #250, #357 ) ;
#352 = LINE ( 'NONE', #252, #355 ) ;
#353 = FACE_OUTER_BOUND ( 'NONE', #74, .T. ) ;
#354 = LINE ( 'NONE', #256, #358 ) ;
#355 = VECTOR ( 'NONE', #253, 1000.000000000000000 ) ;
#356 = LINE ( 'NONE', #254, #347 ) ;
#357 = VECTOR ( 'NONE', #249, 1000.000000000000000 ) ;
#358 = VECTOR ( 'NONE', #258, 1000.000000000000000 ) ;
#359 = FACE_OUTER_BOUND ( 'NONE', #15, .T. ) ;
#360 = FACE_OUTER_BOUND ( 'NONE', #339, .T. ) ;
#361 = FACE_OUTER_BOUND ( 'NONE', #336, .T. ) ;
#362 = FACE_OUTER_BOUND ( 'NONE', #422, .T. ) ;
#363 = FACE_OUTER_BOUND ( 'NONE', #343, .T. ) ;
#364 = FACE_BOUND ( 'NONE', #340, .T. ) ;
#365 = FACE_BOUND ( 'NONE', #12, .T. ) ;
#366 = FACE_OUTER_BOUND ( 'NONE', #346, .T. ) ;
#367 = FACE_BOUND ( 'NONE', #420, .T. ) ;
#368 = FACE_BOUND ( 'NONE', #421, .T. ) ;
#369 = FACE_OUTER_BOUND ( 'NONE', #337, .T. ) ;
#370 = FACE_OUTER_BOUND ( 'NONE', #338, .T. ) ;
#371 = FACE_BOUND ( 'NONE', #440, .T. ) ;
#372 = FACE_OUTER_BOUND ( 'NONE', #143, .T. ) ;
#373 = FACE_OUTER_BOUND ( 'NONE', #14, .T. ) ;
#374 = FACE_OUTER_BOUND ( 'NONE', #423, .T. ) ;
#375 = VERTEX_POINT ( 'NONE', #303 ) ;
#376 = CYLINDRICAL_SURFACE ( 'NONE', #50, 6.499999999999999100 ) ;
#377 = FACE_OUTER_BOUND ( 'NONE', #73, .T. ) ;
#378 = CYLINDRICAL_SURFACE ( 'NONE', #51, 3.000000000000000000 ) ;
#379 = FACE_OUTER_BOUND ( 'NONE', #342, .T. ) ;
#380 = CYLINDRICAL_SURFACE ( 'NONE', #52, 6.500000000000008900 ) ;
#381 = PRODUCT ( 'Ïëàñòèíà ñîåäèíèòåëüíàÿ L-îáðàçíàÿ_BMD1021HDZ', 'Ïëàñòèíà ñîåäèíèòåëüíàÿ L-îáðàçíàÿ_BMD1021HDZ', '', ( #315 ) ) ;
#382 = PERSON ( 'UNSPECIFIED', 'UNSPECIFIED', 'UNSPECIFIED', ('UNSPECIFIED'), ('UNSPECIFIED'), ('UNSPECIFIED') ) ;
#383 = CYLINDRICAL_SURFACE ( 'NONE', #53, 6.500000000000008900 ) ;
#384 = VERTEX_POINT ( 'NONE', #302 ) ;
#385 = VERTEX_POINT ( 'NONE', #304 ) ;
#386 = VERTEX_POINT ( 'NONE', #301 ) ;
#387 = VERTEX_POINT ( 'NONE', #306 ) ;
#388 = VERTEX_POINT ( 'NONE', #307 ) ;
#389 = ORGANIZATION ( 'UNSPECIFIED', 'UNSPECIFIED', '' ) ;
#390 = PERSON_AND_ORGANIZATION ( #382, #389 ) ;
#391 = PERSON_AND_ORGANIZATION ( #382, #389 ) ;
#392 = APPROVAL_PERSON_ORGANIZATION ( #391, #57, #320 ) ;
#393 = COORDINATED_UNIVERSAL_TIME_OFFSET ( 4, 0, .AHEAD. ) ;
#394 = LOCAL_TIME ( 17, 57, 9.000000000000000000, #393 ) ;
#395 = CALENDAR_DATE ( 2012, 16, 11 ) ;
#396 = DATE_AND_TIME ( #395, #394 ) ;
#397 = APPROVAL_DATE_TIME ( #396, #57 ) ;
#398 = PERSON_AND_ORGANIZATION ( #382, #389 ) ;
#399 = COORDINATED_UNIVERSAL_TIME_OFFSET ( 4, 0, .AHEAD. ) ;
#400 = LOCAL_TIME ( 17, 57, 9.000000000000000000, #399 ) ;
#401 = CALENDAR_DATE ( 2012, 16, 11 ) ;
#402 = DATE_AND_TIME ( #401, #400 ) ;
#403 = PERSON_AND_ORGANIZATION ( #382, #389 ) ;
#404 = APPROVAL_PERSON_ORGANIZATION ( #403, #62, #324 ) ;
#405 = COORDINATED_UNIVERSAL_TIME_OFFSET ( 4, 0, .AHEAD. ) ;
#406 = LOCAL_TIME ( 17, 57, 9.000000000000000000, #405 ) ;
#407 = CALENDAR_DATE ( 2012, 16, 11 ) ;
#408 = ADVANCED_FACE ( 'NONE', ( #360 ), #251, .T. ) ;
#409 = ADVANCED_FACE ( 'NONE', ( #353 ), #263, .T. ) ;
#410 = ADVANCED_FACE ( 'NONE', ( #359 ), #267, .T. ) ;
#411 = ADVANCED_FACE ( 'NONE', ( #361 ), #271, .T. ) ;
#412 = ADVANCED_FACE ( 'NONE', ( #362 ), #275, .T. ) ;
#413 = ADVANCED_FACE ( 'NONE', ( #363 ), #279, .T. ) ;
#414 = ADVANCED_FACE ( 'NONE', ( #364, #367, #365, #366 ), #285, .T. ) ;
#415 = ADVANCED_FACE ( 'NONE', ( #349, #371, #368, #370 ), #289, .F. ) ;
#416 = ADVANCED_FACE ( 'NONE', ( #369, #374 ), #376, .F. ) ;
#417 = ADVANCED_FACE ( 'NONE', ( #372 ), #378, .F. ) ;
#418 = ADVANCED_FACE ( 'NONE', ( #373, #379 ), #380, .F. ) ;
#419 = ADVANCED_FACE ( 'NONE', ( #377, #341 ), #383, .F. ) ;
#420 = EDGE_LOOP ( 'NONE', ( #114 ) ) ;
#421 = EDGE_LOOP ( 'NONE', ( #125 ) ) ;
#422 = EDGE_LOOP ( 'NONE', ( #106, #89, #107, #108 ) ) ;
#423 = EDGE_LOOP ( 'NONE', ( #138 ) ) ;
#424 = DATE_AND_TIME ( #407, #406 ) ;
#425 = APPROVAL_DATE_TIME ( #424, #62 ) ;
#426 = PERSON_AND_ORGANIZATION ( #382, #389 ) ;
#427 = PERSON_AND_ORGANIZATION ( #382, #389 ) ;
#428 = PERSON_AND_ORGANIZATION ( #382, #389 ) ;
#429 = COORDINATED_UNIVERSAL_TIME_OFFSET ( 4, 0, .AHEAD. ) ;
#430 = LOCAL_TIME ( 17, 57, 9.000000000000000000, #429 ) ;
#431 = CALENDAR_DATE ( 2012, 16, 11 ) ;
#432 = DATE_AND_TIME ( #431, #430 ) ;
#433 = PERSON_AND_ORGANIZATION ( #382, #389 ) ;
#434 = APPROVAL_PERSON_ORGANIZATION ( #433, #69, #331 ) ;
#435 = COORDINATED_UNIVERSAL_TIME_OFFSET ( 4, 0, .AHEAD. ) ;
#436 = LOCAL_TIME ( 17, 57, 9.000000000000000000, #435 ) ;
#437 = CALENDAR_DATE ( 2012, 16, 11 ) ;
#438 = DATE_AND_TIME ( #437, #436 ) ;
#439 = APPROVAL_DATE_TIME ( #438, #69 ) ;
#440 = EDGE_LOOP ( 'NONE', ( #124 ) ) ;
ENDSEC;
END-ISO-10303-21;
