ISO-10303-21;
HEADER;
FILE_DESCRIPTION (( 'STEP AP203' ),
    '1' );
FILE_NAME ('CTR10-063-K41-015I Òðóáà ãëàäêàÿ æåñòêàÿ ÏÂÕ d63 ÈÝÊ ñåðàÿ (15ì),3ì.STEP',
    '2016-04-27T08:18:30',
    ( '' ),
    ( '' ),
    'SwSTEP 2.0',
    'SolidWorks 2014',
    '' );
FILE_SCHEMA (( 'CONFIG_CONTROL_DESIGN' ));
ENDSEC;

DATA;
#1 = LOCAL_TIME ( 11, 18, 30.00000000000000000, #41 ) ;
#2 = DIRECTION ( 'NONE',  ( -1.000000000000000000, -0.0000000000000000000, -0.0000000000000000000 ) ) ;
#3 = AXIS2_PLACEMENT_3D ( 'NONE', #36, #46, #25 ) ;
#4 = ORIENTED_EDGE ( 'NONE', *, *, #68, .F. ) ;
#5 = CARTESIAN_POINT ( 'NONE',  ( 0.0000000000000000000, 0.0000000000000000000, 0.0000000000000000000 ) ) ;
#6 = CC_DESIGN_PERSON_AND_ORGANIZATION_ASSIGNMENT ( #114, #98, ( #158 ) ) ;
#7 = CALENDAR_DATE ( 2016, 27, 4 ) ;
#8 = CIRCLE ( 'NONE', #43, 31.50000000000000000 ) ;
#9 = VERTEX_POINT ( 'NONE', #10 ) ;
#10 = CARTESIAN_POINT ( 'NONE',  ( 0.0000000000000000000, 0.0000000000000000000, -28.24999999999999600 ) ) ;
#11 = MANIFOLD_SOLID_BREP ( 'Áîáûøêà-Âûòÿíóòü1', #97 ) ;
#12 = EDGE_LOOP ( 'NONE', ( #20 ) ) ;
#13 = DATE_AND_TIME ( #53, #85 ) ;
#14 = DATE_AND_TIME ( #55, #87 ) ;
#15 = FACE_OUTER_BOUND ( 'NONE', #12, .T. ) ;
#16 =( GEOMETRIC_REPRESENTATION_CONTEXT ( 3 ) GLOBAL_UNCERTAINTY_ASSIGNED_CONTEXT ( ( #102 ) ) GLOBAL_UNIT_ASSIGNED_CONTEXT ( ( #77, #166, #92 ) ) REPRESENTATION_CONTEXT ( 'NONE', 'WORKASPACE' ) );
#17 = PERSON_AND_ORGANIZATION ( #76, #103 ) ;
#18 = DATE_TIME_ROLE ( 'creation_date' ) ;
#19 = CC_DESIGN_DATE_AND_TIME_ASSIGNMENT ( #144, #18, ( #158 ) ) ;
#20 = ORIENTED_EDGE ( 'NONE', *, *, #57, .T. ) ;
#21 = ORIENTED_EDGE ( 'NONE', *, *, #70, .T. ) ;
#22 = AXIS2_PLACEMENT_3D ( 'NONE', #135, #64, #151 ) ;
#23 = PERSON_AND_ORGANIZATION ( #76, #103 ) ;
#24 = ORIENTED_EDGE ( 'NONE', *, *, #57, .F. ) ;
#25 = DIRECTION ( 'NONE',  ( 0.0000000000000000000, 0.0000000000000000000, 1.000000000000000000 ) ) ;
#26 = AXIS2_PLACEMENT_3D ( 'NONE', #104, #27, #120 ) ;
#27 = DIRECTION ( 'NONE',  ( 1.000000000000000000, 0.0000000000000000000, 0.0000000000000000000 ) ) ;
#28 = PRODUCT_DEFINITION_FORMATION_WITH_SPECIFIED_SOURCE ( 'ANY', '', #84, .NOT_KNOWN. ) ;
#29 = AXIS2_PLACEMENT_3D ( 'NONE', #74, #2, #100 ) ;
#30 = APPROVAL_ROLE ( '' ) ;
#31 = PERSON_AND_ORGANIZATION ( #76, #103 ) ;
#32 = AXIS2_PLACEMENT_3D ( 'NONE', #79, #167, #95 ) ;
#33 = CARTESIAN_POINT ( 'NONE',  ( 3000.000000000000000, 0.0000000000000000000, -28.24999999999999600 ) ) ;
#34 = APPROVAL ( #108, 'UNSPECIFIED' ) ;
#35 = DIRECTION ( 'NONE',  ( 1.000000000000000000, 0.0000000000000000000, 0.0000000000000000000 ) ) ;
#36 = CARTESIAN_POINT ( 'NONE',  ( 3000.000000000000000, 0.0000000000000000000, 0.0000000000000000000 ) ) ;
#37 = ADVANCED_FACE ( 'NONE', ( #119, #123 ), #118, .T. ) ;
#38 = AXIS2_PLACEMENT_3D ( 'NONE', #65, #50, #154 ) ;
#39 = PRODUCT_DEFINITION_SHAPE ( 'NONE', 'NONE',  #158 ) ;
#40 = ADVANCED_FACE ( 'NONE', ( #88, #115 ), #49, .F. ) ;
#41 = COORDINATED_UNIVERSAL_TIME_OFFSET ( 3, 0, .AHEAD. ) ;
#42 = FACE_BOUND ( 'NONE', #155, .T. ) ;
#43 = AXIS2_PLACEMENT_3D ( 'NONE', #117, #35, #131 ) ;
#44 = ORIENTED_EDGE ( 'NONE', *, *, #68, .T. ) ;
#45 = PERSON_AND_ORGANIZATION_ROLE ( 'design_supplier' ) ;
#46 = DIRECTION ( 'NONE',  ( -1.000000000000000000, -0.0000000000000000000, -0.0000000000000000000 ) ) ;
#47 = CC_DESIGN_APPROVAL ( #34, ( #28 ) ) ;
#48 = LOCAL_TIME ( 11, 18, 30.00000000000000000, #82 ) ;
#49 = CYLINDRICAL_SURFACE ( 'NONE', #29, 28.24999999999999600 ) ;
#50 = DIRECTION ( 'NONE',  ( 1.000000000000000000, 0.0000000000000000000, 0.0000000000000000000 ) ) ;
#51 = VERTEX_POINT ( 'NONE', #66 ) ;
#52 = EDGE_LOOP ( 'NONE', ( #24 ) ) ;
#53 = CALENDAR_DATE ( 2016, 27, 4 ) ;
#54 = DIRECTION ( 'NONE',  ( 0.0000000000000000000, 0.0000000000000000000, -1.000000000000000000 ) ) ;
#55 = CALENDAR_DATE ( 2016, 27, 4 ) ;
#56 = FACE_OUTER_BOUND ( 'NONE', #80, .T. ) ;
#57 = EDGE_CURVE ( 'NONE', #75, #75, #83, .T. ) ;
#58 = DATE_AND_TIME ( #93, #125 ) ;
#59 = CC_DESIGN_PERSON_AND_ORGANIZATION_ASSIGNMENT ( #96, #126, ( #28 ) ) ;
#60 = PERSON_AND_ORGANIZATION ( #76, #103 ) ;
#61 = EDGE_CURVE ( 'NONE', #51, #51, #8, .T. ) ;
#62 = MECHANICAL_CONTEXT ( 'NONE', #112, 'mechanical' ) ;
#63 = PERSON_AND_ORGANIZATION_ROLE ( 'classification_officer' ) ;
#64 = DIRECTION ( 'NONE',  ( 1.000000000000000000, 0.0000000000000000000, 0.0000000000000000000 ) ) ;
#65 = CARTESIAN_POINT ( 'NONE',  ( 3000.000000000000000, 0.0000000000000000000, 0.0000000000000000000 ) ) ;
#66 = CARTESIAN_POINT ( 'NONE',  ( 3000.000000000000000, 0.0000000000000000000, -31.50000000000000000 ) ) ;
#67 = CC_DESIGN_PERSON_AND_ORGANIZATION_ASSIGNMENT ( #60, #45, ( #28 ) ) ;
#68 = EDGE_CURVE ( 'NONE', #9, #9, #145, .T. ) ;
#69 = PERSON_AND_ORGANIZATION ( #76, #103 ) ;
#70 = EDGE_CURVE ( 'NONE', #146, #146, #110, .T. ) ;
#71 = APPLICATION_CONTEXT ( 'configuration controlled 3d designs of mechanical parts and assemblies' ) ;
#72 = APPROVAL_STATUS ( 'not_yet_approved' ) ;
#73 = SECURITY_CLASSIFICATION ( '', '', #134 ) ;
#74 = CARTESIAN_POINT ( 'NONE',  ( 3000.000000000000000, 0.0000000000000000000, 0.0000000000000000000 ) ) ;
#75 = VERTEX_POINT ( 'NONE', #157 ) ;
#76 = PERSON ( 'UNSPECIFIED', 'UNSPECIFIED', 'UNSPECIFIED', ('UNSPECIFIED'), ('UNSPECIFIED'), ('UNSPECIFIED') ) ;
#77 =( LENGTH_UNIT ( ) NAMED_UNIT ( * ) SI_UNIT ( .MILLI., .METRE. ) );
#78 = APPROVAL_PERSON_ORGANIZATION ( #109, #34, #30 ) ;
#79 = CARTESIAN_POINT ( 'NONE',  ( 0.0000000000000000000, 0.0000000000000000000, 0.0000000000000000000 ) ) ;
#80 = EDGE_LOOP ( 'NONE', ( #141 ) ) ;
#81 = CC_DESIGN_PERSON_AND_ORGANIZATION_ASSIGNMENT ( #23, #63, ( #73 ) ) ;
#82 = COORDINATED_UNIVERSAL_TIME_OFFSET ( 3, 0, .AHEAD. ) ;
#83 = CIRCLE ( 'NONE', #32, 31.50000000000000000 ) ;
#84 = PRODUCT ( 'CTR10-063-K41-015I Òðóáà ãëàäêàÿ æåñòêàÿ ÏÂÕ d63 ÈÝÊ ñåðàÿ (15ì),3ì', 'CTR10-063-K41-015I Òðóáà ãëàäêàÿ æåñòêàÿ ÏÂÕ d63 ÈÝÊ ñåðàÿ (15ì),3ì', '', ( #62 ) ) ;
#85 = LOCAL_TIME ( 11, 18, 30.00000000000000000, #121 ) ;
#86 = APPROVAL_STATUS ( 'not_yet_approved' ) ;
#87 = LOCAL_TIME ( 11, 18, 30.00000000000000000, #122 ) ;
#88 = FACE_OUTER_BOUND ( 'NONE', #127, .T. ) ;
#89 = EDGE_LOOP ( 'NONE', ( #147 ) ) ;
#90 = ADVANCED_BREP_SHAPE_REPRESENTATION ( 'CTR10-063-K41-015I T¨ºñð óûðôúð  öõ¸ªúð  ¦T- d63 L¦¦ ¸õ¨ð  (15ü),3ü', ( #11, #133 ), #16 ) ;
#91 = AXIS2_PLACEMENT_3D ( 'NONE', #5, #130, #54 ) ;
#92 =( NAMED_UNIT ( * ) SI_UNIT ( $, .STERADIAN. ) SOLID_ANGLE_UNIT ( ) );
#93 = CALENDAR_DATE ( 2016, 27, 4 ) ;
#94 = CC_DESIGN_DATE_AND_TIME_ASSIGNMENT ( #58, #150, ( #73 ) ) ;
#95 = DIRECTION ( 'NONE',  ( 0.0000000000000000000, 0.0000000000000000000, -1.000000000000000000 ) ) ;
#96 = PERSON_AND_ORGANIZATION ( #76, #103 ) ;
#97 = CLOSED_SHELL ( 'NONE', ( #37, #160, #142, #40 ) ) ;
#98 = PERSON_AND_ORGANIZATION_ROLE ( 'creator' ) ;
#99 = APPROVAL ( #72, 'UNSPECIFIED' ) ;
#100 = DIRECTION ( 'NONE',  ( 0.0000000000000000000, 0.0000000000000000000, 1.000000000000000000 ) ) ;
#101 = APPLICATION_PROTOCOL_DEFINITION ( 'international standard', 'config_control_design', 1994, #112 ) ;
#102 = UNCERTAINTY_MEASURE_WITH_UNIT (LENGTH_MEASURE( 1.000000000000000100E-005 ), #77, 'distance_accuracy_value', 'NONE');
#103 = ORGANIZATION ( 'UNSPECIFIED', 'UNSPECIFIED', '' ) ;
#104 = CARTESIAN_POINT ( 'NONE',  ( 0.0000000000000000000, 0.0000000000000000000, 0.0000000000000000000 ) ) ;
#105 = CC_DESIGN_APPROVAL ( #99, ( #73 ) ) ;
#106 = DATE_AND_TIME ( #139, #1 ) ;
#107 = SHAPE_DEFINITION_REPRESENTATION ( #39, #90 ) ;
#108 = APPROVAL_STATUS ( 'not_yet_approved' ) ;
#109 = PERSON_AND_ORGANIZATION ( #76, #103 ) ;
#110 = CIRCLE ( 'NONE', #22, 28.24999999999999600 ) ;
#111 = EDGE_LOOP ( 'NONE', ( #162 ) ) ;
#112 = APPLICATION_CONTEXT ( 'configuration controlled 3d designs of mechanical parts and assemblies' ) ;
#113 = PLANE ( 'NONE',  #91 ) ;
#114 = PERSON_AND_ORGANIZATION ( #76, #103 ) ;
#115 = FACE_OUTER_BOUND ( 'NONE', #124, .T. ) ;
#116 = CC_DESIGN_SECURITY_CLASSIFICATION ( #73, ( #28 ) ) ;
#117 = CARTESIAN_POINT ( 'NONE',  ( 3000.000000000000000, 0.0000000000000000000, 0.0000000000000000000 ) ) ;
#118 = PLANE ( 'NONE',  #38 ) ;
#119 = FACE_OUTER_BOUND ( 'NONE', #111, .T. ) ;
#120 = DIRECTION ( 'NONE',  ( 0.0000000000000000000, 0.0000000000000000000, -1.000000000000000000 ) ) ;
#121 = COORDINATED_UNIVERSAL_TIME_OFFSET ( 3, 0, .AHEAD. ) ;
#122 = COORDINATED_UNIVERSAL_TIME_OFFSET ( 3, 0, .AHEAD. ) ;
#123 = FACE_BOUND ( 'NONE', #89, .T. ) ;
#124 = EDGE_LOOP ( 'NONE', ( #4 ) ) ;
#125 = LOCAL_TIME ( 11, 18, 30.00000000000000000, #161 ) ;
#126 = PERSON_AND_ORGANIZATION_ROLE ( 'creator' ) ;
#127 = EDGE_LOOP ( 'NONE', ( #21 ) ) ;
#128 = PRODUCT_RELATED_PRODUCT_CATEGORY ( 'detail', '', ( #84 ) ) ;
#129 = APPROVAL_DATE_TIME ( #106, #34 ) ;
#130 = DIRECTION ( 'NONE',  ( 1.000000000000000000, 0.0000000000000000000, 0.0000000000000000000 ) ) ;
#131 = DIRECTION ( 'NONE',  ( 0.0000000000000000000, 0.0000000000000000000, -1.000000000000000000 ) ) ;
#132 = DIRECTION ( 'NONE',  ( 1.000000000000000000, 0.0000000000000000000, 0.0000000000000000000 ) ) ;
#133 = AXIS2_PLACEMENT_3D ( 'NONE', #138, #137, #132 ) ;
#134 = SECURITY_CLASSIFICATION_LEVEL ( 'unclassified' ) ;
#135 = CARTESIAN_POINT ( 'NONE',  ( 3000.000000000000000, 0.0000000000000000000, 0.0000000000000000000 ) ) ;
#136 = DESIGN_CONTEXT ( 'detailed design', #71, 'design' ) ;
#137 = DIRECTION ( 'NONE',  ( 0.0000000000000000000, 0.0000000000000000000, 1.000000000000000000 ) ) ;
#138 = CARTESIAN_POINT ( 'NONE',  ( 0.0000000000000000000, 0.0000000000000000000, 0.0000000000000000000 ) ) ;
#139 = CALENDAR_DATE ( 2016, 27, 4 ) ;
#140 = CYLINDRICAL_SURFACE ( 'NONE', #3, 31.50000000000000000 ) ;
#141 = ORIENTED_EDGE ( 'NONE', *, *, #61, .F. ) ;
#142 = ADVANCED_FACE ( 'NONE', ( #56, #15 ), #140, .T. ) ;
#143 = CC_DESIGN_PERSON_AND_ORGANIZATION_ASSIGNMENT ( #69, #148, ( #84 ) ) ;
#144 = DATE_AND_TIME ( #7, #48 ) ;
#145 = CIRCLE ( 'NONE', #26, 28.24999999999999600 ) ;
#146 = VERTEX_POINT ( 'NONE', #33 ) ;
#147 = ORIENTED_EDGE ( 'NONE', *, *, #70, .F. ) ;
#148 = PERSON_AND_ORGANIZATION_ROLE ( 'design_owner' ) ;
#149 = APPROVAL_DATE_TIME ( #13, #99 ) ;
#150 = DATE_TIME_ROLE ( 'classification_date' ) ;
#151 = DIRECTION ( 'NONE',  ( 0.0000000000000000000, 0.0000000000000000000, -1.000000000000000000 ) ) ;
#152 = APPROVAL_DATE_TIME ( #14, #164 ) ;
#153 = FACE_OUTER_BOUND ( 'NONE', #52, .T. ) ;
#154 = DIRECTION ( 'NONE',  ( 0.0000000000000000000, 0.0000000000000000000, -1.000000000000000000 ) ) ;
#155 = EDGE_LOOP ( 'NONE', ( #44 ) ) ;
#156 = APPROVAL_PERSON_ORGANIZATION ( #17, #99, #165 ) ;
#157 = CARTESIAN_POINT ( 'NONE',  ( 0.0000000000000000000, 0.0000000000000000000, -31.50000000000000000 ) ) ;
#158 = PRODUCT_DEFINITION ( 'UNKNOWN', '', #28, #136 ) ;
#159 = APPROVAL_PERSON_ORGANIZATION ( #31, #164, #169 ) ;
#160 = ADVANCED_FACE ( 'NONE', ( #153, #42 ), #113, .F. ) ;
#161 = COORDINATED_UNIVERSAL_TIME_OFFSET ( 3, 0, .AHEAD. ) ;
#162 = ORIENTED_EDGE ( 'NONE', *, *, #61, .T. ) ;
#163 = APPLICATION_PROTOCOL_DEFINITION ( 'international standard', 'config_control_design', 1994, #71 ) ;
#164 = APPROVAL ( #86, 'UNSPECIFIED' ) ;
#165 = APPROVAL_ROLE ( '' ) ;
#166 =( NAMED_UNIT ( * ) PLANE_ANGLE_UNIT ( ) SI_UNIT ( $, .RADIAN. ) );
#167 = DIRECTION ( 'NONE',  ( 1.000000000000000000, 0.0000000000000000000, 0.0000000000000000000 ) ) ;
#168 = CC_DESIGN_APPROVAL ( #164, ( #158 ) ) ;
#169 = APPROVAL_ROLE ( '' ) ;
ENDSEC;
END-ISO-10303-21;
