ISO-10303-21;
HEADER;
FILE_DESCRIPTION (( 'STEP AP203' ),
    '1' );
FILE_NAME ('Ñîåäèíèòåëüíàÿ íàêëàäêà CGB_37357.STEP',
    '2012-11-09T08:54:45',
    ( 'Àñååâ' ),
    ( '' ),
    'SwSTEP 2.0',
    'SolidWorks 2012',
    '' );
FILE_SCHEMA (( 'CONFIG_CONTROL_DESIGN' ));
ENDSEC;

DATA;
#1 = ORIENTED_EDGE ( 'NONE', *, *, #35, .T. ) ;
#2 = ADVANCED_BREP_SHAPE_REPRESENTATION ( 'Tþõôøýøªõû¹ýð  ýðúûðôúð CGB_37357', ( #4, #66 ), #46 ) ;
#3 = UNCERTAINTY_MEASURE_WITH_UNIT (LENGTH_MEASURE( 1.000000000000000100E-005 ), #151, 'distance_accuracy_value', 'NONE');
#4 = MANIFOLD_SOLID_BREP ( 'Çåðêàëüíîå îòðàæåíèå1', #7 ) ;
#5 = ORIENTED_EDGE ( 'NONE', *, *, #69, .F. ) ;
#6 = ORIENTED_EDGE ( 'NONE', *, *, #34, .F. ) ;
#7 = CLOSED_SHELL ( 'NONE', ( #178, #183, #181, #179, #177, #176, #182, #180 ) ) ;
#8 = VERTEX_POINT ( 'NONE', #301 ) ;
#9 = VERTEX_POINT ( 'NONE', #296 ) ;
#10 = VERTEX_POINT ( 'NONE', #302 ) ;
#11 = VERTEX_POINT ( 'NONE', #299 ) ;
#12 = VERTEX_POINT ( 'NONE', #303 ) ;
#13 = ORIENTED_EDGE ( 'NONE', *, *, #60, .F. ) ;
#14 = VERTEX_POINT ( 'NONE', #297 ) ;
#15 = ORIENTED_EDGE ( 'NONE', *, *, #37, .T. ) ;
#16 = VERTEX_POINT ( 'NONE', #298 ) ;
#17 = ORIENTED_EDGE ( 'NONE', *, *, #73, .T. ) ;
#18 = ORIENTED_EDGE ( 'NONE', *, *, #33, .T. ) ;
#19 = VERTEX_POINT ( 'NONE', #300 ) ;
#20 = ORIENTED_EDGE ( 'NONE', *, *, #38, .F. ) ;
#21 = ORIENTED_EDGE ( 'NONE', *, *, #73, .F. ) ;
#22 = ORIENTED_EDGE ( 'NONE', *, *, #70, .T. ) ;
#23 = ORIENTED_EDGE ( 'NONE', *, *, #71, .F. ) ;
#24 = ORIENTED_EDGE ( 'NONE', *, *, #72, .T. ) ;
#25 = ORIENTED_EDGE ( 'NONE', *, *, #27, .T. ) ;
#26 = ORIENTED_EDGE ( 'NONE', *, *, #74, .T. ) ;
#27 = EDGE_CURVE ( 'NONE', #14, #12, #214, .T. ) ;
#28 = AXIS2_PLACEMENT_3D ( 'NONE', #140, #130, #113 ) ;
#29 = PRODUCT_RELATED_PRODUCT_CATEGORY ( 'detail', '', ( #82 ) ) ;
#30 = CC_DESIGN_SECURITY_CLASSIFICATION ( #53, ( #52 ) ) ;
#31 = APPROVAL ( #76, 'UNSPECIFIED' ) ;
#32 = CC_DESIGN_APPROVAL ( #31, ( #53 ) ) ;
#33 = EDGE_CURVE ( 'NONE', #254, #254, #215, .T. ) ;
#34 = EDGE_CURVE ( 'NONE', #257, #257, #218, .T. ) ;
#35 = EDGE_CURVE ( 'NONE', #19, #11, #212, .T. ) ;
#36 = EDGE_CURVE ( 'NONE', #9, #11, #216, .T. ) ;
#37 = EDGE_CURVE ( 'NONE', #258, #258, #221, .T. ) ;
#38 = EDGE_CURVE ( 'NONE', #16, #19, #223, .T. ) ;
#39 = EDGE_CURVE ( 'NONE', #8, #12, #222, .T. ) ;
#40 = EDGE_CURVE ( 'NONE', #16, #9, #217, .T. ) ;
#41 = AXIS2_PLACEMENT_3D ( 'NONE', #133, #134, #155 ) ;
#42 = AXIS2_PLACEMENT_3D ( 'NONE', #153, #99, #97 ) ;
#43 = AXIS2_PLACEMENT_3D ( 'NONE', #131, #107, #122 ) ;
#44 = AXIS2_PLACEMENT_3D ( 'NONE', #124, #105, #119 ) ;
#45 = AXIS2_PLACEMENT_3D ( 'NONE', #121, #127, #98 ) ;
#46 =( GEOMETRIC_REPRESENTATION_CONTEXT ( 3 ) GLOBAL_UNCERTAINTY_ASSIGNED_CONTEXT ( ( #3 ) ) GLOBAL_UNIT_ASSIGNED_CONTEXT ( ( #151, #148, #169 ) ) REPRESENTATION_CONTEXT ( 'NONE', 'WORKASPACE' ) );
#47 = AXIS2_PLACEMENT_3D ( 'NONE', #109, #163, #164 ) ;
#48 = AXIS2_PLACEMENT_3D ( 'NONE', #172, #173, #120 ) ;
#49 = AXIS2_PLACEMENT_3D ( 'NONE', #166, #111, #118 ) ;
#50 = AXIS2_PLACEMENT_3D ( 'NONE', #101, #110, #89 ) ;
#51 = APPROVAL ( #91, 'UNSPECIFIED' ) ;
#52 = PRODUCT_DEFINITION_FORMATION_WITH_SPECIFIED_SOURCE ( 'ANY', '', #82, .NOT_KNOWN. ) ;
#53 = SECURITY_CLASSIFICATION ( '', '', #139 ) ;
#54 = CC_DESIGN_PERSON_AND_ORGANIZATION_ASSIGNMENT ( #283, #132, ( #52 ) ) ;
#55 = CC_DESIGN_PERSON_AND_ORGANIZATION_ASSIGNMENT ( #282, #129, ( #52 ) ) ;
#56 = CC_DESIGN_APPROVAL ( #51, ( #52 ) ) ;
#57 = PRODUCT_DEFINITION ( 'UNKNOWN', '', #52, #84 ) ;
#58 = CC_DESIGN_PERSON_AND_ORGANIZATION_ASSIGNMENT ( #262, #171, ( #82 ) ) ;
#59 = CC_DESIGN_DATE_AND_TIME_ASSIGNMENT ( #274, #146, ( #57 ) ) ;
#60 = EDGE_CURVE ( 'NONE', #8, #16, #226, .T. ) ;
#61 = CC_DESIGN_PERSON_AND_ORGANIZATION_ASSIGNMENT ( #270, #116, ( #57 ) ) ;
#62 = CC_DESIGN_APPROVAL ( #63, ( #57 ) ) ;
#63 = APPROVAL ( #167, 'UNSPECIFIED' ) ;
#64 = CC_DESIGN_DATE_AND_TIME_ASSIGNMENT ( #288, #78, ( #53 ) ) ;
#65 = CC_DESIGN_PERSON_AND_ORGANIZATION_ASSIGNMENT ( #284, #77, ( #53 ) ) ;
#66 = AXIS2_PLACEMENT_3D ( 'NONE', #157, #165, #174 ) ;
#67 = AXIS2_PLACEMENT_3D ( 'NONE', #117, #100, #147 ) ;
#68 = AXIS2_PLACEMENT_3D ( 'NONE', #87, #86, #85 ) ;
#69 = EDGE_CURVE ( 'NONE', #259, #259, #229, .T. ) ;
#70 = EDGE_CURVE ( 'NONE', #12, #9, #232, .T. ) ;
#71 = EDGE_CURVE ( 'NONE', #19, #10, #231, .T. ) ;
#72 = EDGE_CURVE ( 'NONE', #11, #14, #227, .T. ) ;
#73 = EDGE_CURVE ( 'NONE', #10, #8, #236, .T. ) ;
#74 = EDGE_CURVE ( 'NONE', #10, #14, #238, .T. ) ;
#75 = APPROVAL_ROLE ( '' ) ;
#76 = APPROVAL_STATUS ( 'not_yet_approved' ) ;
#77 = PERSON_AND_ORGANIZATION_ROLE ( 'classification_officer' ) ;
#78 = DATE_TIME_ROLE ( 'classification_date' ) ;
#79 = ORIENTED_EDGE ( 'NONE', *, *, #40, .F. ) ;
#80 = ORIENTED_EDGE ( 'NONE', *, *, #37, .F. ) ;
#81 = PERSON ( 'UNSPECIFIED', 'UNSPECIFIED', 'UNSPECIFIED', ('UNSPECIFIED'), ('UNSPECIFIED'), ('UNSPECIFIED') ) ;
#82 = PRODUCT ( 'Ñîåäèíèòåëüíàÿ íàêëàäêà CGB_37357', 'Ñîåäèíèòåëüíàÿ íàêëàäêà CGB_37357', '', ( #175 ) ) ;
#83 = PRODUCT_DEFINITION_SHAPE ( 'NONE', 'NONE',  #57 ) ;
#84 = DESIGN_CONTEXT ( 'detailed design', #170, 'design' ) ;
#85 = DIRECTION ( 'NONE',  ( 0.0000000000000000000, 0.0000000000000000000, -1.000000000000000000 ) ) ;
#86 = DIRECTION ( 'NONE',  ( 0.0000000000000000000, -1.000000000000000000, 0.0000000000000000000 ) ) ;
#87 = CARTESIAN_POINT ( 'NONE',  ( -3.885405606613611200E-014, 0.0000000000000000000, -47.50000000000000000 ) ) ;
#88 = CARTESIAN_POINT ( 'NONE',  ( -247.0000000000000000, 0.0000000000000000000, -65.00000000000000000 ) ) ;
#89 = DIRECTION ( 'NONE',  ( -1.000000000000000000, 0.0000000000000000000, 0.0000000000000000000 ) ) ;
#90 = DIRECTION ( 'NONE',  ( 1.000000000000000000, 0.0000000000000000000, 0.0000000000000000000 ) ) ;
#91 = APPROVAL_STATUS ( 'not_yet_approved' ) ;
#92 = CARTESIAN_POINT ( 'NONE',  ( -247.0000000000000000, 0.0000000000000000000, -65.00000000000000000 ) ) ;
#93 = PLANE ( 'NONE',  #49 ) ;
#94 = CARTESIAN_POINT ( 'NONE',  ( -247.0000000000000000, 0.0000000000000000000, 0.0000000000000000000 ) ) ;
#95 = APPLICATION_CONTEXT ( 'configuration controlled 3d designs of mechanical parts and assemblies' ) ;
#96 = DIRECTION ( 'NONE',  ( 0.0000000000000000000, 0.0000000000000000000, 1.000000000000000000 ) ) ;
#97 = DIRECTION ( 'NONE',  ( 0.0000000000000000000, 0.0000000000000000000, -1.000000000000000000 ) ) ;
#98 = DIRECTION ( 'NONE',  ( 0.0000000000000000000, -0.0000000000000000000, -1.000000000000000000 ) ) ;
#99 = DIRECTION ( 'NONE',  ( -0.0000000000000000000, 1.000000000000000000, -0.0000000000000000000 ) ) ;
#100 = DIRECTION ( 'NONE',  ( 3.072637735788879000E-018, 1.000000000000000000, -0.0000000000000000000 ) ) ;
#101 = CARTESIAN_POINT ( 'NONE',  ( -3.890155444702595000E-014, -9.199999999999999300, -17.50000000000000000 ) ) ;
#102 = PLANE ( 'NONE',  #67 ) ;
#103 = DIRECTION ( 'NONE',  ( 0.0000000000000000000, 0.0000000000000000000, 1.000000000000000000 ) ) ;
#104 = PLANE ( 'NONE',  #44 ) ;
#105 = DIRECTION ( 'NONE',  ( 0.0000000000000000000, 0.0000000000000000000, 1.000000000000000000 ) ) ;
#106 = PLANE ( 'NONE',  #47 ) ;
#107 = DIRECTION ( 'NONE',  ( 0.0000000000000000000, 0.0000000000000000000, 1.000000000000000000 ) ) ;
#108 = PLANE ( 'NONE',  #45 ) ;
#109 = CARTESIAN_POINT ( 'NONE',  ( 247.0000000000000000, 0.0000000000000000000, -65.00000000000000000 ) ) ;
#110 = DIRECTION ( 'NONE',  ( 5.162867488026211000E-018, 1.000000000000000000, 0.0000000000000000000 ) ) ;
#111 = DIRECTION ( 'NONE',  ( -1.000000000000000000, 0.0000000000000000000, 0.0000000000000000000 ) ) ;
#112 = CARTESIAN_POINT ( 'NONE',  ( 247.0000000000000000, 0.0000000000000000000, 0.0000000000000000000 ) ) ;
#113 = DIRECTION ( 'NONE',  ( 1.000000000000000000, 0.0000000000000000000, 0.0000000000000000000 ) ) ;
#114 = CARTESIAN_POINT ( 'NONE',  ( 2.499999999999960900, 0.8000000000000008200, -17.50000000000000000 ) ) ;
#115 = DIRECTION ( 'NONE',  ( -1.000000000000000000, 3.072637735788879000E-018, -0.0000000000000000000 ) ) ;
#116 = PERSON_AND_ORGANIZATION_ROLE ( 'creator' ) ;
#117 = CARTESIAN_POINT ( 'NONE',  ( -247.0000000000000000, 0.8000000000000016000, -65.00000000000000000 ) ) ;
#118 = DIRECTION ( 'NONE',  ( 0.0000000000000000000, 0.0000000000000000000, 1.000000000000000000 ) ) ;
#119 = DIRECTION ( 'NONE',  ( 1.000000000000000000, 0.0000000000000000000, -0.0000000000000000000 ) ) ;
#120 = DIRECTION ( 'NONE',  ( -1.000000000000000000, 0.0000000000000000000, 0.0000000000000000000 ) ) ;
#121 = CARTESIAN_POINT ( 'NONE',  ( -247.0000000000000000, 0.0000000000000000000, -65.00000000000000000 ) ) ;
#122 = DIRECTION ( 'NONE',  ( 1.000000000000000000, 0.0000000000000000000, -0.0000000000000000000 ) ) ;
#123 = PLANE ( 'NONE',  #43 ) ;
#124 = CARTESIAN_POINT ( 'NONE',  ( 247.0000000000000000, 0.0000000000000000000, -65.00000000000000000 ) ) ;
#125 = CARTESIAN_POINT ( 'NONE',  ( -247.0000000000000000, 0.8000000000000016000, -65.00000000000000000 ) ) ;
#126 = APPROVAL_ROLE ( '' ) ;
#127 = DIRECTION ( 'NONE',  ( 0.0000000000000000000, -1.000000000000000000, 0.0000000000000000000 ) ) ;
#128 = DIRECTION ( 'NONE',  ( -0.0000000000000000000, -1.000000000000000000, -0.0000000000000000000 ) ) ;
#129 = PERSON_AND_ORGANIZATION_ROLE ( 'creator' ) ;
#130 = DIRECTION ( 'NONE',  ( -5.162867488026211000E-018, -1.000000000000000000, 0.0000000000000000000 ) ) ;
#131 = CARTESIAN_POINT ( 'NONE',  ( 247.0000000000000000, 0.0000000000000000000, 0.0000000000000000000 ) ) ;
#132 = PERSON_AND_ORGANIZATION_ROLE ( 'design_supplier' ) ;
#133 = CARTESIAN_POINT ( 'NONE',  ( -3.884992577214568800E-014, 0.8000000000000008200, -47.50000000000000000 ) ) ;
#134 = DIRECTION ( 'NONE',  ( 5.162867488026211000E-018, 1.000000000000000000, 0.0000000000000000000 ) ) ;
#135 = CARTESIAN_POINT ( 'NONE',  ( 247.0000000000000000, 0.8000000000000000400, -65.00000000000000000 ) ) ;
#136 = DIRECTION ( 'NONE',  ( 0.0000000000000000000, 0.0000000000000000000, 1.000000000000000000 ) ) ;
#137 = DIRECTION ( 'NONE',  ( 0.0000000000000000000, 0.0000000000000000000, 1.000000000000000000 ) ) ;
#138 = CARTESIAN_POINT ( 'NONE',  ( 247.0000000000000000, 0.0000000000000000000, -65.00000000000000000 ) ) ;
#139 = SECURITY_CLASSIFICATION_LEVEL ( 'unclassified' ) ;
#140 = CARTESIAN_POINT ( 'NONE',  ( -3.884992577214568800E-014, 0.8000000000000008200, -17.50000000000000000 ) ) ;
#141 = DIRECTION ( 'NONE',  ( -0.0000000000000000000, -1.000000000000000000, -0.0000000000000000000 ) ) ;
#142 = CARTESIAN_POINT ( 'NONE',  ( 247.0000000000000000, 0.0000000000000000000, -65.00000000000000000 ) ) ;
#143 = DIRECTION ( 'NONE',  ( -1.000000000000000000, 3.072637735788879000E-018, -0.0000000000000000000 ) ) ;
#144 = DIRECTION ( 'NONE',  ( 1.000000000000000000, 0.0000000000000000000, 0.0000000000000000000 ) ) ;
#145 = CARTESIAN_POINT ( 'NONE',  ( -247.0000000000000000, 0.8000000000000016000, 0.0000000000000000000 ) ) ;
#146 = DATE_TIME_ROLE ( 'creation_date' ) ;
#147 = DIRECTION ( 'NONE',  ( -1.000000000000000000, 3.072637735788879000E-018, 0.0000000000000000000 ) ) ;
#148 =( NAMED_UNIT ( * ) PLANE_ANGLE_UNIT ( ) SI_UNIT ( $, .RADIAN. ) );
#149 = APPLICATION_PROTOCOL_DEFINITION ( 'international standard', 'config_control_design', 1994, #95 ) ;
#150 = APPLICATION_PROTOCOL_DEFINITION ( 'international standard', 'config_control_design', 1994, #170 ) ;
#151 =( LENGTH_UNIT ( ) NAMED_UNIT ( * ) SI_UNIT ( .MILLI., .METRE. ) );
#152 = CARTESIAN_POINT ( 'NONE',  ( -247.0000000000000000, 0.8000000000000016000, -65.00000000000000000 ) ) ;
#153 = CARTESIAN_POINT ( 'NONE',  ( -3.885405606613611200E-014, 0.0000000000000000000, -17.50000000000000000 ) ) ;
#154 = DIRECTION ( 'NONE',  ( 0.0000000000000000000, 1.000000000000000000, 0.0000000000000000000 ) ) ;
#155 = DIRECTION ( 'NONE',  ( 1.000000000000000000, 0.0000000000000000000, 0.0000000000000000000 ) ) ;
#156 = APPROVAL_ROLE ( '' ) ;
#157 = CARTESIAN_POINT ( 'NONE',  ( 0.0000000000000000000, 0.0000000000000000000, 0.0000000000000000000 ) ) ;
#158 = DIRECTION ( 'NONE',  ( 0.0000000000000000000, 1.000000000000000000, 0.0000000000000000000 ) ) ;
#159 = CARTESIAN_POINT ( 'NONE',  ( -3.885405606613611200E-014, 0.0000000000000000000, -20.00000000000000000 ) ) ;
#160 = CARTESIAN_POINT ( 'NONE',  ( -3.885405606613611200E-014, 0.0000000000000000000, -50.00000000000000000 ) ) ;
#161 = CARTESIAN_POINT ( 'NONE',  ( -247.0000000000000000, 0.0000000000000000000, -65.00000000000000000 ) ) ;
#162 = CARTESIAN_POINT ( 'NONE',  ( -247.0000000000000000, 0.0000000000000000000, 0.0000000000000000000 ) ) ;
#163 = DIRECTION ( 'NONE',  ( 1.000000000000000000, 0.0000000000000000000, 0.0000000000000000000 ) ) ;
#164 = DIRECTION ( 'NONE',  ( 0.0000000000000000000, 0.0000000000000000000, -1.000000000000000000 ) ) ;
#165 = DIRECTION ( 'NONE',  ( 0.0000000000000000000, 0.0000000000000000000, 1.000000000000000000 ) ) ;
#166 = CARTESIAN_POINT ( 'NONE',  ( -247.0000000000000000, 0.0000000000000000000, -65.00000000000000000 ) ) ;
#167 = APPROVAL_STATUS ( 'not_yet_approved' ) ;
#168 = CARTESIAN_POINT ( 'NONE',  ( 2.499999999999960900, 0.8000000000000008200, -47.50000000000000000 ) ) ;
#169 =( NAMED_UNIT ( * ) SI_UNIT ( $, .STERADIAN. ) SOLID_ANGLE_UNIT ( ) );
#170 = APPLICATION_CONTEXT ( 'configuration controlled 3d designs of mechanical parts and assemblies' ) ;
#171 = PERSON_AND_ORGANIZATION_ROLE ( 'design_owner' ) ;
#172 = CARTESIAN_POINT ( 'NONE',  ( -3.890155444702595000E-014, -9.199999999999999300, -47.50000000000000000 ) ) ;
#173 = DIRECTION ( 'NONE',  ( 5.162867488026211000E-018, 1.000000000000000000, 0.0000000000000000000 ) ) ;
#174 = DIRECTION ( 'NONE',  ( 1.000000000000000000, 0.0000000000000000000, 0.0000000000000000000 ) ) ;
#175 = MECHANICAL_CONTEXT ( 'NONE', #95, 'mechanical' ) ;
#176 = ADVANCED_FACE ( 'NONE', ( #240 ), #123, .T. ) ;
#177 = ADVANCED_FACE ( 'NONE', ( #242 ), #104, .F. ) ;
#178 = ADVANCED_FACE ( 'NONE', ( #235, #246, #244 ), #108, .T. ) ;
#179 = ADVANCED_FACE ( 'NONE', ( #245 ), #106, .T. ) ;
#180 = ADVANCED_FACE ( 'NONE', ( #243, #250 ), #252, .F. ) ;
#181 = ADVANCED_FACE ( 'NONE', ( #247 ), #93, .T. ) ;
#182 = ADVANCED_FACE ( 'NONE', ( #248, #253 ), #255, .F. ) ;
#183 = ADVANCED_FACE ( 'NONE', ( #251, #256, #249 ), #102, .T. ) ;
#184 = ORIENTED_EDGE ( 'NONE', *, *, #69, .T. ) ;
#185 = ORIENTED_EDGE ( 'NONE', *, *, #33, .F. ) ;
#186 = ORIENTED_EDGE ( 'NONE', *, *, #39, .F. ) ;
#187 = ORIENTED_EDGE ( 'NONE', *, *, #39, .T. ) ;
#188 = ORIENTED_EDGE ( 'NONE', *, *, #70, .F. ) ;
#189 = ORIENTED_EDGE ( 'NONE', *, *, #35, .F. ) ;
#190 = ORIENTED_EDGE ( 'NONE', *, *, #72, .F. ) ;
#191 = ORIENTED_EDGE ( 'NONE', *, *, #71, .T. ) ;
#192 = ORIENTED_EDGE ( 'NONE', *, *, #60, .T. ) ;
#193 = ORIENTED_EDGE ( 'NONE', *, *, #36, .F. ) ;
#194 = ORIENTED_EDGE ( 'NONE', *, *, #40, .T. ) ;
#195 = ORIENTED_EDGE ( 'NONE', *, *, #74, .F. ) ;
#196 = ORIENTED_EDGE ( 'NONE', *, *, #36, .T. ) ;
#197 = ORIENTED_EDGE ( 'NONE', *, *, #38, .T. ) ;
#198 = EDGE_LOOP ( 'NONE', ( #304, #195, #17, #187 ) ) ;
#199 = EDGE_LOOP ( 'NONE', ( #6 ) ) ;
#200 = EDGE_LOOP ( 'NONE', ( #193, #79, #197, #1 ) ) ;
#201 = EDGE_LOOP ( 'NONE', ( #190, #189, #191, #26 ) ) ;
#202 = EDGE_LOOP ( 'NONE', ( #15 ) ) ;
#203 = EDGE_LOOP ( 'NONE', ( #18 ) ) ;
#204 = EDGE_LOOP ( 'NONE', ( #305 ) ) ;
#205 = EDGE_LOOP ( 'NONE', ( #20, #13, #21, #23 ) ) ;
#206 = EDGE_LOOP ( 'NONE', ( #196, #24, #25, #22 ) ) ;
#207 = EDGE_LOOP ( 'NONE', ( #5 ) ) ;
#208 = EDGE_LOOP ( 'NONE', ( #188, #186, #192, #194 ) ) ;
#209 = EDGE_LOOP ( 'NONE', ( #80 ) ) ;
#210 = EDGE_LOOP ( 'NONE', ( #185 ) ) ;
#211 = EDGE_LOOP ( 'NONE', ( #184 ) ) ;
#212 = LINE ( 'NONE', #142, #220 ) ;
#213 = VECTOR ( 'NONE', #143, 1000.000000000000000 ) ;
#214 = LINE ( 'NONE', #145, #213 ) ;
#215 = CIRCLE ( 'NONE', #41, 2.500000000000000000 ) ;
#216 = LINE ( 'NONE', #94, #219 ) ;
#217 = LINE ( 'NONE', #88, #228 ) ;
#218 = CIRCLE ( 'NONE', #42, 2.499999999999998700 ) ;
#219 = VECTOR ( 'NONE', #144, 1000.000000000000000 ) ;
#220 = VECTOR ( 'NONE', #96, 1000.000000000000000 ) ;
#221 = CIRCLE ( 'NONE', #68, 2.500000000000002200 ) ;
#222 = LINE ( 'NONE', #152, #224 ) ;
#223 = LINE ( 'NONE', #161, #225 ) ;
#224 = VECTOR ( 'NONE', #137, 1000.000000000000000 ) ;
#225 = VECTOR ( 'NONE', #90, 1000.000000000000000 ) ;
#226 = LINE ( 'NONE', #92, #230 ) ;
#227 = LINE ( 'NONE', #112, #237 ) ;
#228 = VECTOR ( 'NONE', #136, 1000.000000000000000 ) ;
#229 = CIRCLE ( 'NONE', #28, 2.500000000000000000 ) ;
#230 = VECTOR ( 'NONE', #141, 1000.000000000000000 ) ;
#231 = LINE ( 'NONE', #138, #233 ) ;
#232 = LINE ( 'NONE', #162, #234 ) ;
#233 = VECTOR ( 'NONE', #154, 1000.000000000000000 ) ;
#234 = VECTOR ( 'NONE', #128, 1000.000000000000000 ) ;
#235 = FACE_BOUND ( 'NONE', #209, .T. ) ;
#236 = LINE ( 'NONE', #125, #239 ) ;
#237 = VECTOR ( 'NONE', #158, 1000.000000000000000 ) ;
#238 = LINE ( 'NONE', #135, #241 ) ;
#239 = VECTOR ( 'NONE', #115, 1000.000000000000000 ) ;
#240 = FACE_OUTER_BOUND ( 'NONE', #206, .T. ) ;
#241 = VECTOR ( 'NONE', #103, 1000.000000000000000 ) ;
#242 = FACE_OUTER_BOUND ( 'NONE', #205, .T. ) ;
#243 = FACE_OUTER_BOUND ( 'NONE', #202, .T. ) ;
#244 = FACE_BOUND ( 'NONE', #204, .T. ) ;
#245 = FACE_OUTER_BOUND ( 'NONE', #201, .T. ) ;
#246 = FACE_OUTER_BOUND ( 'NONE', #200, .T. ) ;
#247 = FACE_OUTER_BOUND ( 'NONE', #208, .T. ) ;
#248 = FACE_OUTER_BOUND ( 'NONE', #199, .T. ) ;
#249 = FACE_BOUND ( 'NONE', #211, .T. ) ;
#250 = FACE_OUTER_BOUND ( 'NONE', #203, .T. ) ;
#251 = FACE_BOUND ( 'NONE', #210, .T. ) ;
#252 = CYLINDRICAL_SURFACE ( 'NONE', #48, 2.500000000000000000 ) ;
#253 = FACE_OUTER_BOUND ( 'NONE', #207, .T. ) ;
#254 = VERTEX_POINT ( 'NONE', #168 ) ;
#255 = CYLINDRICAL_SURFACE ( 'NONE', #50, 2.500000000000000000 ) ;
#256 = FACE_OUTER_BOUND ( 'NONE', #198, .T. ) ;
#257 = VERTEX_POINT ( 'NONE', #159 ) ;
#258 = VERTEX_POINT ( 'NONE', #160 ) ;
#259 = VERTEX_POINT ( 'NONE', #114 ) ;
#260 = SHAPE_DEFINITION_REPRESENTATION ( #83, #2 ) ;
#261 = ORGANIZATION ( 'UNSPECIFIED', 'UNSPECIFIED', '' ) ;
#262 = PERSON_AND_ORGANIZATION ( #81, #261 ) ;
#263 = PERSON_AND_ORGANIZATION ( #81, #261 ) ;
#264 = APPROVAL_PERSON_ORGANIZATION ( #263, #63, #156 ) ;
#265 = COORDINATED_UNIVERSAL_TIME_OFFSET ( 4, 0, .AHEAD. ) ;
#266 = LOCAL_TIME ( 12, 54, 45.00000000000000000, #265 ) ;
#267 = CALENDAR_DATE ( 2012, 9, 11 ) ;
#268 = DATE_AND_TIME ( #267, #266 ) ;
#269 = APPROVAL_DATE_TIME ( #268, #63 ) ;
#270 = PERSON_AND_ORGANIZATION ( #81, #261 ) ;
#271 = COORDINATED_UNIVERSAL_TIME_OFFSET ( 4, 0, .AHEAD. ) ;
#272 = LOCAL_TIME ( 12, 54, 45.00000000000000000, #271 ) ;
#273 = CALENDAR_DATE ( 2012, 9, 11 ) ;
#274 = DATE_AND_TIME ( #273, #272 ) ;
#275 = PERSON_AND_ORGANIZATION ( #81, #261 ) ;
#276 = APPROVAL_PERSON_ORGANIZATION ( #275, #51, #126 ) ;
#277 = COORDINATED_UNIVERSAL_TIME_OFFSET ( 4, 0, .AHEAD. ) ;
#278 = LOCAL_TIME ( 12, 54, 45.00000000000000000, #277 ) ;
#279 = CALENDAR_DATE ( 2012, 9, 11 ) ;
#280 = DATE_AND_TIME ( #279, #278 ) ;
#281 = APPROVAL_DATE_TIME ( #280, #51 ) ;
#282 = PERSON_AND_ORGANIZATION ( #81, #261 ) ;
#283 = PERSON_AND_ORGANIZATION ( #81, #261 ) ;
#284 = PERSON_AND_ORGANIZATION ( #81, #261 ) ;
#285 = COORDINATED_UNIVERSAL_TIME_OFFSET ( 4, 0, .AHEAD. ) ;
#286 = LOCAL_TIME ( 12, 54, 45.00000000000000000, #285 ) ;
#287 = CALENDAR_DATE ( 2012, 9, 11 ) ;
#288 = DATE_AND_TIME ( #287, #286 ) ;
#289 = PERSON_AND_ORGANIZATION ( #81, #261 ) ;
#290 = APPROVAL_PERSON_ORGANIZATION ( #289, #31, #75 ) ;
#291 = COORDINATED_UNIVERSAL_TIME_OFFSET ( 4, 0, .AHEAD. ) ;
#292 = LOCAL_TIME ( 12, 54, 45.00000000000000000, #291 ) ;
#293 = CALENDAR_DATE ( 2012, 9, 11 ) ;
#294 = DATE_AND_TIME ( #293, #292 ) ;
#295 = APPROVAL_DATE_TIME ( #294, #31 ) ;
#296 = CARTESIAN_POINT ( 'NONE',  ( -247.0000000000000000, 0.0000000000000000000, 0.0000000000000000000 ) ) ;
#297 = CARTESIAN_POINT ( 'NONE',  ( 247.0000000000000000, 0.8000000000000000400, 0.0000000000000000000 ) ) ;
#298 = CARTESIAN_POINT ( 'NONE',  ( -247.0000000000000000, 0.0000000000000000000, -65.00000000000000000 ) ) ;
#299 = CARTESIAN_POINT ( 'NONE',  ( 247.0000000000000000, 0.0000000000000000000, 0.0000000000000000000 ) ) ;
#300 = CARTESIAN_POINT ( 'NONE',  ( 247.0000000000000000, 0.0000000000000000000, -65.00000000000000000 ) ) ;
#301 = CARTESIAN_POINT ( 'NONE',  ( -247.0000000000000000, 0.8000000000000016000, -65.00000000000000000 ) ) ;
#302 = CARTESIAN_POINT ( 'NONE',  ( 247.0000000000000000, 0.8000000000000000400, -65.00000000000000000 ) ) ;
#303 = CARTESIAN_POINT ( 'NONE',  ( -247.0000000000000000, 0.8000000000000016000, 0.0000000000000000000 ) ) ;
#304 = ORIENTED_EDGE ( 'NONE', *, *, #27, .F. ) ;
#305 = ORIENTED_EDGE ( 'NONE', *, *, #34, .T. ) ;
ENDSEC;
END-ISO-10303-21;
