ISO-10303-21;
HEADER;
FILE_DESCRIPTION (( 'STEP AP203' ),
    '1' );
FILE_NAME ('CLP1M-SHU-10 Øàéáà ïëîñêàÿ óñèëåííàÿ M10.STEP',
    '2016-02-12T08:27:12',
    ( '' ),
    ( '' ),
    'SwSTEP 2.0',
    'SolidWorks 2014',
    '' );
FILE_SCHEMA (( 'CONFIG_CONTROL_DESIGN' ));
ENDSEC;

DATA;
#1 = PERSON_AND_ORGANIZATION_ROLE ( 'creator' ) ;
#2 = EDGE_LOOP ( 'NONE', ( #78 ) ) ;
#3 = EDGE_LOOP ( 'NONE', ( #10 ) ) ;
#4 = PERSON ( 'UNSPECIFIED', 'UNSPECIFIED', 'UNSPECIFIED', ('UNSPECIFIED'), ('UNSPECIFIED'), ('UNSPECIFIED') ) ;
#5 = APPROVAL_ROLE ( '' ) ;
#6 = APPROVAL_STATUS ( 'not_yet_approved' ) ;
#7 = ORIENTED_EDGE ( 'NONE', *, *, #8, .F. ) ;
#8 = EDGE_CURVE ( 'NONE', #148, #148, #37, .T. ) ;
#9 = CC_DESIGN_PERSON_AND_ORGANIZATION_ASSIGNMENT ( #96, #63, ( #18 ) ) ;
#10 = ORIENTED_EDGE ( 'NONE', *, *, #168, .F. ) ;
#11 = CARTESIAN_POINT ( 'NONE',  ( 0.0000000000000000000, 0.0000000000000000000, 2.500000000000000000 ) ) ;
#12 = DATE_TIME_ROLE ( 'creation_date' ) ;
#13 = PERSON_AND_ORGANIZATION_ROLE ( 'creator' ) ;
#14 = APPROVAL_ROLE ( '' ) ;
#15 = APPROVAL_DATE_TIME ( #46, #71 ) ;
#16 = APPROVAL_STATUS ( 'not_yet_approved' ) ;
#17 = APPLICATION_PROTOCOL_DEFINITION ( 'international standard', 'config_control_design', 1994, #19 ) ;
#18 = SECURITY_CLASSIFICATION ( '', '', #114 ) ;
#19 = APPLICATION_CONTEXT ( 'configuration controlled 3d designs of mechanical parts and assemblies' ) ;
#20 = CC_DESIGN_PERSON_AND_ORGANIZATION_ASSIGNMENT ( #34, #36, ( #52 ) ) ;
#21 = APPROVAL_DATE_TIME ( #77, #149 ) ;
#22 = CC_DESIGN_PERSON_AND_ORGANIZATION_ASSIGNMENT ( #98, #1, ( #52 ) ) ;
#23 = LOCAL_TIME ( 11, 27, 12.00000000000000000, #84 ) ;
#24 = PRODUCT ( 'CLP1M-SHU-10 Øàéáà ïëîñêàÿ óñèëåííàÿ M10', 'CLP1M-SHU-10 Øàéáà ïëîñêàÿ óñèëåííàÿ M10', '', ( #28 ) ) ;
#25 = PERSON_AND_ORGANIZATION_ROLE ( 'design_owner' ) ;
#26 = PERSON_AND_ORGANIZATION ( #4, #124 ) ;
#27 = PLANE ( 'NONE',  #138 ) ;
#28 = MECHANICAL_CONTEXT ( 'NONE', #31, 'mechanical' ) ;
#29 = DIRECTION ( 'NONE',  ( 1.000000000000000000, 0.0000000000000000000, 0.0000000000000000000 ) ) ;
#30 = MANIFOLD_SOLID_BREP ( 'Âûòÿíóòü1', #54 ) ;
#31 = APPLICATION_CONTEXT ( 'configuration controlled 3d designs of mechanical parts and assemblies' ) ;
#32 = LOCAL_TIME ( 11, 27, 12.00000000000000000, #95 ) ;
#33 = CC_DESIGN_APPROVAL ( #41, ( #52 ) ) ;
#34 = PERSON_AND_ORGANIZATION ( #4, #124 ) ;
#35 = APPLICATION_PROTOCOL_DEFINITION ( 'international standard', 'config_control_design', 1994, #31 ) ;
#36 = PERSON_AND_ORGANIZATION_ROLE ( 'design_supplier' ) ;
#37 = CIRCLE ( 'NONE', #158, 15.00000000000000000 ) ;
#38 = DATE_AND_TIME ( #100, #103 ) ;
#39 = COORDINATED_UNIVERSAL_TIME_OFFSET ( 3, 0, .AHEAD. ) ;
#40 =( NAMED_UNIT ( * ) SI_UNIT ( $, .STERADIAN. ) SOLID_ANGLE_UNIT ( ) );
#41 = APPROVAL ( #6, 'UNSPECIFIED' ) ;
#42 = DATE_AND_TIME ( #110, #111 ) ;
#43 = COORDINATED_UNIVERSAL_TIME_OFFSET ( 3, 0, .AHEAD. ) ;
#44 =( NAMED_UNIT ( * ) PLANE_ANGLE_UNIT ( ) SI_UNIT ( $, .RADIAN. ) );
#45 =( LENGTH_UNIT ( ) NAMED_UNIT ( * ) SI_UNIT ( .MILLI., .METRE. ) );
#46 = DATE_AND_TIME ( #118, #121 ) ;
#47 = COORDINATED_UNIVERSAL_TIME_OFFSET ( 3, 0, .AHEAD. ) ;
#48 = PERSON_AND_ORGANIZATION ( #4, #124 ) ;
#49 = PRODUCT_RELATED_PRODUCT_CATEGORY ( 'detail', '', ( #24 ) ) ;
#50 = DIRECTION ( 'NONE',  ( 0.0000000000000000000, 0.0000000000000000000, 1.000000000000000000 ) ) ;
#51 = CARTESIAN_POINT ( 'NONE',  ( 5.250000000000000000, 0.0000000000000000000, 0.0000000000000000000 ) ) ;
#52 = PRODUCT_DEFINITION_FORMATION_WITH_SPECIFIED_SOURCE ( 'ANY', '', #24, .NOT_KNOWN. ) ;
#53 = DIRECTION ( 'NONE',  ( 1.000000000000000000, 0.0000000000000000000, 0.0000000000000000000 ) ) ;
#54 = CLOSED_SHELL ( 'NONE', ( #69, #91, #166, #89 ) ) ;
#55 = DIRECTION ( 'NONE',  ( 0.0000000000000000000, 0.0000000000000000000, 1.000000000000000000 ) ) ;
#56 = CARTESIAN_POINT ( 'NONE',  ( 0.0000000000000000000, 0.0000000000000000000, 0.0000000000000000000 ) ) ;
#57 = FACE_OUTER_BOUND ( 'NONE', #2, .T. ) ;
#58 = CARTESIAN_POINT ( 'NONE',  ( 15.00000000000000000, 0.0000000000000000000, 0.0000000000000000000 ) ) ;
#59 = EDGE_LOOP ( 'NONE', ( #165 ) ) ;
#60 = FACE_BOUND ( 'NONE', #163, .T. ) ;
#61 = CC_DESIGN_DATE_AND_TIME_ASSIGNMENT ( #42, #12, ( #75 ) ) ;
#62 = EDGE_LOOP ( 'NONE', ( #7 ) ) ;
#63 = PERSON_AND_ORGANIZATION_ROLE ( 'classification_officer' ) ;
#64 = ADVANCED_BREP_SHAPE_REPRESENTATION ( 'CLP1M-SHU-10 +ðùñð ÿûþ¸úð  º¸øûõýýð  M10', ( #30, #90 ), #104 ) ;
#65 = DIRECTION ( 'NONE',  ( 0.0000000000000000000, 0.0000000000000000000, 1.000000000000000000 ) ) ;
#66 = CC_DESIGN_PERSON_AND_ORGANIZATION_ASSIGNMENT ( #112, #13, ( #75 ) ) ;
#67 = CC_DESIGN_APPROVAL ( #71, ( #75 ) ) ;
#68 = DIRECTION ( 'NONE',  ( -1.000000000000000000, 0.0000000000000000000, 0.0000000000000000000 ) ) ;
#69 = ADVANCED_FACE ( 'NONE', ( #167, #60 ), #27, .T. ) ;
#70 = CARTESIAN_POINT ( 'NONE',  ( 0.0000000000000000000, 0.0000000000000000000, 2.500000000000000000 ) ) ;
#71 = APPROVAL ( #16, 'UNSPECIFIED' ) ;
#72 = DIRECTION ( 'NONE',  ( 1.000000000000000000, 0.0000000000000000000, 0.0000000000000000000 ) ) ;
#73 = FACE_OUTER_BOUND ( 'NONE', #3, .T. ) ;
#74 = PRODUCT_DEFINITION_SHAPE ( 'NONE', 'NONE',  #75 ) ;
#75 = PRODUCT_DEFINITION ( 'UNKNOWN', '', #52, #126 ) ;
#76 = DIRECTION ( 'NONE',  ( 0.0000000000000000000, 0.0000000000000000000, 1.000000000000000000 ) ) ;
#77 = DATE_AND_TIME ( #83, #23 ) ;
#78 = ORIENTED_EDGE ( 'NONE', *, *, #168, .T. ) ;
#79 = CC_DESIGN_PERSON_AND_ORGANIZATION_ASSIGNMENT ( #48, #25, ( #24 ) ) ;
#80 = CARTESIAN_POINT ( 'NONE',  ( 0.0000000000000000000, 0.0000000000000000000, 0.0000000000000000000 ) ) ;
#81 = ORIENTED_EDGE ( 'NONE', *, *, #169, .F. ) ;
#82 = ORIENTED_EDGE ( 'NONE', *, *, #161, .F. ) ;
#83 = CALENDAR_DATE ( 2016, 12, 2 ) ;
#84 = COORDINATED_UNIVERSAL_TIME_OFFSET ( 3, 0, .AHEAD. ) ;
#85 = APPROVAL_PERSON_ORGANIZATION ( #26, #149, #129 ) ;
#86 = DATE_AND_TIME ( #87, #32 ) ;
#87 = CALENDAR_DATE ( 2016, 12, 2 ) ;
#88 = CARTESIAN_POINT ( 'NONE',  ( 5.250000000000000000, 0.0000000000000000000, 2.500000000000000000 ) ) ;
#89 = ADVANCED_FACE ( 'NONE', ( #157, #159 ), #155, .F. ) ;
#90 = AXIS2_PLACEMENT_3D ( 'NONE', #93, #50, #29 ) ;
#91 = ADVANCED_FACE ( 'NONE', ( #73, #154 ), #134, .F. ) ;
#92 = APPROVAL_STATUS ( 'not_yet_approved' ) ;
#93 = CARTESIAN_POINT ( 'NONE',  ( 0.0000000000000000000, 0.0000000000000000000, 0.0000000000000000000 ) ) ;
#94 = CARTESIAN_POINT ( 'NONE',  ( 15.00000000000000000, 0.0000000000000000000, 2.500000000000000000 ) ) ;
#95 = COORDINATED_UNIVERSAL_TIME_OFFSET ( 3, 0, .AHEAD. ) ;
#96 = PERSON_AND_ORGANIZATION ( #4, #124 ) ;
#97 = DIRECTION ( 'NONE',  ( 1.000000000000000000, 0.0000000000000000000, 0.0000000000000000000 ) ) ;
#98 = PERSON_AND_ORGANIZATION ( #4, #124 ) ;
#99 = APPROVAL_DATE_TIME ( #38, #41 ) ;
#100 = CALENDAR_DATE ( 2016, 12, 2 ) ;
#101 = DIRECTION ( 'NONE',  ( 1.000000000000000000, 0.0000000000000000000, 0.0000000000000000000 ) ) ;
#102 = DIRECTION ( 'NONE',  ( 0.0000000000000000000, 0.0000000000000000000, 1.000000000000000000 ) ) ;
#103 = LOCAL_TIME ( 11, 27, 12.00000000000000000, #39 ) ;
#104 =( GEOMETRIC_REPRESENTATION_CONTEXT ( 3 ) GLOBAL_UNCERTAINTY_ASSIGNED_CONTEXT ( ( #127 ) ) GLOBAL_UNIT_ASSIGNED_CONTEXT ( ( #45, #44, #40 ) ) REPRESENTATION_CONTEXT ( 'NONE', 'WORKASPACE' ) );
#105 = APPROVAL_PERSON_ORGANIZATION ( #107, #41, #5 ) ;
#106 = AXIS2_PLACEMENT_3D ( 'NONE', #117, #116, #125 ) ;
#107 = PERSON_AND_ORGANIZATION ( #4, #124 ) ;
#108 = EDGE_LOOP ( 'NONE', ( #143 ) ) ;
#109 = DIRECTION ( 'NONE',  ( 0.0000000000000000000, 0.0000000000000000000, 1.000000000000000000 ) ) ;
#110 = CALENDAR_DATE ( 2016, 12, 2 ) ;
#111 = LOCAL_TIME ( 11, 27, 12.00000000000000000, #43 ) ;
#112 = PERSON_AND_ORGANIZATION ( #4, #124 ) ;
#113 = CARTESIAN_POINT ( 'NONE',  ( 0.0000000000000000000, 0.0000000000000000000, 2.500000000000000000 ) ) ;
#114 = SECURITY_CLASSIFICATION_LEVEL ( 'unclassified' ) ;
#115 = AXIS2_PLACEMENT_3D ( 'NONE', #80, #76, #72 ) ;
#116 = DIRECTION ( 'NONE',  ( -0.0000000000000000000, -0.0000000000000000000, -1.000000000000000000 ) ) ;
#117 = CARTESIAN_POINT ( 'NONE',  ( 0.0000000000000000000, 0.0000000000000000000, 2.500000000000000000 ) ) ;
#118 = CALENDAR_DATE ( 2016, 12, 2 ) ;
#119 = CC_DESIGN_DATE_AND_TIME_ASSIGNMENT ( #86, #153, ( #18 ) ) ;
#120 = CIRCLE ( 'NONE', #140, 5.250000000000000000 ) ;
#121 = LOCAL_TIME ( 11, 27, 12.00000000000000000, #47 ) ;
#122 = APPROVAL_PERSON_ORGANIZATION ( #123, #71, #14 ) ;
#123 = PERSON_AND_ORGANIZATION ( #4, #124 ) ;
#124 = ORGANIZATION ( 'UNSPECIFIED', 'UNSPECIFIED', '' ) ;
#125 = DIRECTION ( 'NONE',  ( -1.000000000000000000, 0.0000000000000000000, 0.0000000000000000000 ) ) ;
#126 = DESIGN_CONTEXT ( 'detailed design', #19, 'design' ) ;
#127 = UNCERTAINTY_MEASURE_WITH_UNIT (LENGTH_MEASURE( 1.000000000000000100E-005 ), #45, 'distance_accuracy_value', 'NONE');
#128 = CC_DESIGN_APPROVAL ( #149, ( #18 ) ) ;
#129 = APPROVAL_ROLE ( '' ) ;
#130 = DIRECTION ( 'NONE',  ( 1.000000000000000000, 0.0000000000000000000, -0.0000000000000000000 ) ) ;
#131 = DIRECTION ( 'NONE',  ( 0.0000000000000000000, 0.0000000000000000000, 1.000000000000000000 ) ) ;
#132 = AXIS2_PLACEMENT_3D ( 'NONE', #56, #55, #53 ) ;
#133 = AXIS2_PLACEMENT_3D ( 'NONE', #150, #131, #130 ) ;
#134 = PLANE ( 'NONE',  #133 ) ;
#135 = VERTEX_POINT ( 'NONE', #51 ) ;
#136 = AXIS2_PLACEMENT_3D ( 'NONE', #145, #152, #68 ) ;
#137 = VERTEX_POINT ( 'NONE', #58 ) ;
#138 = AXIS2_PLACEMENT_3D ( 'NONE', #70, #65, #156 ) ;
#139 = FACE_OUTER_BOUND ( 'NONE', #62, .T. ) ;
#140 = AXIS2_PLACEMENT_3D ( 'NONE', #113, #102, #101 ) ;
#141 = CYLINDRICAL_SURFACE ( 'NONE', #106, 15.00000000000000000 ) ;
#142 = SHAPE_DEFINITION_REPRESENTATION ( #74, #64 ) ;
#143 = ORIENTED_EDGE ( 'NONE', *, *, #8, .T. ) ;
#144 = VERTEX_POINT ( 'NONE', #88 ) ;
#145 = CARTESIAN_POINT ( 'NONE',  ( 0.0000000000000000000, 0.0000000000000000000, 2.500000000000000000 ) ) ;
#146 = CIRCLE ( 'NONE', #132, 5.250000000000000000 ) ;
#147 = CIRCLE ( 'NONE', #115, 15.00000000000000000 ) ;
#148 = VERTEX_POINT ( 'NONE', #94 ) ;
#149 = APPROVAL ( #92, 'UNSPECIFIED' ) ;
#150 = CARTESIAN_POINT ( 'NONE',  ( 0.0000000000000000000, 0.0000000000000000000, 0.0000000000000000000 ) ) ;
#151 = ORIENTED_EDGE ( 'NONE', *, *, #169, .T. ) ;
#152 = DIRECTION ( 'NONE',  ( -0.0000000000000000000, -0.0000000000000000000, -1.000000000000000000 ) ) ;
#153 = DATE_TIME_ROLE ( 'classification_date' ) ;
#154 = FACE_BOUND ( 'NONE', #160, .T. ) ;
#155 = CYLINDRICAL_SURFACE ( 'NONE', #136, 5.250000000000000000 ) ;
#156 = DIRECTION ( 'NONE',  ( 1.000000000000000000, 0.0000000000000000000, -0.0000000000000000000 ) ) ;
#157 = FACE_OUTER_BOUND ( 'NONE', #59, .T. ) ;
#158 = AXIS2_PLACEMENT_3D ( 'NONE', #11, #109, #97 ) ;
#159 = FACE_OUTER_BOUND ( 'NONE', #162, .T. ) ;
#160 = EDGE_LOOP ( 'NONE', ( #151 ) ) ;
#161 = EDGE_CURVE ( 'NONE', #144, #144, #120, .T. ) ;
#162 = EDGE_LOOP ( 'NONE', ( #81 ) ) ;
#163 = EDGE_LOOP ( 'NONE', ( #82 ) ) ;
#164 = CC_DESIGN_SECURITY_CLASSIFICATION ( #18, ( #52 ) ) ;
#165 = ORIENTED_EDGE ( 'NONE', *, *, #161, .T. ) ;
#166 = ADVANCED_FACE ( 'NONE', ( #139, #57 ), #141, .T. ) ;
#167 = FACE_OUTER_BOUND ( 'NONE', #108, .T. ) ;
#168 = EDGE_CURVE ( 'NONE', #137, #137, #147, .T. ) ;
#169 = EDGE_CURVE ( 'NONE', #135, #135, #146, .T. ) ;
ENDSEC;
END-ISO-10303-21;
