ISO-10303-21;
HEADER;
FILE_DESCRIPTION (( 'STEP AP203' ),
    '1' );
FILE_NAME ('Êðûøêà íà óãîë âåðòèêàëüíûé âíåøíèé CDV 90_38341.STEP',
    '2012-11-09T08:45:08',
    ( 'Àñååâ' ),
    ( '' ),
    'SwSTEP 2.0',
    'SolidWorks 2012',
    '' );
FILE_SCHEMA (( 'CONFIG_CONTROL_DESIGN' ));
ENDSEC;

DATA;
#1 = APPROVAL_STATUS ( 'not_yet_approved' ) ;
#2 = APPLICATION_PROTOCOL_DEFINITION ( 'international standard', 'config_control_design', 1994, #66 ) ;
#3 = DIRECTION ( 'NONE',  ( -0.0000000000000000000, 0.0000000000000000000, -1.000000000000000000 ) ) ;
#4 = DIRECTION ( 'NONE',  ( -1.000000000000000000, 0.0000000000000000000, 0.0000000000000000000 ) ) ;
#5 = CARTESIAN_POINT ( 'NONE',  ( 1.734723475976807100E-015, -14.00099999999999900, 14.99999999999999300 ) ) ;
#6 = APPROVAL_STATUS ( 'not_yet_approved' ) ;
#7 = PLANE ( 'NONE',  #312 ) ;
#8 = APPROVAL_ROLE ( '' ) ;
#9 = APPROVAL_STATUS ( 'not_yet_approved' ) ;
#10 = DATE_TIME_ROLE ( 'creation_date' ) ;
#11 = CARTESIAN_POINT ( 'NONE',  ( 51.79999999999999700, 0.8000000000000000400, 0.0000000000000000000 ) ) ;
#12 = PERSON_AND_ORGANIZATION_ROLE ( 'creator' ) ;
#13 = DATE_TIME_ROLE ( 'classification_date' ) ;
#14 = PERSON_AND_ORGANIZATION_ROLE ( 'classification_officer' ) ;
#15 = SECURITY_CLASSIFICATION_LEVEL ( 'unclassified' ) ;
#16 = CARTESIAN_POINT ( 'NONE',  ( -51.00000000000000000, 0.8000000000000000400, 0.0000000000000000000 ) ) ;
#17 = PERSON_AND_ORGANIZATION_ROLE ( 'design_supplier' ) ;
#18 = PERSON_AND_ORGANIZATION_ROLE ( 'creator' ) ;
#19 = CARTESIAN_POINT ( 'NONE',  ( 1.734723475976807100E-015, 0.0000000000000000000, 194.9999999999999700 ) ) ;
#20 = APPROVAL_ROLE ( '' ) ;
#21 = DIRECTION ( 'NONE',  ( -0.0000000000000000000, -0.0000000000000000000, -1.000000000000000000 ) ) ;
#22 = DIRECTION ( 'NONE',  ( 0.0000000000000000000, 0.0000000000000000000, 1.000000000000000000 ) ) ;
#23 = DIRECTION ( 'NONE',  ( 0.0000000000000000000, 1.000000000000000000, 0.0000000000000000000 ) ) ;
#24 = DIRECTION ( 'NONE',  ( 1.000000000000000000, 0.0000000000000000000, 0.0000000000000000000 ) ) ;
#25 = CARTESIAN_POINT ( 'NONE',  ( -51.00000000000000000, 0.8000000000000000400, 210.0000000000000000 ) ) ;
#26 = DIRECTION ( 'NONE',  ( 0.0000000000000000000, 0.0000000000000000000, -1.000000000000000000 ) ) ;
#27 = DIRECTION ( 'NONE',  ( -0.0000000000000000000, 1.000000000000000000, -0.0000000000000000000 ) ) ;
#28 = DIRECTION ( 'NONE',  ( -1.000000000000000000, 0.0000000000000000000, 0.0000000000000000000 ) ) ;
#29 = CARTESIAN_POINT ( 'NONE',  ( 1.734723475976807100E-015, 0.8000000000000000400, 194.9999999999999700 ) ) ;
#30 = CARTESIAN_POINT ( 'NONE',  ( 1.734723475976807100E-015, 0.8000000000000000400, 14.99999999999999300 ) ) ;
#31 = DIRECTION ( 'NONE',  ( -0.0000000000000000000, -1.000000000000000000, 0.0000000000000000000 ) ) ;
#32 = CARTESIAN_POINT ( 'NONE',  ( 51.79999999999999700, -14.00000000000000000, 210.0000000000000000 ) ) ;
#33 = CARTESIAN_POINT ( 'NONE',  ( 51.79999999999999700, 0.0000000000000000000, 210.0000000000000000 ) ) ;
#34 = DIRECTION ( 'NONE',  ( 0.0000000000000000000, 1.000000000000000000, 0.0000000000000000000 ) ) ;
#35 = DIRECTION ( 'NONE',  ( -0.0000000000000000000, 1.000000000000000000, -0.0000000000000000000 ) ) ;
#36 = DIRECTION ( 'NONE',  ( -1.000000000000000000, 0.0000000000000000000, 0.0000000000000000000 ) ) ;
#37 = CARTESIAN_POINT ( 'NONE',  ( -51.79999999999999700, 0.0000000000000000000, 210.0000000000000000 ) ) ;
#38 = CARTESIAN_POINT ( 'NONE',  ( -51.00000000000000000, 0.0000000000000000000, 210.0000000000000000 ) ) ;
#39 = CARTESIAN_POINT ( 'NONE',  ( 51.79999999999999700, -14.00000000000000000, 0.0000000000000000000 ) ) ;
#40 = DIRECTION ( 'NONE',  ( 0.0000000000000000000, -1.000000000000000000, 0.0000000000000000000 ) ) ;
#41 = DIRECTION ( 'NONE',  ( -0.0000000000000000000, -0.0000000000000000000, -1.000000000000000000 ) ) ;
#42 = CARTESIAN_POINT ( 'NONE',  ( -51.79999999999999700, 0.0000000000000000000, 0.0000000000000000000 ) ) ;
#43 = CARTESIAN_POINT ( 'NONE',  ( 51.00000000000000000, -14.00000000000000000, 210.0000000000000000 ) ) ;
#44 = DIRECTION ( 'NONE',  ( -1.000000000000000000, 0.0000000000000000000, 0.0000000000000000000 ) ) ;
#45 = CARTESIAN_POINT ( 'NONE',  ( -51.00000000000000000, 0.0000000000000000000, 210.0000000000000000 ) ) ;
#46 = DIRECTION ( 'NONE',  ( 1.000000000000000000, 0.0000000000000000000, 0.0000000000000000000 ) ) ;
#47 = CARTESIAN_POINT ( 'NONE',  ( -51.00000000000000000, -14.00000000000000000, 210.0000000000000000 ) ) ;
#48 = DIRECTION ( 'NONE',  ( 0.0000000000000000000, 0.0000000000000000000, 1.000000000000000000 ) ) ;
#49 = DIRECTION ( 'NONE',  ( -0.0000000000000000000, -1.000000000000000000, -0.0000000000000000000 ) ) ;
#50 = CARTESIAN_POINT ( 'NONE',  ( 1.734723475976807100E-015, 0.0000000000000000000, 14.99999999999999300 ) ) ;
#51 = CARTESIAN_POINT ( 'NONE',  ( -51.00000000000000000, 0.0000000000000000000, 0.0000000000000000000 ) ) ;
#52 = CARTESIAN_POINT ( 'NONE',  ( 51.00000000000000000, 0.0000000000000000000, 210.0000000000000000 ) ) ;
#53 = DIRECTION ( 'NONE',  ( 0.0000000000000000000, -1.000000000000000000, 0.0000000000000000000 ) ) ;
#54 = DIRECTION ( 'NONE',  ( -0.0000000000000000000, -0.0000000000000000000, -1.000000000000000000 ) ) ;
#55 = DIRECTION ( 'NONE',  ( 0.0000000000000000000, 0.0000000000000000000, 1.000000000000000000 ) ) ;
#56 = DIRECTION ( 'NONE',  ( -0.0000000000000000000, -1.000000000000000000, -0.0000000000000000000 ) ) ;
#57 = DIRECTION ( 'NONE',  ( -0.0000000000000000000, -0.0000000000000000000, -1.000000000000000000 ) ) ;
#58 = CARTESIAN_POINT ( 'NONE',  ( 51.79999999999999700, 0.8000000000000000400, 210.0000000000000000 ) ) ;
#59 = DIRECTION ( 'NONE',  ( 0.0000000000000000000, -0.0000000000000000000, -1.000000000000000000 ) ) ;
#60 = DIRECTION ( 'NONE',  ( -0.0000000000000000000, -1.000000000000000000, 0.0000000000000000000 ) ) ;
#61 = CARTESIAN_POINT ( 'NONE',  ( 51.79999999999999700, 0.0000000000000000000, 0.0000000000000000000 ) ) ;
#62 = DIRECTION ( 'NONE',  ( -1.000000000000000000, 0.0000000000000000000, 0.0000000000000000000 ) ) ;
#63 = CARTESIAN_POINT ( 'NONE',  ( -51.00000000000000000, 0.0000000000000000000, 210.0000000000000000 ) ) ;
#64 = CARTESIAN_POINT ( 'NONE',  ( 51.79999999999999700, -14.00000000000000000, 210.0000000000000000 ) ) ;
#65 = DIRECTION ( 'NONE',  ( -1.000000000000000000, 0.0000000000000000000, 0.0000000000000000000 ) ) ;
#66 = APPLICATION_CONTEXT ( 'configuration controlled 3d designs of mechanical parts and assemblies' ) ;
#67 = PERSON_AND_ORGANIZATION_ROLE ( 'design_owner' ) ;
#68 = DIRECTION ( 'NONE',  ( -0.0000000000000000000, -0.0000000000000000000, -1.000000000000000000 ) ) ;
#69 = DIRECTION ( 'NONE',  ( -0.0000000000000000000, -0.0000000000000000000, -1.000000000000000000 ) ) ;
#70 = CARTESIAN_POINT ( 'NONE',  ( -51.00000000000000000, -14.00000000000000000, 0.0000000000000000000 ) ) ;
#71 = CARTESIAN_POINT ( 'NONE',  ( 51.00000000000000000, 0.0000000000000000000, 210.0000000000000000 ) ) ;
#72 = DIRECTION ( 'NONE',  ( -0.0000000000000000000, 0.0000000000000000000, -1.000000000000000000 ) ) ;
#73 = DIRECTION ( 'NONE',  ( 0.0000000000000000000, -0.0000000000000000000, 1.000000000000000000 ) ) ;
#74 = CARTESIAN_POINT ( 'NONE',  ( -51.00000000000000000, -14.00000000000000000, 210.0000000000000000 ) ) ;
#75 = PLANE ( 'NONE',  #315 ) ;
#76 = DIRECTION ( 'NONE',  ( 0.0000000000000000000, 1.000000000000000000, 0.0000000000000000000 ) ) ;
#77 = DIRECTION ( 'NONE',  ( -0.0000000000000000000, -0.0000000000000000000, -1.000000000000000000 ) ) ;
#78 = CARTESIAN_POINT ( 'NONE',  ( 51.00000000000000000, 0.0000000000000000000, 0.0000000000000000000 ) ) ;
#79 = CARTESIAN_POINT ( 'NONE',  ( -51.79999999999999700, 0.8000000000000000400, 210.0000000000000000 ) ) ;
#80 = DIRECTION ( 'NONE',  ( 1.000000000000000000, 0.0000000000000000000, 0.0000000000000000000 ) ) ;
#81 = CARTESIAN_POINT ( 'NONE',  ( 1.734723475976807100E-015, 0.0000000000000000000, 197.4999999999999700 ) ) ;
#82 = CARTESIAN_POINT ( 'NONE',  ( 0.0000000000000000000, 0.0000000000000000000, 210.0000000000000000 ) ) ;
#83 = CARTESIAN_POINT ( 'NONE',  ( 1.734723475976807100E-015, 0.0000000000000000000, 17.49999999999999600 ) ) ;
#84 = CARTESIAN_POINT ( 'NONE',  ( -51.00000000000000000, 0.0000000000000000000, 210.0000000000000000 ) ) ;
#85 = DIRECTION ( 'NONE',  ( 0.0000000000000000000, 0.0000000000000000000, 1.000000000000000000 ) ) ;
#86 =( NAMED_UNIT ( * ) SI_UNIT ( $, .STERADIAN. ) SOLID_ANGLE_UNIT ( ) );
#87 =( NAMED_UNIT ( * ) PLANE_ANGLE_UNIT ( ) SI_UNIT ( $, .RADIAN. ) );
#88 = DIRECTION ( 'NONE',  ( 0.0000000000000000000, 1.000000000000000000, 0.0000000000000000000 ) ) ;
#89 =( LENGTH_UNIT ( ) NAMED_UNIT ( * ) SI_UNIT ( .MILLI., .METRE. ) );
#90 = CARTESIAN_POINT ( 'NONE',  ( 1.734723475976807100E-015, 0.8000000000000000400, 17.49999999999999600 ) ) ;
#91 = DIRECTION ( 'NONE',  ( 0.0000000000000000000, 0.0000000000000000000, 1.000000000000000000 ) ) ;
#92 = PLANE ( 'NONE',  #321 ) ;
#93 = CARTESIAN_POINT ( 'NONE',  ( 1.734723475976807100E-015, 0.8000000000000000400, 192.4999999999999700 ) ) ;
#94 = DIRECTION ( 'NONE',  ( 0.0000000000000000000, -0.0000000000000000000, 1.000000000000000000 ) ) ;
#95 = CARTESIAN_POINT ( 'NONE',  ( 0.0000000000000000000, 0.0000000000000000000, 0.0000000000000000000 ) ) ;
#96 = DIRECTION ( 'NONE',  ( -0.0000000000000000000, 1.000000000000000000, -0.0000000000000000000 ) ) ;
#97 = DIRECTION ( 'NONE',  ( 0.0000000000000000000, -1.000000000000000000, 0.0000000000000000000 ) ) ;
#98 = DIRECTION ( 'NONE',  ( 0.0000000000000000000, -0.0000000000000000000, -1.000000000000000000 ) ) ;
#99 = CARTESIAN_POINT ( 'NONE',  ( -51.79999999999999700, 0.0000000000000000000, 210.0000000000000000 ) ) ;
#100 = PLANE ( 'NONE',  #322 ) ;
#101 = CARTESIAN_POINT ( 'NONE',  ( 51.00000000000000000, 0.0000000000000000000, 210.0000000000000000 ) ) ;
#102 = CARTESIAN_POINT ( 'NONE',  ( -51.00000000000000000, 0.8000000000000000400, 210.0000000000000000 ) ) ;
#103 = DIRECTION ( 'NONE',  ( -0.0000000000000000000, 0.0000000000000000000, -1.000000000000000000 ) ) ;
#104 = DIRECTION ( 'NONE',  ( 1.000000000000000000, 0.0000000000000000000, -0.0000000000000000000 ) ) ;
#105 = PLANE ( 'NONE',  #323 ) ;
#106 = DIRECTION ( 'NONE',  ( 0.0000000000000000000, 0.0000000000000000000, 1.000000000000000000 ) ) ;
#107 = DIRECTION ( 'NONE',  ( -1.000000000000000000, 0.0000000000000000000, 0.0000000000000000000 ) ) ;
#108 = DIRECTION ( 'NONE',  ( -0.0000000000000000000, -0.0000000000000000000, -1.000000000000000000 ) ) ;
#109 = CARTESIAN_POINT ( 'NONE',  ( -51.79999999999999700, -14.00000000000000000, 210.0000000000000000 ) ) ;
#110 = CARTESIAN_POINT ( 'NONE',  ( -51.00000000000000000, -14.00000000000000000, 210.0000000000000000 ) ) ;
#111 = DIRECTION ( 'NONE',  ( 1.000000000000000000, 0.0000000000000000000, 0.0000000000000000000 ) ) ;
#112 = CARTESIAN_POINT ( 'NONE',  ( -51.00000000000000000, 0.0000000000000000000, 0.0000000000000000000 ) ) ;
#113 = DIRECTION ( 'NONE',  ( 0.0000000000000000000, -1.000000000000000000, 0.0000000000000000000 ) ) ;
#114 = PLANE ( 'NONE',  #327 ) ;
#115 = DIRECTION ( 'NONE',  ( 0.0000000000000000000, 1.000000000000000000, 0.0000000000000000000 ) ) ;
#116 = DIRECTION ( 'NONE',  ( 0.0000000000000000000, 0.0000000000000000000, 1.000000000000000000 ) ) ;
#117 = DIRECTION ( 'NONE',  ( -1.000000000000000000, 0.0000000000000000000, 0.0000000000000000000 ) ) ;
#118 = APPROVAL_ROLE ( '' ) ;
#119 = DIRECTION ( 'NONE',  ( 1.000000000000000000, 0.0000000000000000000, -0.0000000000000000000 ) ) ;
#120 = DIRECTION ( 'NONE',  ( -0.0000000000000000000, 1.000000000000000000, -0.0000000000000000000 ) ) ;
#121 = CARTESIAN_POINT ( 'NONE',  ( 51.00000000000000000, -14.00000000000000000, 210.0000000000000000 ) ) ;
#122 = PLANE ( 'NONE',  #317 ) ;
#123 = CARTESIAN_POINT ( 'NONE',  ( 1.734723475976807100E-015, -14.00099999999999900, 194.9999999999999700 ) ) ;
#124 = DIRECTION ( 'NONE',  ( -0.0000000000000000000, 0.0000000000000000000, -1.000000000000000000 ) ) ;
#125 = CARTESIAN_POINT ( 'NONE',  ( -51.00000000000000000, 0.0000000000000000000, 0.0000000000000000000 ) ) ;
#126 = CARTESIAN_POINT ( 'NONE',  ( -51.79999999999999700, 0.8000000000000000400, 0.0000000000000000000 ) ) ;
#127 = CARTESIAN_POINT ( 'NONE',  ( -51.79999999999999700, -14.00000000000000000, 0.0000000000000000000 ) ) ;
#128 = CARTESIAN_POINT ( 'NONE',  ( -51.00000000000000000, -14.00000000000000000, 0.0000000000000000000 ) ) ;
#129 = CARTESIAN_POINT ( 'NONE',  ( -51.00000000000000000, -14.00000000000000000, 210.0000000000000000 ) ) ;
#130 = CARTESIAN_POINT ( 'NONE',  ( 51.00000000000000000, 0.0000000000000000000, 0.0000000000000000000 ) ) ;
#131 = DIRECTION ( 'NONE',  ( -0.0000000000000000000, 1.000000000000000000, -0.0000000000000000000 ) ) ;
#132 = CARTESIAN_POINT ( 'NONE',  ( -51.00000000000000000, 0.0000000000000000000, 210.0000000000000000 ) ) ;
#133 = CARTESIAN_POINT ( 'NONE',  ( -51.79999999999999700, -14.00000000000000000, 210.0000000000000000 ) ) ;
#134 = CARTESIAN_POINT ( 'NONE',  ( 51.00000000000000000, 0.0000000000000000000, 210.0000000000000000 ) ) ;
#135 = CARTESIAN_POINT ( 'NONE',  ( 51.79999999999999700, -14.00000000000000000, 0.0000000000000000000 ) ) ;
#136 = CARTESIAN_POINT ( 'NONE',  ( 0.0000000000000000000, 0.0000000000000000000, 0.0000000000000000000 ) ) ;
#137 = DIRECTION ( 'NONE',  ( 0.0000000000000000000, 0.0000000000000000000, 1.000000000000000000 ) ) ;
#138 = PLANE ( 'NONE',  #336 ) ;
#139 = CARTESIAN_POINT ( 'NONE',  ( 51.79999999999999700, -14.00000000000000000, 210.0000000000000000 ) ) ;
#140 = CARTESIAN_POINT ( 'NONE',  ( 51.79999999999999700, 0.0000000000000000000, 210.0000000000000000 ) ) ;
#141 = CARTESIAN_POINT ( 'NONE',  ( -51.00000000000000000, 0.0000000000000000000, 210.0000000000000000 ) ) ;
#142 = PLANE ( 'NONE',  #332 ) ;
#143 = CARTESIAN_POINT ( 'NONE',  ( 51.79999999999999700, 0.8000000000000000400, 210.0000000000000000 ) ) ;
#144 = CARTESIAN_POINT ( 'NONE',  ( -51.79999999999999700, 0.8000000000000000400, 210.0000000000000000 ) ) ;
#145 = MECHANICAL_CONTEXT ( 'NONE', #146, 'mechanical' ) ;
#146 = APPLICATION_CONTEXT ( 'configuration controlled 3d designs of mechanical parts and assemblies' ) ;
#147 = DIRECTION ( 'NONE',  ( 1.000000000000000000, 0.0000000000000000000, 0.0000000000000000000 ) ) ;
#148 = PLANE ( 'NONE',  #314 ) ;
#149 = APPLICATION_PROTOCOL_DEFINITION ( 'international standard', 'config_control_design', 1994, #146 ) ;
#150 = CARTESIAN_POINT ( 'NONE',  ( 51.79999999999999700, -14.00000000000000000, 210.0000000000000000 ) ) ;
#151 = CARTESIAN_POINT ( 'NONE',  ( 51.00000000000000000, -14.00000000000000000, 0.0000000000000000000 ) ) ;
#152 = CYLINDRICAL_SURFACE ( 'NONE', #333, 2.500000000000002200 ) ;
#153 = FACE_BOUND ( 'NONE', #260, .T. ) ;
#154 = FACE_OUTER_BOUND ( 'NONE', #239, .T. ) ;
#155 = FACE_OUTER_BOUND ( 'NONE', #262, .T. ) ;
#156 = FACE_OUTER_BOUND ( 'NONE', #251, .T. ) ;
#157 = FACE_OUTER_BOUND ( 'NONE', #245, .T. ) ;
#158 = FACE_OUTER_BOUND ( 'NONE', #241, .T. ) ;
#159 = VERTEX_POINT ( 'NONE', #151 ) ;
#160 = VERTEX_POINT ( 'NONE', #121 ) ;
#161 = VERTEX_POINT ( 'NONE', #143 ) ;
#162 = VERTEX_POINT ( 'NONE', #127 ) ;
#163 = VERTEX_POINT ( 'NONE', #11 ) ;
#164 = VERTEX_POINT ( 'NONE', #144 ) ;
#165 = VERTEX_POINT ( 'NONE', #125 ) ;
#166 = VERTEX_POINT ( 'NONE', #126 ) ;
#167 = VERTEX_POINT ( 'NONE', #150 ) ;
#168 = VERTEX_POINT ( 'NONE', #130 ) ;
#169 = VERTEX_POINT ( 'NONE', #129 ) ;
#170 = VERTEX_POINT ( 'NONE', #128 ) ;
#171 = VERTEX_POINT ( 'NONE', #135 ) ;
#172 = LINE ( 'NONE', #110, #284 ) ;
#173 = VERTEX_POINT ( 'NONE', #134 ) ;
#174 = VERTEX_POINT ( 'NONE', #133 ) ;
#175 = VERTEX_POINT ( 'NONE', #132 ) ;
#176 = ORIENTED_EDGE ( 'NONE', *, *, #364, .F. ) ;
#177 = ORIENTED_EDGE ( 'NONE', *, *, #360, .F. ) ;
#178 = ORIENTED_EDGE ( 'NONE', *, *, #338, .F. ) ;
#179 = ORIENTED_EDGE ( 'NONE', *, *, #364, .T. ) ;
#180 = ORIENTED_EDGE ( 'NONE', *, *, #353, .T. ) ;
#181 = ORIENTED_EDGE ( 'NONE', *, *, #340, .F. ) ;
#182 = ORIENTED_EDGE ( 'NONE', *, *, #349, .T. ) ;
#183 = ORIENTED_EDGE ( 'NONE', *, *, #352, .F. ) ;
#184 = ORIENTED_EDGE ( 'NONE', *, *, #348, .T. ) ;
#185 = ORIENTED_EDGE ( 'NONE', *, *, #342, .F. ) ;
#186 = ORIENTED_EDGE ( 'NONE', *, *, #343, .T. ) ;
#187 = ORIENTED_EDGE ( 'NONE', *, *, #351, .T. ) ;
#188 = ORIENTED_EDGE ( 'NONE', *, *, #341, .F. ) ;
#189 = LINE ( 'NONE', #45, #278 ) ;
#190 = ORIENTED_EDGE ( 'NONE', *, *, #351, .F. ) ;
#191 = FACE_OUTER_BOUND ( 'NONE', #259, .T. ) ;
#192 = ORIENTED_EDGE ( 'NONE', *, *, #344, .F. ) ;
#193 = ORIENTED_EDGE ( 'NONE', *, *, #347, .F. ) ;
#194 = ORIENTED_EDGE ( 'NONE', *, *, #352, .T. ) ;
#195 = ORIENTED_EDGE ( 'NONE', *, *, #345, .F. ) ;
#196 = ORIENTED_EDGE ( 'NONE', *, *, #362, .F. ) ;
#197 = ORIENTED_EDGE ( 'NONE', *, *, #355, .F. ) ;
#198 = ORIENTED_EDGE ( 'NONE', *, *, #354, .F. ) ;
#199 = ORIENTED_EDGE ( 'NONE', *, *, #338, .T. ) ;
#200 = ORIENTED_EDGE ( 'NONE', *, *, #346, .T. ) ;
#201 = ORIENTED_EDGE ( 'NONE', *, *, #353, .F. ) ;
#202 = ORIENTED_EDGE ( 'NONE', *, *, #365, .F. ) ;
#203 = ORIENTED_EDGE ( 'NONE', *, *, #363, .F. ) ;
#204 = LINE ( 'NONE', #112, #282 ) ;
#205 = ORIENTED_EDGE ( 'NONE', *, *, #361, .T. ) ;
#206 = FACE_OUTER_BOUND ( 'NONE', #248, .T. ) ;
#207 = ORIENTED_EDGE ( 'NONE', *, *, #349, .F. ) ;
#208 = ORIENTED_EDGE ( 'NONE', *, *, #357, .T. ) ;
#209 = LINE ( 'NONE', #51, #270 ) ;
#210 = ORIENTED_EDGE ( 'NONE', *, *, #359, .F. ) ;
#211 = EDGE_LOOP ( 'NONE', ( #177, #188, #208, #199 ) ) ;
#212 = ORIENTED_EDGE ( 'NONE', *, *, #361, .F. ) ;
#213 = ORIENTED_EDGE ( 'NONE', *, *, #356, .T. ) ;
#214 = ORIENTED_EDGE ( 'NONE', *, *, #357, .F. ) ;
#215 = ORIENTED_EDGE ( 'NONE', *, *, #339, .F. ) ;
#216 = ORIENTED_EDGE ( 'NONE', *, *, #339, .T. ) ;
#217 = ORIENTED_EDGE ( 'NONE', *, *, #344, .T. ) ;
#218 = ORIENTED_EDGE ( 'NONE', *, *, #343, .F. ) ;
#219 = ORIENTED_EDGE ( 'NONE', *, *, #356, .F. ) ;
#220 = ORIENTED_EDGE ( 'NONE', *, *, #360, .T. ) ;
#221 = ORIENTED_EDGE ( 'NONE', *, *, #348, .F. ) ;
#222 = ORIENTED_EDGE ( 'NONE', *, *, #358, .F. ) ;
#223 = ORIENTED_EDGE ( 'NONE', *, *, #365, .T. ) ;
#224 = ORIENTED_EDGE ( 'NONE', *, *, #350, .T. ) ;
#225 = ORIENTED_EDGE ( 'NONE', *, *, #354, .T. ) ;
#226 = ORIENTED_EDGE ( 'NONE', *, *, #362, .T. ) ;
#227 = ORIENTED_EDGE ( 'NONE', *, *, #342, .T. ) ;
#228 = ORIENTED_EDGE ( 'NONE', *, *, #340, .T. ) ;
#229 = ORIENTED_EDGE ( 'NONE', *, *, #363, .T. ) ;
#230 = ORIENTED_EDGE ( 'NONE', *, *, #347, .T. ) ;
#231 = CLOSED_SHELL ( 'NONE', ( #298, #293, #295, #296, #297, #301, #294, #300, #302, #291, #292, #299 ) ) ;
#232 = ORIENTED_EDGE ( 'NONE', *, *, #358, .T. ) ;
#233 = ORIENTED_EDGE ( 'NONE', *, *, #341, .T. ) ;
#234 = ORIENTED_EDGE ( 'NONE', *, *, #346, .F. ) ;
#235 = ORIENTED_EDGE ( 'NONE', *, *, #359, .T. ) ;
#236 = ORIENTED_EDGE ( 'NONE', *, *, #345, .T. ) ;
#237 = ORIENTED_EDGE ( 'NONE', *, *, #350, .F. ) ;
#238 = ORIENTED_EDGE ( 'NONE', *, *, #355, .T. ) ;
#239 = EDGE_LOOP ( 'NONE', ( #202, #207, #205, #238 ) ) ;
#240 = EDGE_LOOP ( 'NONE', ( #237, #178, #232, #182 ) ) ;
#241 = EDGE_LOOP ( 'NONE', ( #193, #176, #180, #236 ) ) ;
#242 = CIRCLE ( 'NONE', #311, 2.500000000000002200 ) ;
#243 = EDGE_LOOP ( 'NONE', ( #203 ) ) ;
#244 = FACE_BOUND ( 'NONE', #243, .T. ) ;
#245 = EDGE_LOOP ( 'NONE', ( #184, #183, #215, #233 ) ) ;
#246 = EDGE_LOOP ( 'NONE', ( #181 ) ) ;
#247 = EDGE_LOOP ( 'NONE', ( #213, #195, #234, #187 ) ) ;
#248 = EDGE_LOOP ( 'NONE', ( #198, #197, #235, #179 ) ) ;
#249 = VECTOR ( 'NONE', #36, 1000.000000000000000 ) ;
#250 = EDGE_LOOP ( 'NONE', ( #185 ) ) ;
#251 = EDGE_LOOP ( 'NONE', ( #229 ) ) ;
#252 = EDGE_LOOP ( 'NONE', ( #186, #190, #192, #194 ) ) ;
#253 = VECTOR ( 'NONE', #41, 1000.000000000000000 ) ;
#254 = FACE_OUTER_BOUND ( 'NONE', #255, .T. ) ;
#255 = EDGE_LOOP ( 'NONE', ( #227 ) ) ;
#256 = LINE ( 'NONE', #52, #275 ) ;
#257 = CIRCLE ( 'NONE', #313, 2.500000000000002200 ) ;
#258 = EDGE_LOOP ( 'NONE', ( #228 ) ) ;
#259 = EDGE_LOOP ( 'NONE', ( #200, #201, #210, #212, #222, #214, #216, #217 ) ) ;
#260 = EDGE_LOOP ( 'NONE', ( #196 ) ) ;
#261 = EDGE_LOOP ( 'NONE', ( #226 ) ) ;
#262 = EDGE_LOOP ( 'NONE', ( #219, #218, #221, #220, #224, #223, #225, #230 ) ) ;
#263 = FACE_OUTER_BOUND ( 'NONE', #261, .T. ) ;
#264 = FACE_OUTER_BOUND ( 'NONE', #252, .T. ) ;
#265 = CYLINDRICAL_SURFACE ( 'NONE', #316, 2.500000000000002200 ) ;
#266 = FACE_OUTER_BOUND ( 'NONE', #247, .T. ) ;
#267 = FACE_OUTER_BOUND ( 'NONE', #211, .T. ) ;
#268 = FACE_OUTER_BOUND ( 'NONE', #240, .T. ) ;
#269 = VECTOR ( 'NONE', #108, 1000.000000000000000 ) ;
#270 = VECTOR ( 'NONE', #35, 1000.000000000000000 ) ;
#271 = LINE ( 'NONE', #39, #249 ) ;
#272 = LINE ( 'NONE', #109, #269 ) ;
#273 = FACE_BOUND ( 'NONE', #246, .T. ) ;
#274 = LINE ( 'NONE', #79, #279 ) ;
#275 = VECTOR ( 'NONE', #40, 1000.000000000000000 ) ;
#276 = VECTOR ( 'NONE', #96, 1000.000000000000000 ) ;
#277 = FACE_BOUND ( 'NONE', #250, .T. ) ;
#278 = VECTOR ( 'NONE', #111, 1000.000000000000000 ) ;
#279 = VECTOR ( 'NONE', #77, 1000.000000000000000 ) ;
#280 = LINE ( 'NONE', #42, #385 ) ;
#281 = LINE ( 'NONE', #63, #276 ) ;
#282 = VECTOR ( 'NONE', #46, 1000.000000000000000 ) ;
#283 = LINE ( 'NONE', #43, #253 ) ;
#284 = VECTOR ( 'NONE', #54, 1000.000000000000000 ) ;
#285 = FACE_OUTER_BOUND ( 'NONE', #258, .T. ) ;
#286 = PERSON ( 'UNSPECIFIED', 'UNSPECIFIED', 'UNSPECIFIED', ('UNSPECIFIED'), ('UNSPECIFIED'), ('UNSPECIFIED') ) ;
#287 = PRODUCT ( 'Êðûøêà íà óãîë âåðòèêàëüíûé âíåøíèé CDV 90_38341', 'Êðûøêà íà óãîë âåðòèêàëüíûé âíåøíèé CDV 90_38341', '', ( #145 ) ) ;
#288 = UNCERTAINTY_MEASURE_WITH_UNIT (LENGTH_MEASURE( 1.000000000000000100E-005 ), #89, 'distance_accuracy_value', 'NONE');
#289 = ADVANCED_BREP_SHAPE_REPRESENTATION ( '¦¨v°úð ýð ºóþû òõ¨ªøúðû¹ývù òýõ°ýøù CDV 90_38341', ( #290, #303 ), #304 ) ;
#290 = MANIFOLD_SOLID_BREP ( 'Âûðåç-Âûòÿíóòü1', #231 ) ;
#291 = ADVANCED_FACE ( 'NONE', ( #155 ), #138, .T. ) ;
#292 = ADVANCED_FACE ( 'NONE', ( #156, #254 ), #152, .F. ) ;
#293 = ADVANCED_FACE ( 'NONE', ( #158 ), #142, .T. ) ;
#294 = ADVANCED_FACE ( 'NONE', ( #157 ), #114, .F. ) ;
#295 = ADVANCED_FACE ( 'NONE', ( #206 ), #105, .T. ) ;
#296 = ADVANCED_FACE ( 'NONE', ( #153, #244, #154 ), #100, .T. ) ;
#297 = ADVANCED_FACE ( 'NONE', ( #268 ), #92, .T. ) ;
#298 = ADVANCED_FACE ( 'NONE', ( #266 ), #122, .F. ) ;
#299 = ADVANCED_FACE ( 'NONE', ( #263, #285 ), #265, .F. ) ;
#300 = ADVANCED_FACE ( 'NONE', ( #273, #277, #264 ), #75, .F. ) ;
#301 = ADVANCED_FACE ( 'NONE', ( #267 ), #148, .T. ) ;
#302 = ADVANCED_FACE ( 'NONE', ( #191 ), #7, .F. ) ;
#303 = AXIS2_PLACEMENT_3D ( 'NONE', #95, #85, #147 ) ;
#304 =( GEOMETRIC_REPRESENTATION_CONTEXT ( 3 ) GLOBAL_UNCERTAINTY_ASSIGNED_CONTEXT ( ( #288 ) ) GLOBAL_UNIT_ASSIGNED_CONTEXT ( ( #89, #87, #86 ) ) REPRESENTATION_CONTEXT ( 'NONE', 'WORKASPACE' ) );
#305 = APPROVAL ( #6, 'UNSPECIFIED' ) ;
#306 = AXIS2_PLACEMENT_3D ( 'NONE', #30, #23, #22 ) ;
#307 = CC_DESIGN_APPROVAL ( #331, ( #337 ) ) ;
#308 = CC_DESIGN_PERSON_AND_ORGANIZATION_ASSIGNMENT ( #392, #12, ( #319 ) ) ;
#309 = PRODUCT_DEFINITION_FORMATION_WITH_SPECIFIED_SOURCE ( 'ANY', '', #287, .NOT_KNOWN. ) ;
#310 = AXIS2_PLACEMENT_3D ( 'NONE', #29, #27, #26 ) ;
#311 = AXIS2_PLACEMENT_3D ( 'NONE', #50, #49, #48 ) ;
#312 = AXIS2_PLACEMENT_3D ( 'NONE', #82, #72, #65 ) ;
#313 = AXIS2_PLACEMENT_3D ( 'NONE', #19, #56, #55 ) ;
#314 = AXIS2_PLACEMENT_3D ( 'NONE', #74, #97, #98 ) ;
#315 = AXIS2_PLACEMENT_3D ( 'NONE', #84, #88, #73 ) ;
#316 = AXIS2_PLACEMENT_3D ( 'NONE', #123, #120, #91 ) ;
#317 = AXIS2_PLACEMENT_3D ( 'NONE', #101, #119, #124 ) ;
#318 = CC_DESIGN_APPROVAL ( #366, ( #319 ) ) ;
#319 = PRODUCT_DEFINITION ( 'UNKNOWN', '', #309, #437 ) ;
#320 = CC_DESIGN_DATE_AND_TIME_ASSIGNMENT ( #388, #10, ( #319 ) ) ;
#321 = AXIS2_PLACEMENT_3D ( 'NONE', #99, #117, #116 ) ;
#322 = AXIS2_PLACEMENT_3D ( 'NONE', #102, #115, #94 ) ;
#323 = AXIS2_PLACEMENT_3D ( 'NONE', #140, #104, #103 ) ;
#324 = CC_DESIGN_PERSON_AND_ORGANIZATION_ASSIGNMENT ( #378, #18, ( #309 ) ) ;
#325 = CC_DESIGN_PERSON_AND_ORGANIZATION_ASSIGNMENT ( #400, #67, ( #287 ) ) ;
#326 = CC_DESIGN_PERSON_AND_ORGANIZATION_ASSIGNMENT ( #377, #17, ( #309 ) ) ;
#327 = AXIS2_PLACEMENT_3D ( 'NONE', #141, #107, #106 ) ;
#328 = CC_DESIGN_APPROVAL ( #305, ( #309 ) ) ;
#329 = CC_DESIGN_SECURITY_CLASSIFICATION ( #337, ( #309 ) ) ;
#330 = PRODUCT_RELATED_PRODUCT_CATEGORY ( 'detail', '', ( #287 ) ) ;
#331 = APPROVAL ( #9, 'UNSPECIFIED' ) ;
#332 = AXIS2_PLACEMENT_3D ( 'NONE', #139, #113, #59 ) ;
#333 = AXIS2_PLACEMENT_3D ( 'NONE', #5, #131, #137 ) ;
#334 = CC_DESIGN_DATE_AND_TIME_ASSIGNMENT ( #369, #13, ( #337 ) ) ;
#335 = CC_DESIGN_PERSON_AND_ORGANIZATION_ASSIGNMENT ( #374, #14, ( #337 ) ) ;
#336 = AXIS2_PLACEMENT_3D ( 'NONE', #136, #3, #4 ) ;
#337 = SECURITY_CLASSIFICATION ( '', '', #15 ) ;
#338 = EDGE_CURVE ( 'NONE', #174, #162, #272, .T. ) ;
#339 = EDGE_CURVE ( 'NONE', #169, #175, #281, .T. ) ;
#340 = EDGE_CURVE ( 'NONE', #407, #407, #257, .T. ) ;
#341 = EDGE_CURVE ( 'NONE', #169, #170, #172, .T. ) ;
#342 = EDGE_CURVE ( 'NONE', #404, #404, #242, .T. ) ;
#343 = EDGE_CURVE ( 'NONE', #165, #168, #204, .T. ) ;
#344 = EDGE_CURVE ( 'NONE', #175, #173, #189, .T. ) ;
#345 = EDGE_CURVE ( 'NONE', #160, #159, #283, .T. ) ;
#346 = EDGE_CURVE ( 'NONE', #173, #160, #256, .T. ) ;
#347 = EDGE_CURVE ( 'NONE', #171, #159, #271, .T. ) ;
#348 = EDGE_CURVE ( 'NONE', #170, #165, #209, .T. ) ;
#349 = EDGE_CURVE ( 'NONE', #164, #166, #274, .T. ) ;
#350 = EDGE_CURVE ( 'NONE', #162, #166, #280, .T. ) ;
#351 = EDGE_CURVE ( 'NONE', #173, #168, #405, .T. ) ;
#352 = EDGE_CURVE ( 'NONE', #175, #165, #432, .T. ) ;
#353 = EDGE_CURVE ( 'NONE', #167, #160, #433, .T. ) ;
#354 = EDGE_CURVE ( 'NONE', #163, #171, #430, .T. ) ;
#355 = EDGE_CURVE ( 'NONE', #161, #163, #428, .T. ) ;
#356 = EDGE_CURVE ( 'NONE', #168, #159, #435, .T. ) ;
#357 = EDGE_CURVE ( 'NONE', #169, #174, #424, .T. ) ;
#358 = EDGE_CURVE ( 'NONE', #174, #164, #422, .T. ) ;
#359 = EDGE_CURVE ( 'NONE', #161, #167, #420, .T. ) ;
#360 = EDGE_CURVE ( 'NONE', #170, #162, #426, .T. ) ;
#361 = EDGE_CURVE ( 'NONE', #164, #161, #417, .T. ) ;
#362 = EDGE_CURVE ( 'NONE', #403, #403, #415, .T. ) ;
#363 = EDGE_CURVE ( 'NONE', #402, #402, #410, .T. ) ;
#364 = EDGE_CURVE ( 'NONE', #167, #171, #412, .T. ) ;
#365 = EDGE_CURVE ( 'NONE', #166, #163, #411, .T. ) ;
#366 = APPROVAL ( #1, 'UNSPECIFIED' ) ;
#367 = APPROVAL_PERSON_ORGANIZATION ( #368, #331, #8 ) ;
#368 = PERSON_AND_ORGANIZATION ( #286, #401 ) ;
#369 = DATE_AND_TIME ( #371, #372 ) ;
#370 = LOCAL_TIME ( 12, 45, 8.000000000000000000, #376 ) ;
#371 = CALENDAR_DATE ( 2012, 9, 11 ) ;
#372 = LOCAL_TIME ( 12, 45, 8.000000000000000000, #373 ) ;
#373 = COORDINATED_UNIVERSAL_TIME_OFFSET ( 4, 0, .AHEAD. ) ;
#374 = PERSON_AND_ORGANIZATION ( #286, #401 ) ;
#375 = DATE_AND_TIME ( #414, #370 ) ;
#376 = COORDINATED_UNIVERSAL_TIME_OFFSET ( 4, 0, .AHEAD. ) ;
#377 = PERSON_AND_ORGANIZATION ( #286, #401 ) ;
#378 = PERSON_AND_ORGANIZATION ( #286, #401 ) ;
#379 = APPROVAL_DATE_TIME ( #380, #305 ) ;
#380 = DATE_AND_TIME ( #381, #383 ) ;
#381 = CALENDAR_DATE ( 2012, 9, 11 ) ;
#382 = APPROVAL_DATE_TIME ( #375, #331 ) ;
#383 = LOCAL_TIME ( 12, 45, 8.000000000000000000, #384 ) ;
#384 = COORDINATED_UNIVERSAL_TIME_OFFSET ( 4, 0, .AHEAD. ) ;
#385 = VECTOR ( 'NONE', #76, 1000.000000000000000 ) ;
#386 = APPROVAL_PERSON_ORGANIZATION ( #387, #305, #20 ) ;
#387 = PERSON_AND_ORGANIZATION ( #286, #401 ) ;
#388 = DATE_AND_TIME ( #389, #390 ) ;
#389 = CALENDAR_DATE ( 2012, 9, 11 ) ;
#390 = LOCAL_TIME ( 12, 45, 8.000000000000000000, #391 ) ;
#391 = COORDINATED_UNIVERSAL_TIME_OFFSET ( 4, 0, .AHEAD. ) ;
#392 = PERSON_AND_ORGANIZATION ( #286, #401 ) ;
#393 = APPROVAL_DATE_TIME ( #394, #366 ) ;
#394 = DATE_AND_TIME ( #395, #396 ) ;
#395 = CALENDAR_DATE ( 2012, 9, 11 ) ;
#396 = LOCAL_TIME ( 12, 45, 8.000000000000000000, #397 ) ;
#397 = COORDINATED_UNIVERSAL_TIME_OFFSET ( 4, 0, .AHEAD. ) ;
#398 = APPROVAL_PERSON_ORGANIZATION ( #399, #366, #118 ) ;
#399 = PERSON_AND_ORGANIZATION ( #286, #401 ) ;
#400 = PERSON_AND_ORGANIZATION ( #286, #401 ) ;
#401 = ORGANIZATION ( 'UNSPECIFIED', 'UNSPECIFIED', '' ) ;
#402 = VERTEX_POINT ( 'NONE', #90 ) ;
#403 = VERTEX_POINT ( 'NONE', #93 ) ;
#404 = VERTEX_POINT ( 'NONE', #83 ) ;
#405 = LINE ( 'NONE', #71, #434 ) ;
#406 = SHAPE_DEFINITION_REPRESENTATION ( #436, #289 ) ;
#407 = VERTEX_POINT ( 'NONE', #81 ) ;
#408 = VECTOR ( 'NONE', #21, 1000.000000000000000 ) ;
#409 = VECTOR ( 'NONE', #80, 1000.000000000000000 ) ;
#410 = CIRCLE ( 'NONE', #306, 2.500000000000002200 ) ;
#411 = LINE ( 'NONE', #16, #409 ) ;
#412 = LINE ( 'NONE', #32, #408 ) ;
#413 = VECTOR ( 'NONE', #24, 1000.000000000000000 ) ;
#414 = CALENDAR_DATE ( 2012, 9, 11 ) ;
#415 = CIRCLE ( 'NONE', #310, 2.500000000000002200 ) ;
#416 = VECTOR ( 'NONE', #28, 1000.000000000000000 ) ;
#417 = LINE ( 'NONE', #25, #413 ) ;
#418 = VECTOR ( 'NONE', #31, 1000.000000000000000 ) ;
#419 = VECTOR ( 'NONE', #34, 1000.000000000000000 ) ;
#420 = LINE ( 'NONE', #33, #418 ) ;
#421 = VECTOR ( 'NONE', #44, 1000.000000000000000 ) ;
#422 = LINE ( 'NONE', #37, #419 ) ;
#423 = VECTOR ( 'NONE', #53, 1000.000000000000000 ) ;
#424 = LINE ( 'NONE', #47, #421 ) ;
#425 = VECTOR ( 'NONE', #57, 1000.000000000000000 ) ;
#426 = LINE ( 'NONE', #70, #416 ) ;
#427 = VECTOR ( 'NONE', #60, 1000.000000000000000 ) ;
#428 = LINE ( 'NONE', #58, #425 ) ;
#429 = VECTOR ( 'NONE', #62, 1000.000000000000000 ) ;
#430 = LINE ( 'NONE', #61, #427 ) ;
#431 = VECTOR ( 'NONE', #68, 1000.000000000000000 ) ;
#432 = LINE ( 'NONE', #38, #431 ) ;
#433 = LINE ( 'NONE', #64, #429 ) ;
#434 = VECTOR ( 'NONE', #69, 1000.000000000000000 ) ;
#435 = LINE ( 'NONE', #78, #423 ) ;
#436 = PRODUCT_DEFINITION_SHAPE ( 'NONE', 'NONE',  #319 ) ;
#437 = DESIGN_CONTEXT ( 'detailed design', #66, 'design' ) ;
ENDSEC;
END-ISO-10303-21;
