ISO-10303-21;
HEADER;
FILE_DESCRIPTION (( 'STEP AP203' ),
    '1' );
FILE_NAME ('Êðûøêà íà îòâåòâèòåëü Ò-îáðàçíûé âåðòèêàëüíûé TDSA_38387.STEP',
    '2012-11-09T08:44:20',
    ( 'Àñååâ' ),
    ( '' ),
    'SwSTEP 2.0',
    'SolidWorks 2012',
    '' );
FILE_SCHEMA (( 'CONFIG_CONTROL_DESIGN' ));
ENDSEC;

DATA;
#1 = CARTESIAN_POINT ( 'NONE',  ( 0.0000000000000000000, 0.5999999999999999800, 542.5000000000000000 ) ) ;
#2 = CARTESIAN_POINT ( 'NONE',  ( 1.734723475976807100E-015, 0.5999999999999999800, 17.49999999999999600 ) ) ;
#3 = DIRECTION ( 'NONE',  ( -0.0000000000000000000, 0.0000000000000000000, -1.000000000000000000 ) ) ;
#4 = DIRECTION ( 'NONE',  ( 1.000000000000000000, 0.0000000000000000000, -0.0000000000000000000 ) ) ;
#5 = DIRECTION ( 'NONE',  ( 1.000000000000000000, 0.0000000000000000000, 0.0000000000000000000 ) ) ;
#6 = PLANE ( 'NONE',  #177 ) ;
#7 = DIRECTION ( 'NONE',  ( 0.0000000000000000000, -0.0000000000000000000, -1.000000000000000000 ) ) ;
#8 = DIRECTION ( 'NONE',  ( 0.0000000000000000000, -1.000000000000000000, 0.0000000000000000000 ) ) ;
#9 = DIRECTION ( 'NONE',  ( -0.0000000000000000000, -0.0000000000000000000, -1.000000000000000000 ) ) ;
#10 = CARTESIAN_POINT ( 'NONE',  ( 1.734723475976807100E-015, 0.0000000000000000000, 17.49999999999999600 ) ) ;
#11 = PLANE ( 'NONE',  #179 ) ;
#12 = DIRECTION ( 'NONE',  ( -1.000000000000000000, 0.0000000000000000000, 0.0000000000000000000 ) ) ;
#13 = CARTESIAN_POINT ( 'NONE',  ( -51.00000000000000000, -14.00000000000000000, 560.0000000000000000 ) ) ;
#14 = DIRECTION ( 'NONE',  ( -0.0000000000000000000, 0.0000000000000000000, -1.000000000000000000 ) ) ;
#15 = CARTESIAN_POINT ( 'NONE',  ( 51.00000000000000000, 0.0000000000000000000, 560.0000000000000000 ) ) ;
#16 = CARTESIAN_POINT ( 'NONE',  ( 51.60000000000000100, -14.00000000000000000, 560.0000000000000000 ) ) ;
#17 = CARTESIAN_POINT ( 'NONE',  ( -51.60000000000000100, 0.5999999999999999800, 560.0000000000000000 ) ) ;
#18 = PLANE ( 'NONE',  #180 ) ;
#19 = CARTESIAN_POINT ( 'NONE',  ( 0.0000000000000000000, 0.0000000000000000000, 0.0000000000000000000 ) ) ;
#20 = CARTESIAN_POINT ( 'NONE',  ( 1.734723475976807100E-015, -14.00099999999999900, 14.99999999999999300 ) ) ;
#21 = DIRECTION ( 'NONE',  ( 0.0000000000000000000, -0.0000000000000000000, 1.000000000000000000 ) ) ;
#22 = DIRECTION ( 'NONE',  ( 0.0000000000000000000, 0.0000000000000000000, 1.000000000000000000 ) ) ;
#23 = DIRECTION ( 'NONE',  ( -1.000000000000000000, 0.0000000000000000000, 0.0000000000000000000 ) ) ;
#24 = PLANE ( 'NONE',  #182 ) ;
#25 = DIRECTION ( 'NONE',  ( -0.0000000000000000000, 1.000000000000000000, -0.0000000000000000000 ) ) ;
#26 = DIRECTION ( 'NONE',  ( -0.0000000000000000000, -0.0000000000000000000, -1.000000000000000000 ) ) ;
#27 = CARTESIAN_POINT ( 'NONE',  ( -51.60000000000000100, 0.0000000000000000000, 560.0000000000000000 ) ) ;
#28 = CARTESIAN_POINT ( 'NONE',  ( -51.00000000000000000, 0.0000000000000000000, 560.0000000000000000 ) ) ;
#29 = DIRECTION ( 'NONE',  ( 0.0000000000000000000, -0.0000000000000000000, -1.000000000000000000 ) ) ;
#30 = DIRECTION ( 'NONE',  ( 0.0000000000000000000, -1.000000000000000000, 0.0000000000000000000 ) ) ;
#31 = DIRECTION ( 'NONE',  ( 0.0000000000000000000, 1.000000000000000000, 0.0000000000000000000 ) ) ;
#32 = CARTESIAN_POINT ( 'NONE',  ( 51.60000000000000100, -14.00000000000000000, 0.0000000000000000000 ) ) ;
#33 = PLANE ( 'NONE',  #183 ) ;
#34 = CARTESIAN_POINT ( 'NONE',  ( -51.00000000000000000, -14.00000000000000000, 560.0000000000000000 ) ) ;
#35 = CARTESIAN_POINT ( 'NONE',  ( 0.0000000000000000000, -14.00099999999999900, 545.0000000000000000 ) ) ;
#36 = DIRECTION ( 'NONE',  ( 1.000000000000000000, 0.0000000000000000000, 0.0000000000000000000 ) ) ;
#37 = DIRECTION ( 'NONE',  ( -1.000000000000000000, 0.0000000000000000000, 0.0000000000000000000 ) ) ;
#38 = DIRECTION ( 'NONE',  ( -0.0000000000000000000, 0.0000000000000000000, -1.000000000000000000 ) ) ;
#39 = DIRECTION ( 'NONE',  ( 0.0000000000000000000, 0.0000000000000000000, 1.000000000000000000 ) ) ;
#40 = DIRECTION ( 'NONE',  ( -0.0000000000000000000, 1.000000000000000000, -0.0000000000000000000 ) ) ;
#41 = PLANE ( 'NONE',  #189 ) ;
#42 = DIRECTION ( 'NONE',  ( 0.0000000000000000000, -0.0000000000000000000, 1.000000000000000000 ) ) ;
#43 = CARTESIAN_POINT ( 'NONE',  ( 0.0000000000000000000, 0.0000000000000000000, 560.0000000000000000 ) ) ;
#44 = PLANE ( 'NONE',  #126 ) ;
#45 = DIRECTION ( 'NONE',  ( 0.0000000000000000000, 0.0000000000000000000, 1.000000000000000000 ) ) ;
#46 = CARTESIAN_POINT ( 'NONE',  ( -51.00000000000000000, 0.5999999999999999800, 560.0000000000000000 ) ) ;
#47 = DIRECTION ( 'NONE',  ( 0.0000000000000000000, 1.000000000000000000, 0.0000000000000000000 ) ) ;
#48 = CARTESIAN_POINT ( 'NONE',  ( 1.734723475976807100E-015, 0.5999999999999999800, 14.99999999999999300 ) ) ;
#49 = DIRECTION ( 'NONE',  ( 0.0000000000000000000, 0.0000000000000000000, 1.000000000000000000 ) ) ;
#50 = DIRECTION ( 'NONE',  ( -1.000000000000000000, 0.0000000000000000000, 0.0000000000000000000 ) ) ;
#51 = PLANE ( 'NONE',  #127 ) ;
#52 = DIRECTION ( 'NONE',  ( -0.0000000000000000000, 0.0000000000000000000, -1.000000000000000000 ) ) ;
#53 = DIRECTION ( 'NONE',  ( 1.000000000000000000, 0.0000000000000000000, -0.0000000000000000000 ) ) ;
#54 = DIRECTION ( 'NONE',  ( 0.0000000000000000000, 1.000000000000000000, 0.0000000000000000000 ) ) ;
#55 = PLANE ( 'NONE',  #128 ) ;
#56 = DIRECTION ( 'NONE',  ( 0.0000000000000000000, 0.0000000000000000000, -1.000000000000000000 ) ) ;
#57 = DIRECTION ( 'NONE',  ( -0.0000000000000000000, 1.000000000000000000, -0.0000000000000000000 ) ) ;
#58 = DIRECTION ( 'NONE',  ( 0.0000000000000000000, 0.0000000000000000000, 1.000000000000000000 ) ) ;
#59 = DIRECTION ( 'NONE',  ( -1.000000000000000000, 0.0000000000000000000, 0.0000000000000000000 ) ) ;
#60 = CARTESIAN_POINT ( 'NONE',  ( -51.00000000000000000, 0.0000000000000000000, 560.0000000000000000 ) ) ;
#61 = CARTESIAN_POINT ( 'NONE',  ( -51.60000000000000100, 0.0000000000000000000, 560.0000000000000000 ) ) ;
#62 = CARTESIAN_POINT ( 'NONE',  ( 51.60000000000000100, 0.0000000000000000000, 560.0000000000000000 ) ) ;
#63 = CARTESIAN_POINT ( 'NONE',  ( 0.0000000000000000000, 0.5999999999999999800, 545.0000000000000000 ) ) ;
#64 = PLANE ( 'NONE',  #129 ) ;
#65 = CARTESIAN_POINT ( 'NONE',  ( -51.60000000000000100, 0.5999999999999999800, 560.0000000000000000 ) ) ;
#66 = CARTESIAN_POINT ( 'NONE',  ( -51.00000000000000000, -14.00000000000000000, 0.0000000000000000000 ) ) ;
#67 = CARTESIAN_POINT ( 'NONE',  ( 51.60000000000000100, -14.00000000000000000, 0.0000000000000000000 ) ) ;
#68 = CARTESIAN_POINT ( 'NONE',  ( 51.60000000000000100, 0.5999999999999999800, 0.0000000000000000000 ) ) ;
#69 = CARTESIAN_POINT ( 'NONE',  ( -51.00000000000000000, 0.0000000000000000000, 0.0000000000000000000 ) ) ;
#70 = CARTESIAN_POINT ( 'NONE',  ( 51.00000000000000000, -14.00000000000000000, 0.0000000000000000000 ) ) ;
#71 = CARTESIAN_POINT ( 'NONE',  ( 51.00000000000000000, 0.0000000000000000000, 0.0000000000000000000 ) ) ;
#72 = CARTESIAN_POINT ( 'NONE',  ( -51.00000000000000000, -14.00000000000000000, 560.0000000000000000 ) ) ;
#73 = CARTESIAN_POINT ( 'NONE',  ( 51.00000000000000000, -14.00000000000000000, 560.0000000000000000 ) ) ;
#74 = CARTESIAN_POINT ( 'NONE',  ( -51.60000000000000100, -14.00000000000000000, 0.0000000000000000000 ) ) ;
#75 = CARTESIAN_POINT ( 'NONE',  ( 51.60000000000000100, -14.00000000000000000, 560.0000000000000000 ) ) ;
#76 = CARTESIAN_POINT ( 'NONE',  ( -51.60000000000000100, -14.00000000000000000, 560.0000000000000000 ) ) ;
#77 = CARTESIAN_POINT ( 'NONE',  ( -51.60000000000000100, 0.5999999999999999800, 0.0000000000000000000 ) ) ;
#78 = DIRECTION ( 'NONE',  ( 0.0000000000000000000, -1.000000000000000000, 0.0000000000000000000 ) ) ;
#79 = CARTESIAN_POINT ( 'NONE',  ( 51.60000000000000100, 0.5999999999999999800, 560.0000000000000000 ) ) ;
#80 = CARTESIAN_POINT ( 'NONE',  ( 51.00000000000000000, 0.0000000000000000000, 0.0000000000000000000 ) ) ;
#81 = DIRECTION ( 'NONE',  ( -0.0000000000000000000, -0.0000000000000000000, -1.000000000000000000 ) ) ;
#82 = CARTESIAN_POINT ( 'NONE',  ( 51.00000000000000000, -14.00000000000000000, 560.0000000000000000 ) ) ;
#83 = DIRECTION ( 'NONE',  ( 1.000000000000000000, 0.0000000000000000000, 0.0000000000000000000 ) ) ;
#84 = CARTESIAN_POINT ( 'NONE',  ( -51.00000000000000000, 0.5999999999999999800, 560.0000000000000000 ) ) ;
#85 = CARTESIAN_POINT ( 'NONE',  ( 51.00000000000000000, 0.0000000000000000000, 560.0000000000000000 ) ) ;
#86 = DIRECTION ( 'NONE',  ( 1.000000000000000000, 0.0000000000000000000, 0.0000000000000000000 ) ) ;
#87 = DIRECTION ( 'NONE',  ( 0.0000000000000000000, 0.0000000000000000000, 1.000000000000000000 ) ) ;
#88 = DIRECTION ( 'NONE',  ( -0.0000000000000000000, -1.000000000000000000, -0.0000000000000000000 ) ) ;
#89 = CARTESIAN_POINT ( 'NONE',  ( 1.734723475976807100E-015, 0.0000000000000000000, 14.99999999999999300 ) ) ;
#90 = CARTESIAN_POINT ( 'NONE',  ( 51.00000000000000000, 0.0000000000000000000, 560.0000000000000000 ) ) ;
#91 = DIRECTION ( 'NONE',  ( 0.0000000000000000000, 0.0000000000000000000, 1.000000000000000000 ) ) ;
#92 = DIRECTION ( 'NONE',  ( -0.0000000000000000000, -1.000000000000000000, -0.0000000000000000000 ) ) ;
#93 = CARTESIAN_POINT ( 'NONE',  ( 0.0000000000000000000, 0.0000000000000000000, 545.0000000000000000 ) ) ;
#94 = CARTESIAN_POINT ( 'NONE',  ( -51.00000000000000000, 0.0000000000000000000, 560.0000000000000000 ) ) ;
#95 = DIRECTION ( 'NONE',  ( -0.0000000000000000000, -0.0000000000000000000, -1.000000000000000000 ) ) ;
#96 = CARTESIAN_POINT ( 'NONE',  ( -51.00000000000000000, 0.5999999999999999800, 0.0000000000000000000 ) ) ;
#97 = DIRECTION ( 'NONE',  ( -0.0000000000000000000, -1.000000000000000000, 0.0000000000000000000 ) ) ;
#98 = CARTESIAN_POINT ( 'NONE',  ( -51.00000000000000000, 0.0000000000000000000, 560.0000000000000000 ) ) ;
#99 = DIRECTION ( 'NONE',  ( -0.0000000000000000000, 1.000000000000000000, -0.0000000000000000000 ) ) ;
#100 = DIRECTION ( 'NONE',  ( -0.0000000000000000000, -0.0000000000000000000, -1.000000000000000000 ) ) ;
#101 = DIRECTION ( 'NONE',  ( -0.0000000000000000000, -0.0000000000000000000, -1.000000000000000000 ) ) ;
#102 = CARTESIAN_POINT ( 'NONE',  ( -51.00000000000000000, 0.0000000000000000000, 0.0000000000000000000 ) ) ;
#103 = CARTESIAN_POINT ( 'NONE',  ( 51.60000000000000100, -14.00000000000000000, 560.0000000000000000 ) ) ;
#104 = CARTESIAN_POINT ( 'NONE',  ( -51.00000000000000000, 0.0000000000000000000, 560.0000000000000000 ) ) ;
#105 = DIRECTION ( 'NONE',  ( -0.0000000000000000000, 1.000000000000000000, -0.0000000000000000000 ) ) ;
#106 = CARTESIAN_POINT ( 'NONE',  ( -51.00000000000000000, 0.0000000000000000000, 0.0000000000000000000 ) ) ;
#107 = DIRECTION ( 'NONE',  ( -1.000000000000000000, 0.0000000000000000000, 0.0000000000000000000 ) ) ;
#108 = DIRECTION ( 'NONE',  ( -0.0000000000000000000, -1.000000000000000000, 0.0000000000000000000 ) ) ;
#109 = DIRECTION ( 'NONE',  ( -0.0000000000000000000, -0.0000000000000000000, -1.000000000000000000 ) ) ;
#110 = CARTESIAN_POINT ( 'NONE',  ( 51.60000000000000100, 0.5999999999999999800, 560.0000000000000000 ) ) ;
#111 = CARTESIAN_POINT ( 'NONE',  ( 51.60000000000000100, 0.0000000000000000000, 0.0000000000000000000 ) ) ;
#112 = CARTESIAN_POINT ( 'NONE',  ( 51.00000000000000000, 0.0000000000000000000, 560.0000000000000000 ) ) ;
#113 = CARTESIAN_POINT ( 'NONE',  ( -51.00000000000000000, -14.00000000000000000, 560.0000000000000000 ) ) ;
#114 = DIRECTION ( 'NONE',  ( -1.000000000000000000, 0.0000000000000000000, 0.0000000000000000000 ) ) ;
#115 = CARTESIAN_POINT ( 'NONE',  ( -51.00000000000000000, -14.00000000000000000, 0.0000000000000000000 ) ) ;
#116 = DIRECTION ( 'NONE',  ( 0.0000000000000000000, 1.000000000000000000, 0.0000000000000000000 ) ) ;
#117 = DIRECTION ( 'NONE',  ( 0.0000000000000000000, -1.000000000000000000, 0.0000000000000000000 ) ) ;
#118 = DIRECTION ( 'NONE',  ( -0.0000000000000000000, -0.0000000000000000000, -1.000000000000000000 ) ) ;
#119 = CARTESIAN_POINT ( 'NONE',  ( 51.60000000000000100, 0.0000000000000000000, 560.0000000000000000 ) ) ;
#120 = CARTESIAN_POINT ( 'NONE',  ( -51.00000000000000000, 0.0000000000000000000, 560.0000000000000000 ) ) ;
#121 = CARTESIAN_POINT ( 'NONE',  ( -51.60000000000000100, -14.00000000000000000, 560.0000000000000000 ) ) ;
#122 = DIRECTION ( 'NONE',  ( 0.0000000000000000000, 1.000000000000000000, 0.0000000000000000000 ) ) ;
#123 = CARTESIAN_POINT ( 'NONE',  ( 51.60000000000000100, -14.00000000000000000, 560.0000000000000000 ) ) ;
#124 = DIRECTION ( 'NONE',  ( -1.000000000000000000, 0.0000000000000000000, 0.0000000000000000000 ) ) ;
#125 = CARTESIAN_POINT ( 'NONE',  ( -51.60000000000000100, 0.0000000000000000000, 0.0000000000000000000 ) ) ;
#126 = AXIS2_PLACEMENT_3D ( 'NONE', #46, #54, #42 ) ;
#127 = AXIS2_PLACEMENT_3D ( 'NONE', #61, #50, #49 ) ;
#128 = AXIS2_PLACEMENT_3D ( 'NONE', #62, #53, #52 ) ;
#129 = AXIS2_PLACEMENT_3D ( 'NONE', #60, #59, #58 ) ;
#130 = AXIS2_PLACEMENT_3D ( 'NONE', #89, #88, #87 ) ;
#131 = AXIS2_PLACEMENT_3D ( 'NONE', #93, #92, #91 ) ;
#132 = AXIS2_PLACEMENT_3D ( 'NONE', #48, #47, #39 ) ;
#133 = AXIS2_PLACEMENT_3D ( 'NONE', #63, #57, #56 ) ;
#134 = EDGE_CURVE ( 'NONE', #265, #292, #364, .T. ) ;
#135 = EDGE_CURVE ( 'NONE', #289, #292, #384, .T. ) ;
#136 = EDGE_CURVE ( 'NONE', #332, #333, #361, .T. ) ;
#137 = EDGE_CURVE ( 'NONE', #263, #332, #222, .T. ) ;
#138 = EDGE_CURVE ( 'NONE', #263, #265, #322, .T. ) ;
#139 = EDGE_CURVE ( 'NONE', #265, #333, #320, .T. ) ;
#140 = EDGE_CURVE ( 'NONE', #266, #266, #314, .T. ) ;
#141 = EDGE_CURVE ( 'NONE', #383, #383, #308, .T. ) ;
#142 = EDGE_CURVE ( 'NONE', #283, #332, #316, .T. ) ;
#143 = EDGE_CURVE ( 'NONE', #289, #327, #317, .T. ) ;
#144 = EDGE_CURVE ( 'NONE', #333, #330, #318, .T. ) ;
#145 = EDGE_CURVE ( 'NONE', #335, #283, #312, .T. ) ;
#146 = EDGE_CURVE ( 'NONE', #335, #263, #311, .T. ) ;
#147 = EDGE_CURVE ( 'NONE', #288, #283, #305, .T. ) ;
#148 = EDGE_CURVE ( 'NONE', #264, #288, #297, .T. ) ;
#149 = EDGE_CURVE ( 'NONE', #264, #335, #303, .T. ) ;
#150 = EDGE_CURVE ( 'NONE', #334, #288, #301, .T. ) ;
#151 = EDGE_CURVE ( 'NONE', #326, #334, #295, .T. ) ;
#152 = EDGE_CURVE ( 'NONE', #326, #264, #299, .T. ) ;
#153 = EDGE_CURVE ( 'NONE', #334, #331, #270, .T. ) ;
#154 = EDGE_CURVE ( 'NONE', #324, #331, #268, .T. ) ;
#155 = EDGE_CURVE ( 'NONE', #326, #324, #277, .T. ) ;
#156 = EDGE_CURVE ( 'NONE', #260, #260, #279, .T. ) ;
#157 = EDGE_CURVE ( 'NONE', #261, #261, #290, .T. ) ;
#158 = PRODUCT_RELATED_PRODUCT_CATEGORY ( 'detail', '', ( #191 ) ) ;
#159 = CC_DESIGN_SECURITY_CLASSIFICATION ( #164, ( #169 ) ) ;
#160 = CC_DESIGN_APPROVAL ( #161, ( #164 ) ) ;
#161 = APPROVAL ( #399, 'UNSPECIFIED' ) ;
#162 = CC_DESIGN_DATE_AND_TIME_ASSIGNMENT ( #242, #401, ( #164 ) ) ;
#163 = CC_DESIGN_PERSON_AND_ORGANIZATION_ASSIGNMENT ( #239, #402, ( #164 ) ) ;
#164 = SECURITY_CLASSIFICATION ( '', '', #403 ) ;
#165 = CC_DESIGN_PERSON_AND_ORGANIZATION_ASSIGNMENT ( #389, #404, ( #169 ) ) ;
#166 = CC_DESIGN_PERSON_AND_ORGANIZATION_ASSIGNMENT ( #388, #405, ( #169 ) ) ;
#167 = CC_DESIGN_APPROVAL ( #168, ( #169 ) ) ;
#168 = APPROVAL ( #407, 'UNSPECIFIED' ) ;
#169 = PRODUCT_DEFINITION_FORMATION_WITH_SPECIFIED_SOURCE ( 'ANY', '', #191, .NOT_KNOWN. ) ;
#170 = CC_DESIGN_DATE_AND_TIME_ASSIGNMENT ( #387, #408, ( #174 ) ) ;
#171 = CC_DESIGN_PERSON_AND_ORGANIZATION_ASSIGNMENT ( #205, #409, ( #174 ) ) ;
#172 = CC_DESIGN_APPROVAL ( #173, ( #174 ) ) ;
#173 = APPROVAL ( #410, 'UNSPECIFIED' ) ;
#174 = PRODUCT_DEFINITION ( 'UNKNOWN', '', #169, #437 ) ;
#175 = CC_DESIGN_PERSON_AND_ORGANIZATION_ASSIGNMENT ( #345, #412, ( #191 ) ) ;
#176 = AXIS2_PLACEMENT_3D ( 'NONE', #421, #398, #411 ) ;
#177 = AXIS2_PLACEMENT_3D ( 'NONE', #15, #4, #3 ) ;
#178 =( GEOMETRIC_REPRESENTATION_CONTEXT ( 3 ) GLOBAL_UNCERTAINTY_ASSIGNED_CONTEXT ( ( #397 ) ) GLOBAL_UNIT_ASSIGNED_CONTEXT ( ( #420, #419, #418 ) ) REPRESENTATION_CONTEXT ( 'NONE', 'WORKASPACE' ) );
#179 = AXIS2_PLACEMENT_3D ( 'NONE', #16, #8, #7 ) ;
#180 = AXIS2_PLACEMENT_3D ( 'NONE', #19, #14, #12 ) ;
#181 = AXIS2_PLACEMENT_3D ( 'NONE', #20, #25, #22 ) ;
#182 = AXIS2_PLACEMENT_3D ( 'NONE', #28, #31, #21 ) ;
#183 = AXIS2_PLACEMENT_3D ( 'NONE', #34, #30, #29 ) ;
#184 = AXIS2_PLACEMENT_3D ( 'NONE', #35, #40, #45 ) ;
#185 = EDGE_CURVE ( 'NONE', #331, #327, #294, .T. ) ;
#186 = EDGE_CURVE ( 'NONE', #324, #289, #293, .T. ) ;
#187 = EDGE_CURVE ( 'NONE', #292, #330, #351, .T. ) ;
#188 = EDGE_CURVE ( 'NONE', #327, #330, #206, .T. ) ;
#189 = AXIS2_PLACEMENT_3D ( 'NONE', #43, #38, #37 ) ;
#190 = PERSON ( 'UNSPECIFIED', 'UNSPECIFIED', 'UNSPECIFIED', ('UNSPECIFIED'), ('UNSPECIFIED'), ('UNSPECIFIED') ) ;
#191 = PRODUCT ( 'Êðûøêà íà îòâåòâèòåëü Ò-îáðàçíûé âåðòèêàëüíûé TDSA_38387', 'Êðûøêà íà îòâåòâèòåëü Ò-îáðàçíûé âåðòèêàëüíûé TDSA_38387', '', ( #415 ) ) ;
#192 = EDGE_LOOP ( 'NONE', ( #238 ) ) ;
#193 = ORIENTED_EDGE ( 'NONE', *, *, #186, .F. ) ;
#194 = ORIENTED_EDGE ( 'NONE', *, *, #153, .F. ) ;
#195 = ORIENTED_EDGE ( 'NONE', *, *, #143, .F. ) ;
#196 = ORIENTED_EDGE ( 'NONE', *, *, #141, .T. ) ;
#197 = ORIENTED_EDGE ( 'NONE', *, *, #142, .T. ) ;
#198 = ORIENTED_EDGE ( 'NONE', *, *, #187, .F. ) ;
#199 = ORIENTED_EDGE ( 'NONE', *, *, #153, .T. ) ;
#200 = FACE_OUTER_BOUND ( 'NONE', #363, .T. ) ;
#201 = ORIENTED_EDGE ( 'NONE', *, *, #135, .T. ) ;
#202 = LOCAL_TIME ( 12, 44, 20.00000000000000000, #368 ) ;
#203 = ORIENTED_EDGE ( 'NONE', *, *, #185, .T. ) ;
#204 = ORIENTED_EDGE ( 'NONE', *, *, #137, .T. ) ;
#205 = PERSON_AND_ORGANIZATION ( #190, #344 ) ;
#206 = LINE ( 'NONE', #80, #346 ) ;
#207 = VECTOR ( 'NONE', #124, 1000.000000000000000 ) ;
#208 = ORIENTED_EDGE ( 'NONE', *, *, #146, .T. ) ;
#209 = ORIENTED_EDGE ( 'NONE', *, *, #147, .F. ) ;
#210 = APPROVAL_DATE_TIME ( #381, #173 ) ;
#211 = APPROVAL_PERSON_ORGANIZATION ( #377, #168, #406 ) ;
#212 = ORIENTED_EDGE ( 'NONE', *, *, #149, .T. ) ;
#213 = ORIENTED_EDGE ( 'NONE', *, *, #148, .T. ) ;
#214 = ORIENTED_EDGE ( 'NONE', *, *, #155, .F. ) ;
#215 = ORIENTED_EDGE ( 'NONE', *, *, #154, .T. ) ;
#216 = DATE_AND_TIME ( #386, #374 ) ;
#217 = ORIENTED_EDGE ( 'NONE', *, *, #156, .F. ) ;
#218 = ORIENTED_EDGE ( 'NONE', *, *, #151, .T. ) ;
#219 = ORIENTED_EDGE ( 'NONE', *, *, #136, .T. ) ;
#220 = ORIENTED_EDGE ( 'NONE', *, *, #138, .T. ) ;
#221 = ORIENTED_EDGE ( 'NONE', *, *, #156, .T. ) ;
#222 = LINE ( 'NONE', #110, #319 ) ;
#223 = CLOSED_SHELL ( 'NONE', ( #435, #434, #425, #427, #426, #430, #424, #431, #428, #433, #432, #429 ) ) ;
#224 = ORIENTED_EDGE ( 'NONE', *, *, #144, .T. ) ;
#225 = ORIENTED_EDGE ( 'NONE', *, *, #141, .F. ) ;
#226 = ORIENTED_EDGE ( 'NONE', *, *, #142, .F. ) ;
#227 = ORIENTED_EDGE ( 'NONE', *, *, #140, .F. ) ;
#228 = ORIENTED_EDGE ( 'NONE', *, *, #148, .F. ) ;
#229 = ORIENTED_EDGE ( 'NONE', *, *, #150, .F. ) ;
#230 = ORIENTED_EDGE ( 'NONE', *, *, #150, .T. ) ;
#231 = ORIENTED_EDGE ( 'NONE', *, *, #157, .T. ) ;
#232 = ORIENTED_EDGE ( 'NONE', *, *, #185, .F. ) ;
#233 = ORIENTED_EDGE ( 'NONE', *, *, #145, .T. ) ;
#234 = ORIENTED_EDGE ( 'NONE', *, *, #147, .T. ) ;
#235 = ORIENTED_EDGE ( 'NONE', *, *, #136, .F. ) ;
#236 = ORIENTED_EDGE ( 'NONE', *, *, #187, .T. ) ;
#237 = ORIENTED_EDGE ( 'NONE', *, *, #144, .F. ) ;
#238 = ORIENTED_EDGE ( 'NONE', *, *, #157, .F. ) ;
#239 = PERSON_AND_ORGANIZATION ( #190, #344 ) ;
#240 = ORIENTED_EDGE ( 'NONE', *, *, #139, .F. ) ;
#241 = ORIENTED_EDGE ( 'NONE', *, *, #135, .F. ) ;
#242 = DATE_AND_TIME ( #378, #392 ) ;
#243 = ORIENTED_EDGE ( 'NONE', *, *, #134, .T. ) ;
#244 = ORIENTED_EDGE ( 'NONE', *, *, #188, .T. ) ;
#245 = ORIENTED_EDGE ( 'NONE', *, *, #143, .T. ) ;
#246 = ORIENTED_EDGE ( 'NONE', *, *, #138, .F. ) ;
#247 = ORIENTED_EDGE ( 'NONE', *, *, #134, .F. ) ;
#248 = ORIENTED_EDGE ( 'NONE', *, *, #149, .F. ) ;
#249 = ORIENTED_EDGE ( 'NONE', *, *, #188, .F. ) ;
#250 = ORIENTED_EDGE ( 'NONE', *, *, #152, .F. ) ;
#251 = ORIENTED_EDGE ( 'NONE', *, *, #155, .T. ) ;
#252 = ORIENTED_EDGE ( 'NONE', *, *, #146, .F. ) ;
#253 = ORIENTED_EDGE ( 'NONE', *, *, #186, .T. ) ;
#254 = ORIENTED_EDGE ( 'NONE', *, *, #145, .F. ) ;
#255 = ORIENTED_EDGE ( 'NONE', *, *, #154, .F. ) ;
#256 = ORIENTED_EDGE ( 'NONE', *, *, #152, .T. ) ;
#257 = ORIENTED_EDGE ( 'NONE', *, *, #151, .F. ) ;
#258 = ORIENTED_EDGE ( 'NONE', *, *, #140, .T. ) ;
#259 = ORIENTED_EDGE ( 'NONE', *, *, #137, .F. ) ;
#260 = VERTEX_POINT ( 'NONE', #423 ) ;
#261 = VERTEX_POINT ( 'NONE', #10 ) ;
#262 = ORIENTED_EDGE ( 'NONE', *, *, #139, .T. ) ;
#263 = VERTEX_POINT ( 'NONE', #79 ) ;
#264 = VERTEX_POINT ( 'NONE', #76 ) ;
#265 = VERTEX_POINT ( 'NONE', #75 ) ;
#266 = VERTEX_POINT ( 'NONE', #1 ) ;
#267 = VECTOR ( 'NONE', #114, 1000.000000000000000 ) ;
#268 = LINE ( 'NONE', #104, #282 ) ;
#269 = VECTOR ( 'NONE', #107, 1000.000000000000000 ) ;
#270 = LINE ( 'NONE', #106, #285 ) ;
#271 = FACE_OUTER_BOUND ( 'NONE', #343, .T. ) ;
#272 = FACE_OUTER_BOUND ( 'NONE', #379, .T. ) ;
#273 = VECTOR ( 'NONE', #109, 1000.000000000000000 ) ;
#274 = SHAPE_DEFINITION_REPRESENTATION ( #436, #395 ) ;
#275 = CALENDAR_DATE ( 2012, 9, 11 ) ;
#276 = CYLINDRICAL_SURFACE ( 'NONE', #181, 2.500000000000002200 ) ;
#277 = LINE ( 'NONE', #120, #278 ) ;
#278 = VECTOR ( 'NONE', #99, 1000.000000000000000 ) ;
#279 = CIRCLE ( 'NONE', #131, 2.500000000000057700 ) ;
#280 = FACE_OUTER_BOUND ( 'NONE', #366, .T. ) ;
#281 = FACE_OUTER_BOUND ( 'NONE', #362, .T. ) ;
#282 = VECTOR ( 'NONE', #100, 1000.000000000000000 ) ;
#283 = VERTEX_POINT ( 'NONE', #77 ) ;
#284 = FACE_OUTER_BOUND ( 'NONE', #365, .T. ) ;
#285 = VECTOR ( 'NONE', #105, 1000.000000000000000 ) ;
#286 = FACE_BOUND ( 'NONE', #192, .T. ) ;
#287 = FACE_OUTER_BOUND ( 'NONE', #382, .T. ) ;
#288 = VERTEX_POINT ( 'NONE', #74 ) ;
#289 = VERTEX_POINT ( 'NONE', #85 ) ;
#290 = CIRCLE ( 'NONE', #130, 2.500000000000002200 ) ;
#291 = VECTOR ( 'NONE', #83, 1000.000000000000000 ) ;
#292 = VERTEX_POINT ( 'NONE', #73 ) ;
#293 = LINE ( 'NONE', #98, #291 ) ;
#294 = LINE ( 'NONE', #102, #359 ) ;
#295 = LINE ( 'NONE', #113, #273 ) ;
#296 = VECTOR ( 'NONE', #116, 1000.000000000000000 ) ;
#297 = LINE ( 'NONE', #121, #300 ) ;
#298 = VECTOR ( 'NONE', #122, 1000.000000000000000 ) ;
#299 = LINE ( 'NONE', #13, #269 ) ;
#300 = VECTOR ( 'NONE', #118, 1000.000000000000000 ) ;
#301 = LINE ( 'NONE', #115, #267 ) ;
#302 = VECTOR ( 'NONE', #23, 1000.000000000000000 ) ;
#303 = LINE ( 'NONE', #27, #296 ) ;
#304 = VECTOR ( 'NONE', #9, 1000.000000000000000 ) ;
#305 = LINE ( 'NONE', #125, #298 ) ;
#306 = VECTOR ( 'NONE', #5, 1000.000000000000000 ) ;
#307 = FACE_OUTER_BOUND ( 'NONE', #367, .T. ) ;
#308 = CIRCLE ( 'NONE', #132, 2.500000000000002200 ) ;
#309 = VECTOR ( 'NONE', #26, 1000.000000000000000 ) ;
#310 = VECTOR ( 'NONE', #36, 1000.000000000000000 ) ;
#311 = LINE ( 'NONE', #84, #306 ) ;
#312 = LINE ( 'NONE', #17, #304 ) ;
#313 = VECTOR ( 'NONE', #97, 1000.000000000000000 ) ;
#314 = CIRCLE ( 'NONE', #133, 2.500000000000057700 ) ;
#315 = VECTOR ( 'NONE', #95, 1000.000000000000000 ) ;
#316 = LINE ( 'NONE', #96, #310 ) ;
#317 = LINE ( 'NONE', #90, #309 ) ;
#318 = LINE ( 'NONE', #32, #302 ) ;
#319 = VECTOR ( 'NONE', #101, 1000.000000000000000 ) ;
#320 = LINE ( 'NONE', #103, #315 ) ;
#321 = VECTOR ( 'NONE', #108, 1000.000000000000000 ) ;
#322 = LINE ( 'NONE', #119, #313 ) ;
#323 = VECTOR ( 'NONE', #117, 1000.000000000000000 ) ;
#324 = VERTEX_POINT ( 'NONE', #94 ) ;
#325 = FACE_OUTER_BOUND ( 'NONE', #354, .T. ) ;
#326 = VERTEX_POINT ( 'NONE', #72 ) ;
#327 = VERTEX_POINT ( 'NONE', #71 ) ;
#328 = CYLINDRICAL_SURFACE ( 'NONE', #184, 2.500000000000057700 ) ;
#329 = FACE_OUTER_BOUND ( 'NONE', #357, .T. ) ;
#330 = VERTEX_POINT ( 'NONE', #70 ) ;
#331 = VERTEX_POINT ( 'NONE', #69 ) ;
#332 = VERTEX_POINT ( 'NONE', #68 ) ;
#333 = VERTEX_POINT ( 'NONE', #67 ) ;
#334 = VERTEX_POINT ( 'NONE', #66 ) ;
#335 = VERTEX_POINT ( 'NONE', #65 ) ;
#336 = FACE_BOUND ( 'NONE', #356, .T. ) ;
#337 = EDGE_LOOP ( 'NONE', ( #209, #228, #212, #233 ) ) ;
#338 = FACE_OUTER_BOUND ( 'NONE', #337, .T. ) ;
#339 = EDGE_LOOP ( 'NONE', ( #201, #247, #246, #252, #248, #250, #251, #253 ) ) ;
#340 = FACE_BOUND ( 'NONE', #358, .T. ) ;
#341 = FACE_OUTER_BOUND ( 'NONE', #393, .T. ) ;
#342 = FACE_OUTER_BOUND ( 'NONE', #360, .T. ) ;
#343 = EDGE_LOOP ( 'NONE', ( #244, #198, #241, #245 ) ) ;
#344 = ORGANIZATION ( 'UNSPECIFIED', 'UNSPECIFIED', '' ) ;
#345 = PERSON_AND_ORGANIZATION ( #190, #344 ) ;
#346 = VECTOR ( 'NONE', #78, 1000.000000000000000 ) ;
#347 = FACE_OUTER_BOUND ( 'NONE', #339, .T. ) ;
#348 = EDGE_LOOP ( 'NONE', ( #227 ) ) ;
#349 = PERSON_AND_ORGANIZATION ( #190, #344 ) ;
#350 = FACE_BOUND ( 'NONE', #348, .T. ) ;
#351 = LINE ( 'NONE', #82, #376 ) ;
#352 = APPROVAL_PERSON_ORGANIZATION ( #349, #173, #422 ) ;
#353 = COORDINATED_UNIVERSAL_TIME_OFFSET ( 4, 0, .AHEAD. ) ;
#354 = EDGE_LOOP ( 'NONE', ( #237, #240, #243, #236 ) ) ;
#355 = LOCAL_TIME ( 12, 44, 20.00000000000000000, #353 ) ;
#356 = EDGE_LOOP ( 'NONE', ( #225 ) ) ;
#357 = EDGE_LOOP ( 'NONE', ( #199, #255, #214, #218 ) ) ;
#358 = EDGE_LOOP ( 'NONE', ( #217 ) ) ;
#359 = VECTOR ( 'NONE', #86, 1000.000000000000000 ) ;
#360 = EDGE_LOOP ( 'NONE', ( #226, #254, #208, #204 ) ) ;
#361 = LINE ( 'NONE', #111, #321 ) ;
#362 = EDGE_LOOP ( 'NONE', ( #249, #232, #194, #230, #234, #197, #219, #224 ) ) ;
#363 = EDGE_LOOP ( 'NONE', ( #203, #195, #193, #215 ) ) ;
#364 = LINE ( 'NONE', #123, #207 ) ;
#365 = EDGE_LOOP ( 'NONE', ( #235, #259, #220, #262 ) ) ;
#366 = EDGE_LOOP ( 'NONE', ( #258 ) ) ;
#367 = EDGE_LOOP ( 'NONE', ( #221 ) ) ;
#368 = COORDINATED_UNIVERSAL_TIME_OFFSET ( 4, 0, .AHEAD. ) ;
#369 = APPROVAL_DATE_TIME ( #371, #161 ) ;
#370 = CALENDAR_DATE ( 2012, 9, 11 ) ;
#371 = DATE_AND_TIME ( #370, #202 ) ;
#372 = APPROVAL_PERSON_ORGANIZATION ( #373, #161, #400 ) ;
#373 = PERSON_AND_ORGANIZATION ( #190, #344 ) ;
#374 = LOCAL_TIME ( 12, 44, 20.00000000000000000, #375 ) ;
#375 = COORDINATED_UNIVERSAL_TIME_OFFSET ( 4, 0, .AHEAD. ) ;
#376 = VECTOR ( 'NONE', #81, 1000.000000000000000 ) ;
#377 = PERSON_AND_ORGANIZATION ( #190, #344 ) ;
#378 = CALENDAR_DATE ( 2012, 9, 11 ) ;
#379 = EDGE_LOOP ( 'NONE', ( #231 ) ) ;
#380 = COORDINATED_UNIVERSAL_TIME_OFFSET ( 4, 0, .AHEAD. ) ;
#381 = DATE_AND_TIME ( #275, #355 ) ;
#382 = EDGE_LOOP ( 'NONE', ( #196 ) ) ;
#383 = VERTEX_POINT ( 'NONE', #2 ) ;
#384 = LINE ( 'NONE', #112, #323 ) ;
#385 = CALENDAR_DATE ( 2012, 9, 11 ) ;
#386 = CALENDAR_DATE ( 2012, 9, 11 ) ;
#387 = DATE_AND_TIME ( #385, #394 ) ;
#388 = PERSON_AND_ORGANIZATION ( #190, #344 ) ;
#389 = PERSON_AND_ORGANIZATION ( #190, #344 ) ;
#390 = APPROVAL_DATE_TIME ( #216, #168 ) ;
#391 = COORDINATED_UNIVERSAL_TIME_OFFSET ( 4, 0, .AHEAD. ) ;
#392 = LOCAL_TIME ( 12, 44, 20.00000000000000000, #380 ) ;
#393 = EDGE_LOOP ( 'NONE', ( #229, #257, #256, #213 ) ) ;
#394 = LOCAL_TIME ( 12, 44, 20.00000000000000000, #391 ) ;
#395 = ADVANCED_BREP_SHAPE_REPRESENTATION ( '¦¨v°úð ýð þªòõªòøªõû¹ T-þñ¨ð÷ývù òõ¨ªøúðû¹ývù TDSA_38387', ( #396, #176 ), #178 ) ;
#396 = MANIFOLD_SOLID_BREP ( 'Âûðåç-Âûòÿíóòü1', #223 ) ;
#397 = UNCERTAINTY_MEASURE_WITH_UNIT (LENGTH_MEASURE( 1.000000000000000100E-005 ), #420, 'distance_accuracy_value', 'NONE');
#398 = DIRECTION ( 'NONE',  ( 0.0000000000000000000, 0.0000000000000000000, 1.000000000000000000 ) ) ;
#399 = APPROVAL_STATUS ( 'not_yet_approved' ) ;
#400 = APPROVAL_ROLE ( '' ) ;
#401 = DATE_TIME_ROLE ( 'classification_date' ) ;
#402 = PERSON_AND_ORGANIZATION_ROLE ( 'classification_officer' ) ;
#403 = SECURITY_CLASSIFICATION_LEVEL ( 'unclassified' ) ;
#404 = PERSON_AND_ORGANIZATION_ROLE ( 'design_supplier' ) ;
#405 = PERSON_AND_ORGANIZATION_ROLE ( 'creator' ) ;
#406 = APPROVAL_ROLE ( '' ) ;
#407 = APPROVAL_STATUS ( 'not_yet_approved' ) ;
#408 = DATE_TIME_ROLE ( 'creation_date' ) ;
#409 = PERSON_AND_ORGANIZATION_ROLE ( 'creator' ) ;
#410 = APPROVAL_STATUS ( 'not_yet_approved' ) ;
#411 = DIRECTION ( 'NONE',  ( 1.000000000000000000, 0.0000000000000000000, 0.0000000000000000000 ) ) ;
#412 = PERSON_AND_ORGANIZATION_ROLE ( 'design_owner' ) ;
#413 = APPLICATION_PROTOCOL_DEFINITION ( 'international standard', 'config_control_design', 1994, #414 ) ;
#414 = APPLICATION_CONTEXT ( 'configuration controlled 3d designs of mechanical parts and assemblies' ) ;
#415 = MECHANICAL_CONTEXT ( 'NONE', #416, 'mechanical' ) ;
#416 = APPLICATION_CONTEXT ( 'configuration controlled 3d designs of mechanical parts and assemblies' ) ;
#417 = APPLICATION_PROTOCOL_DEFINITION ( 'international standard', 'config_control_design', 1994, #416 ) ;
#418 =( NAMED_UNIT ( * ) SI_UNIT ( $, .STERADIAN. ) SOLID_ANGLE_UNIT ( ) );
#419 =( NAMED_UNIT ( * ) PLANE_ANGLE_UNIT ( ) SI_UNIT ( $, .RADIAN. ) );
#420 =( LENGTH_UNIT ( ) NAMED_UNIT ( * ) SI_UNIT ( .MILLI., .METRE. ) );
#421 = CARTESIAN_POINT ( 'NONE',  ( 0.0000000000000000000, 0.0000000000000000000, 0.0000000000000000000 ) ) ;
#422 = APPROVAL_ROLE ( '' ) ;
#423 = CARTESIAN_POINT ( 'NONE',  ( 0.0000000000000000000, 0.0000000000000000000, 547.5000000000001100 ) ) ;
#424 = ADVANCED_FACE ( 'NONE', ( #329 ), #64, .F. ) ;
#425 = ADVANCED_FACE ( 'NONE', ( #284 ), #55, .T. ) ;
#426 = ADVANCED_FACE ( 'NONE', ( #338 ), #51, .T. ) ;
#427 = ADVANCED_FACE ( 'NONE', ( #350, #336, #342 ), #44, .T. ) ;
#428 = ADVANCED_FACE ( 'NONE', ( #347 ), #41, .F. ) ;
#429 = ADVANCED_FACE ( 'NONE', ( #280, #307 ), #328, .F. ) ;
#430 = ADVANCED_FACE ( 'NONE', ( #341 ), #33, .T. ) ;
#431 = ADVANCED_FACE ( 'NONE', ( #340, #286, #200 ), #24, .F. ) ;
#432 = ADVANCED_FACE ( 'NONE', ( #287, #272 ), #276, .F. ) ;
#433 = ADVANCED_FACE ( 'NONE', ( #281 ), #18, .T. ) ;
#434 = ADVANCED_FACE ( 'NONE', ( #325 ), #11, .T. ) ;
#435 = ADVANCED_FACE ( 'NONE', ( #271 ), #6, .F. ) ;
#436 = PRODUCT_DEFINITION_SHAPE ( 'NONE', 'NONE',  #174 ) ;
#437 = DESIGN_CONTEXT ( 'detailed design', #414, 'design' ) ;
ENDSEC;
END-ISO-10303-21;
