ISO-10303-21;
HEADER;
FILE_DESCRIPTION (( 'STEP AP203' ),
    '1' );
FILE_NAME ('Êðûøêà íà îòâåòâèòåëü Ò-îáðàçíûé âåðòèêàëüíûé TDSR_38413.STEP',
    '2012-11-09T08:44:34',
    ( 'Àñååâ' ),
    ( '' ),
    'SwSTEP 2.0',
    'SolidWorks 2012',
    '' );
FILE_SCHEMA (( 'CONFIG_CONTROL_DESIGN' ));
ENDSEC;

DATA;
#1 = SECURITY_CLASSIFICATION ( '', '', #369 ) ;
#2 = CC_DESIGN_PERSON_AND_ORGANIZATION_ASSIGNMENT ( #317, #370, ( #8 ) ) ;
#3 = AXIS2_PLACEMENT_3D ( 'NONE', #78, #73, #71 ) ;
#4 = CC_DESIGN_PERSON_AND_ORGANIZATION_ASSIGNMENT ( #320, #372, ( #8 ) ) ;
#5 = CC_DESIGN_APPROVAL ( #7, ( #8 ) ) ;
#6 = AXIS2_PLACEMENT_3D ( 'NONE', #80, #76, #75 ) ;
#7 = APPROVAL ( #375, 'UNSPECIFIED' ) ;
#8 = PRODUCT_DEFINITION_FORMATION_WITH_SPECIFIED_SOURCE ( 'ANY', '', #65, .NOT_KNOWN. ) ;
#9 = CC_DESIGN_DATE_AND_TIME_ASSIGNMENT ( #326, #363, ( #13 ) ) ;
#10 = CC_DESIGN_PERSON_AND_ORGANIZATION_ASSIGNMENT ( #330, #362, ( #13 ) ) ;
#11 = CC_DESIGN_APPROVAL ( #12, ( #13 ) ) ;
#12 = APPROVAL ( #380, 'UNSPECIFIED' ) ;
#13 = PRODUCT_DEFINITION ( 'UNKNOWN', '', #8, #349 ) ;
#14 = CC_DESIGN_PERSON_AND_ORGANIZATION_ASSIGNMENT ( #332, #387, ( #65 ) ) ;
#15 = AXIS2_PLACEMENT_3D ( 'NONE', #386, #351, #361 ) ;
#16 = AXIS2_PLACEMENT_3D ( 'NONE', #359, #385, #384 ) ;
#17 =( GEOMETRIC_REPRESENTATION_CONTEXT ( 3 ) GLOBAL_UNCERTAINTY_ASSIGNED_CONTEXT ( ( #334 ) ) GLOBAL_UNIT_ASSIGNED_CONTEXT ( ( #373, #358, #364 ) ) REPRESENTATION_CONTEXT ( 'NONE', 'WORKASPACE' ) );
#18 = AXIS2_PLACEMENT_3D ( 'NONE', #366, #381, #376 ) ;
#19 = AXIS2_PLACEMENT_3D ( 'NONE', #368, #391, #365 ) ;
#20 = AXIS2_PLACEMENT_3D ( 'NONE', #390, #374, #371 ) ;
#21 = AXIS2_PLACEMENT_3D ( 'NONE', #101, #121, #378 ) ;
#22 = AXIS2_PLACEMENT_3D ( 'NONE', #82, #86, #91 ) ;
#23 = AXIS2_PLACEMENT_3D ( 'NONE', #100, #85, #84 ) ;
#24 = AXIS2_PLACEMENT_3D ( 'NONE', #104, #90, #89 ) ;
#25 = AXIS2_PLACEMENT_3D ( 'NONE', #97, #96, #94 ) ;
#26 = AXIS2_PLACEMENT_3D ( 'NONE', #127, #126, #129 ) ;
#27 = AXIS2_PLACEMENT_3D ( 'NONE', #395, #394, #403 ) ;
#28 = AXIS2_PLACEMENT_3D ( 'NONE', #431, #429, #428 ) ;
#29 = AXIS2_PLACEMENT_3D ( 'NONE', #435, #434, #433 ) ;
#30 = EDGE_CURVE ( 'NONE', #182, #183, #166, .T. ) ;
#31 = EDGE_CURVE ( 'NONE', #282, #282, #251, .T. ) ;
#32 = EDGE_CURVE ( 'NONE', #327, #327, #162, .T. ) ;
#33 = EDGE_CURVE ( 'NONE', #187, #185, #164, .T. ) ;
#34 = EDGE_CURVE ( 'NONE', #182, #181, #167, .T. ) ;
#35 = EDGE_CURVE ( 'NONE', #190, #187, #163, .T. ) ;
#36 = EDGE_CURVE ( 'NONE', #190, #188, #159, .T. ) ;
#37 = EDGE_CURVE ( 'NONE', #186, #187, #158, .T. ) ;
#38 = EDGE_CURVE ( 'NONE', #191, #180, #154, .T. ) ;
#39 = EDGE_CURVE ( 'NONE', #188, #185, #156, .T. ) ;
#40 = EDGE_CURVE ( 'NONE', #192, #186, #150, .T. ) ;
#41 = EDGE_CURVE ( 'NONE', #192, #190, #152, .T. ) ;
#42 = EDGE_CURVE ( 'NONE', #189, #186, #146, .T. ) ;
#43 = EDGE_CURVE ( 'NONE', #193, #189, #144, .T. ) ;
#44 = EDGE_CURVE ( 'NONE', #193, #192, #148, .T. ) ;
#45 = EDGE_CURVE ( 'NONE', #189, #248, #140, .T. ) ;
#46 = EDGE_CURVE ( 'NONE', #194, #248, #138, .T. ) ;
#47 = EDGE_CURVE ( 'NONE', #193, #194, #142, .T. ) ;
#48 = EDGE_CURVE ( 'NONE', #291, #291, #136, .T. ) ;
#49 = EDGE_CURVE ( 'NONE', #308, #308, #130, .T. ) ;
#50 = EDGE_CURVE ( 'NONE', #180, #184, #132, .T. ) ;
#51 = EDGE_CURVE ( 'NONE', #248, #180, #131, .T. ) ;
#52 = EDGE_CURVE ( 'NONE', #194, #191, #304, .T. ) ;
#53 = EDGE_CURVE ( 'NONE', #181, #184, #305, .T. ) ;
#54 = EDGE_CURVE ( 'NONE', #185, #181, #301, .T. ) ;
#55 = EDGE_CURVE ( 'NONE', #191, #183, #303, .T. ) ;
#56 = EDGE_CURVE ( 'NONE', #188, #182, #300, .T. ) ;
#57 = EDGE_CURVE ( 'NONE', #183, #184, #265, .T. ) ;
#58 = PRODUCT_RELATED_PRODUCT_CATEGORY ( 'detail', '', ( #65 ) ) ;
#59 = CC_DESIGN_SECURITY_CLASSIFICATION ( #1, ( #8 ) ) ;
#60 = CC_DESIGN_APPROVAL ( #61, ( #1 ) ) ;
#61 = APPROVAL ( #392, 'UNSPECIFIED' ) ;
#62 = CC_DESIGN_DATE_AND_TIME_ASSIGNMENT ( #315, #393, ( #1 ) ) ;
#63 = AXIS2_PLACEMENT_3D ( 'NONE', #70, #77, #102 ) ;
#64 = CC_DESIGN_PERSON_AND_ORGANIZATION_ASSIGNMENT ( #318, #350, ( #1 ) ) ;
#65 = PRODUCT ( 'Êðûøêà íà îòâåòâèòåëü Ò-îáðàçíûé âåðòèêàëüíûé TDSR_38413', 'Êðûøêà íà îòâåòâèòåëü Ò-îáðàçíûé âåðòèêàëüíûé TDSR_38413', '', ( #356 ) ) ;
#66 = PERSON ( 'UNSPECIFIED', 'UNSPECIFIED', 'UNSPECIFIED', ('UNSPECIFIED'), ('UNSPECIFIED'), ('UNSPECIFIED') ) ;
#67 = PLANE ( 'NONE',  #63 ) ;
#68 = DIRECTION ( 'NONE',  ( 0.0000000000000000000, -1.000000000000000000, 0.0000000000000000000 ) ) ;
#69 = PLANE ( 'NONE',  #20 ) ;
#70 = CARTESIAN_POINT ( 'NONE',  ( -251.0000000000000000, 0.5999999999999999800, 560.0000000000000000 ) ) ;
#71 = DIRECTION ( 'NONE',  ( -0.0000000000000000000, 0.0000000000000000000, -1.000000000000000000 ) ) ;
#72 = CARTESIAN_POINT ( 'NONE',  ( -251.5999999999999900, 0.5999999999999999800, 0.0000000000000000000 ) ) ;
#73 = DIRECTION ( 'NONE',  ( 1.000000000000000000, 0.0000000000000000000, -0.0000000000000000000 ) ) ;
#74 = PLANE ( 'NONE',  #3 ) ;
#75 = DIRECTION ( 'NONE',  ( 0.0000000000000000000, -0.0000000000000000000, -1.000000000000000000 ) ) ;
#76 = DIRECTION ( 'NONE',  ( 0.0000000000000000000, -1.000000000000000000, 0.0000000000000000000 ) ) ;
#77 = DIRECTION ( 'NONE',  ( 0.0000000000000000000, 1.000000000000000000, 0.0000000000000000000 ) ) ;
#78 = CARTESIAN_POINT ( 'NONE',  ( 251.5999999999999900, 0.0000000000000000000, 560.0000000000000000 ) ) ;
#79 = PLANE ( 'NONE',  #6 ) ;
#80 = CARTESIAN_POINT ( 'NONE',  ( 251.5999999999999900, -14.00000000000000000, 560.0000000000000000 ) ) ;
#81 = DIRECTION ( 'NONE',  ( 1.000000000000000000, 0.0000000000000000000, 0.0000000000000000000 ) ) ;
#82 = CARTESIAN_POINT ( 'NONE',  ( 0.0000000000000000000, -14.00099999999999900, 545.0000000000001100 ) ) ;
#83 = DIRECTION ( 'NONE',  ( 0.0000000000000000000, -1.000000000000000000, 0.0000000000000000000 ) ) ;
#84 = DIRECTION ( 'NONE',  ( -0.0000000000000000000, 0.0000000000000000000, -1.000000000000000000 ) ) ;
#85 = DIRECTION ( 'NONE',  ( 1.000000000000000000, 0.0000000000000000000, -0.0000000000000000000 ) ) ;
#86 = DIRECTION ( 'NONE',  ( -0.0000000000000000000, 1.000000000000000000, -0.0000000000000000000 ) ) ;
#87 = CARTESIAN_POINT ( 'NONE',  ( -251.0000000000000000, 0.0000000000000000000, 560.0000000000000000 ) ) ;
#88 = PLANE ( 'NONE',  #23 ) ;
#89 = DIRECTION ( 'NONE',  ( 0.0000000000000000000, -0.0000000000000000000, -1.000000000000000000 ) ) ;
#90 = DIRECTION ( 'NONE',  ( 0.0000000000000000000, -1.000000000000000000, 0.0000000000000000000 ) ) ;
#91 = DIRECTION ( 'NONE',  ( 0.0000000000000000000, 0.0000000000000000000, 1.000000000000000000 ) ) ;
#92 = PLANE ( 'NONE',  #24 ) ;
#93 = DIRECTION ( 'NONE',  ( 1.000000000000000000, 0.0000000000000000000, 0.0000000000000000000 ) ) ;
#94 = DIRECTION ( 'NONE',  ( 0.0000000000000000000, -0.0000000000000000000, 1.000000000000000000 ) ) ;
#95 = CARTESIAN_POINT ( 'NONE',  ( 251.5999999999999900, -14.00000000000000000, 0.0000000000000000000 ) ) ;
#96 = DIRECTION ( 'NONE',  ( 0.0000000000000000000, 1.000000000000000000, 0.0000000000000000000 ) ) ;
#97 = CARTESIAN_POINT ( 'NONE',  ( -251.0000000000000000, 0.0000000000000000000, 560.0000000000000000 ) ) ;
#98 = PLANE ( 'NONE',  #25 ) ;
#99 = DIRECTION ( 'NONE',  ( -1.000000000000000000, 0.0000000000000000000, 0.0000000000000000000 ) ) ;
#100 = CARTESIAN_POINT ( 'NONE',  ( 251.0000000000000000, 0.0000000000000000000, 560.0000000000000000 ) ) ;
#101 = CARTESIAN_POINT ( 'NONE',  ( -251.5999999999999900, 0.0000000000000000000, 560.0000000000000000 ) ) ;
#102 = DIRECTION ( 'NONE',  ( 0.0000000000000000000, -0.0000000000000000000, 1.000000000000000000 ) ) ;
#103 = CARTESIAN_POINT ( 'NONE',  ( -251.0000000000000000, 0.0000000000000000000, 0.0000000000000000000 ) ) ;
#104 = CARTESIAN_POINT ( 'NONE',  ( -251.0000000000000000, -14.00000000000000000, 560.0000000000000000 ) ) ;
#105 = CARTESIAN_POINT ( 'NONE',  ( -251.0000000000000000, 0.0000000000000000000, 560.0000000000000000 ) ) ;
#106 = CARTESIAN_POINT ( 'NONE',  ( -251.0000000000000000, -14.00000000000000000, 560.0000000000000000 ) ) ;
#107 = CARTESIAN_POINT ( 'NONE',  ( -251.5999999999999900, -14.00000000000000000, 560.0000000000000000 ) ) ;
#108 = CARTESIAN_POINT ( 'NONE',  ( 251.0000000000000000, 0.0000000000000000000, 560.0000000000000000 ) ) ;
#109 = CARTESIAN_POINT ( 'NONE',  ( -251.5999999999999900, 0.5999999999999999800, 560.0000000000000000 ) ) ;
#110 = CARTESIAN_POINT ( 'NONE',  ( -251.0000000000000000, -14.00000000000000000, 0.0000000000000000000 ) ) ;
#111 = PLANE ( 'NONE',  #21 ) ;
#112 = CARTESIAN_POINT ( 'NONE',  ( 251.5999999999999900, 0.5999999999999999800, 560.0000000000000000 ) ) ;
#113 = CARTESIAN_POINT ( 'NONE',  ( -251.5999999999999900, -14.00000000000000000, 0.0000000000000000000 ) ) ;
#114 = CARTESIAN_POINT ( 'NONE',  ( 251.0000000000000000, -14.00000000000000000, 0.0000000000000000000 ) ) ;
#115 = CARTESIAN_POINT ( 'NONE',  ( 251.0000000000000000, -14.00000000000000000, 560.0000000000000000 ) ) ;
#116 = CARTESIAN_POINT ( 'NONE',  ( 251.5999999999999900, -14.00000000000000000, 560.0000000000000000 ) ) ;
#117 = CARTESIAN_POINT ( 'NONE',  ( 251.5999999999999900, 0.5999999999999999800, 0.0000000000000000000 ) ) ;
#118 = DIRECTION ( 'NONE',  ( -0.0000000000000000000, -0.0000000000000000000, -1.000000000000000000 ) ) ;
#119 = CARTESIAN_POINT ( 'NONE',  ( 251.5999999999999900, -14.00000000000000000, 0.0000000000000000000 ) ) ;
#120 = CARTESIAN_POINT ( 'NONE',  ( 251.0000000000000000, -14.00000000000000000, 560.0000000000000000 ) ) ;
#121 = DIRECTION ( 'NONE',  ( -1.000000000000000000, 0.0000000000000000000, 0.0000000000000000000 ) ) ;
#122 = DIRECTION ( 'NONE',  ( -0.0000000000000000000, -1.000000000000000000, 0.0000000000000000000 ) ) ;
#123 = CARTESIAN_POINT ( 'NONE',  ( 251.5999999999999900, 0.0000000000000000000, 0.0000000000000000000 ) ) ;
#124 = CARTESIAN_POINT ( 'NONE',  ( 251.0000000000000000, 0.0000000000000000000, 560.0000000000000000 ) ) ;
#125 = CARTESIAN_POINT ( 'NONE',  ( 251.5999999999999900, 0.0000000000000000000, 560.0000000000000000 ) ) ;
#126 = DIRECTION ( 'NONE',  ( -0.0000000000000000000, -1.000000000000000000, -0.0000000000000000000 ) ) ;
#127 = CARTESIAN_POINT ( 'NONE',  ( 1.734723475976807100E-015, 0.0000000000000000000, 14.99999999999999300 ) ) ;
#128 = DIRECTION ( 'NONE',  ( -0.0000000000000000000, -1.000000000000000000, 0.0000000000000000000 ) ) ;
#129 = DIRECTION ( 'NONE',  ( 0.0000000000000000000, 0.0000000000000000000, 1.000000000000000000 ) ) ;
#130 = CIRCLE ( 'NONE', #26, 2.500000000000002200 ) ;
#131 = LINE ( 'NONE', #397, #298 ) ;
#132 = LINE ( 'NONE', #398, #297 ) ;
#133 = VECTOR ( 'NONE', #399, 1000.000000000000000 ) ;
#134 = FACE_OUTER_BOUND ( 'NONE', #169, .T. ) ;
#135 = VECTOR ( 'NONE', #400, 1000.000000000000000 ) ;
#136 = CIRCLE ( 'NONE', #27, 2.500000000000057700 ) ;
#137 = VECTOR ( 'NONE', #404, 1000.000000000000000 ) ;
#138 = LINE ( 'NONE', #402, #135 ) ;
#139 = VECTOR ( 'NONE', #406, 1000.000000000000000 ) ;
#140 = LINE ( 'NONE', #405, #137 ) ;
#141 = VECTOR ( 'NONE', #407, 1000.000000000000000 ) ;
#142 = LINE ( 'NONE', #413, #133 ) ;
#143 = VECTOR ( 'NONE', #409, 1000.000000000000000 ) ;
#144 = LINE ( 'NONE', #408, #141 ) ;
#145 = VECTOR ( 'NONE', #411, 1000.000000000000000 ) ;
#146 = LINE ( 'NONE', #410, #143 ) ;
#147 = VECTOR ( 'NONE', #412, 1000.000000000000000 ) ;
#148 = LINE ( 'NONE', #418, #139 ) ;
#149 = VECTOR ( 'NONE', #416, 1000.000000000000000 ) ;
#150 = LINE ( 'NONE', #414, #147 ) ;
#151 = VECTOR ( 'NONE', #417, 1000.000000000000000 ) ;
#152 = LINE ( 'NONE', #421, #145 ) ;
#153 = VECTOR ( 'NONE', #420, 1000.000000000000000 ) ;
#154 = LINE ( 'NONE', #419, #151 ) ;
#155 = VECTOR ( 'NONE', #422, 1000.000000000000000 ) ;
#156 = LINE ( 'NONE', #423, #149 ) ;
#157 = VECTOR ( 'NONE', #424, 1000.000000000000000 ) ;
#158 = LINE ( 'NONE', #425, #153 ) ;
#159 = LINE ( 'NONE', #432, #155 ) ;
#160 = VECTOR ( 'NONE', #427, 1000.000000000000000 ) ;
#161 = VECTOR ( 'NONE', #401, 1000.000000000000000 ) ;
#162 = CIRCLE ( 'NONE', #28, 2.500000000000002200 ) ;
#163 = LINE ( 'NONE', #436, #157 ) ;
#164 = LINE ( 'NONE', #437, #160 ) ;
#165 = VECTOR ( 'NONE', #430, 1000.000000000000000 ) ;
#166 = LINE ( 'NONE', #415, #165 ) ;
#167 = LINE ( 'NONE', #426, #161 ) ;
#168 = EDGE_LOOP ( 'NONE', ( #244, #245, #256, #246 ) ) ;
#169 = EDGE_LOOP ( 'NONE', ( #249, #253, #227, #214 ) ) ;
#170 = EDGE_LOOP ( 'NONE', ( #232 ) ) ;
#171 = EDGE_LOOP ( 'NONE', ( #205, #206, #213, #233 ) ) ;
#172 = EDGE_LOOP ( 'NONE', ( #221, #222, #219, #220, #217, #218, #215, #216 ) ) ;
#173 = EDGE_LOOP ( 'NONE', ( #209 ) ) ;
#174 = EDGE_LOOP ( 'NONE', ( #231 ) ) ;
#175 = EDGE_LOOP ( 'NONE', ( #225, #226, #223, #224 ) ) ;
#176 = EDGE_LOOP ( 'NONE', ( #211, #212, #207, #210, #203, #204, #201, #202 ) ) ;
#177 = EDGE_LOOP ( 'NONE', ( #230 ) ) ;
#178 = EDGE_LOOP ( 'NONE', ( #229 ) ) ;
#179 = EDGE_LOOP ( 'NONE', ( #228 ) ) ;
#180 = VERTEX_POINT ( 'NONE', #396 ) ;
#181 = VERTEX_POINT ( 'NONE', #119 ) ;
#182 = VERTEX_POINT ( 'NONE', #116 ) ;
#183 = VERTEX_POINT ( 'NONE', #115 ) ;
#184 = VERTEX_POINT ( 'NONE', #114 ) ;
#185 = VERTEX_POINT ( 'NONE', #117 ) ;
#186 = VERTEX_POINT ( 'NONE', #113 ) ;
#187 = VERTEX_POINT ( 'NONE', #72 ) ;
#188 = VERTEX_POINT ( 'NONE', #112 ) ;
#189 = VERTEX_POINT ( 'NONE', #110 ) ;
#190 = VERTEX_POINT ( 'NONE', #109 ) ;
#191 = VERTEX_POINT ( 'NONE', #108 ) ;
#192 = VERTEX_POINT ( 'NONE', #107 ) ;
#193 = VERTEX_POINT ( 'NONE', #106 ) ;
#194 = VERTEX_POINT ( 'NONE', #105 ) ;
#195 = EDGE_LOOP ( 'NONE', ( #250, #252, #259, #254 ) ) ;
#196 = EDGE_LOOP ( 'NONE', ( #239 ) ) ;
#197 = EDGE_LOOP ( 'NONE', ( #241, #242, #257, #243 ) ) ;
#198 = EDGE_LOOP ( 'NONE', ( #258, #255, #247, #234 ) ) ;
#199 = EDGE_LOOP ( 'NONE', ( #235, #236, #237, #238 ) ) ;
#200 = EDGE_LOOP ( 'NONE', ( #240 ) ) ;
#201 = ORIENTED_EDGE ( 'NONE', *, *, #54, .T. ) ;
#202 = ORIENTED_EDGE ( 'NONE', *, *, #53, .T. ) ;
#203 = ORIENTED_EDGE ( 'NONE', *, *, #37, .T. ) ;
#204 = ORIENTED_EDGE ( 'NONE', *, *, #33, .T. ) ;
#205 = ORIENTED_EDGE ( 'NONE', *, *, #45, .T. ) ;
#206 = ORIENTED_EDGE ( 'NONE', *, *, #46, .F. ) ;
#207 = ORIENTED_EDGE ( 'NONE', *, *, #45, .F. ) ;
#208 = CLOSED_SHELL ( 'NONE', ( #338, #340, #341, #342, #343, #337, #347, #336, #346, #344, #345, #339 ) ) ;
#209 = ORIENTED_EDGE ( 'NONE', *, *, #49, .F. ) ;
#210 = ORIENTED_EDGE ( 'NONE', *, *, #42, .T. ) ;
#211 = ORIENTED_EDGE ( 'NONE', *, *, #50, .F. ) ;
#212 = ORIENTED_EDGE ( 'NONE', *, *, #51, .F. ) ;
#213 = ORIENTED_EDGE ( 'NONE', *, *, #47, .F. ) ;
#214 = ORIENTED_EDGE ( 'NONE', *, *, #40, .T. ) ;
#215 = ORIENTED_EDGE ( 'NONE', *, *, #47, .T. ) ;
#216 = ORIENTED_EDGE ( 'NONE', *, *, #52, .T. ) ;
#217 = ORIENTED_EDGE ( 'NONE', *, *, #41, .F. ) ;
#218 = ORIENTED_EDGE ( 'NONE', *, *, #44, .F. ) ;
#219 = ORIENTED_EDGE ( 'NONE', *, *, #56, .F. ) ;
#220 = ORIENTED_EDGE ( 'NONE', *, *, #36, .F. ) ;
#221 = ORIENTED_EDGE ( 'NONE', *, *, #55, .T. ) ;
#222 = ORIENTED_EDGE ( 'NONE', *, *, #30, .F. ) ;
#223 = ORIENTED_EDGE ( 'NONE', *, *, #52, .F. ) ;
#224 = ORIENTED_EDGE ( 'NONE', *, *, #46, .T. ) ;
#225 = ORIENTED_EDGE ( 'NONE', *, *, #51, .T. ) ;
#226 = ORIENTED_EDGE ( 'NONE', *, *, #38, .F. ) ;
#227 = ORIENTED_EDGE ( 'NONE', *, *, #44, .T. ) ;
#228 = ORIENTED_EDGE ( 'NONE', *, *, #49, .T. ) ;
#229 = ORIENTED_EDGE ( 'NONE', *, *, #32, .T. ) ;
#230 = ORIENTED_EDGE ( 'NONE', *, *, #48, .T. ) ;
#231 = ORIENTED_EDGE ( 'NONE', *, *, #31, .T. ) ;
#232 = ORIENTED_EDGE ( 'NONE', *, *, #48, .F. ) ;
#233 = ORIENTED_EDGE ( 'NONE', *, *, #43, .T. ) ;
#234 = ORIENTED_EDGE ( 'NONE', *, *, #57, .T. ) ;
#235 = ORIENTED_EDGE ( 'NONE', *, *, #54, .F. ) ;
#236 = ORIENTED_EDGE ( 'NONE', *, *, #39, .F. ) ;
#237 = ORIENTED_EDGE ( 'NONE', *, *, #56, .T. ) ;
#238 = ORIENTED_EDGE ( 'NONE', *, *, #34, .T. ) ;
#239 = ORIENTED_EDGE ( 'NONE', *, *, #31, .F. ) ;
#240 = ORIENTED_EDGE ( 'NONE', *, *, #32, .F. ) ;
#241 = ORIENTED_EDGE ( 'NONE', *, *, #33, .F. ) ;
#242 = ORIENTED_EDGE ( 'NONE', *, *, #35, .F. ) ;
#243 = ORIENTED_EDGE ( 'NONE', *, *, #39, .T. ) ;
#244 = ORIENTED_EDGE ( 'NONE', *, *, #37, .F. ) ;
#245 = ORIENTED_EDGE ( 'NONE', *, *, #40, .F. ) ;
#246 = ORIENTED_EDGE ( 'NONE', *, *, #35, .T. ) ;
#247 = ORIENTED_EDGE ( 'NONE', *, *, #30, .T. ) ;
#248 = VERTEX_POINT ( 'NONE', #103 ) ;
#249 = ORIENTED_EDGE ( 'NONE', *, *, #42, .F. ) ;
#250 = ORIENTED_EDGE ( 'NONE', *, *, #50, .T. ) ;
#251 = CIRCLE ( 'NONE', #29, 2.500000000000057700 ) ;
#252 = ORIENTED_EDGE ( 'NONE', *, *, #57, .F. ) ;
#253 = ORIENTED_EDGE ( 'NONE', *, *, #43, .F. ) ;
#254 = ORIENTED_EDGE ( 'NONE', *, *, #38, .T. ) ;
#255 = ORIENTED_EDGE ( 'NONE', *, *, #34, .F. ) ;
#256 = ORIENTED_EDGE ( 'NONE', *, *, #41, .T. ) ;
#257 = ORIENTED_EDGE ( 'NONE', *, *, #36, .T. ) ;
#258 = ORIENTED_EDGE ( 'NONE', *, *, #53, .F. ) ;
#259 = ORIENTED_EDGE ( 'NONE', *, *, #55, .F. ) ;
#260 = LOCAL_TIME ( 12, 44, 34.00000000000000000, #306 ) ;
#261 = VECTOR ( 'NONE', #99, 1000.000000000000000 ) ;
#262 = VECTOR ( 'NONE', #128, 1000.000000000000000 ) ;
#263 = FACE_OUTER_BOUND ( 'NONE', #172, .T. ) ;
#264 = APPROVAL_PERSON_ORGANIZATION ( #328, #12, #379 ) ;
#265 = LINE ( 'NONE', #120, #267 ) ;
#266 = FACE_BOUND ( 'NONE', #170, .T. ) ;
#267 = VECTOR ( 'NONE', #118, 1000.000000000000000 ) ;
#268 = FACE_OUTER_BOUND ( 'NONE', #177, .T. ) ;
#269 = FACE_OUTER_BOUND ( 'NONE', #199, .T. ) ;
#270 = FACE_BOUND ( 'NONE', #196, .T. ) ;
#271 = FACE_BOUND ( 'NONE', #173, .T. ) ;
#272 = FACE_OUTER_BOUND ( 'NONE', #175, .T. ) ;
#273 = FACE_OUTER_BOUND ( 'NONE', #195, .T. ) ;
#274 = FACE_OUTER_BOUND ( 'NONE', #197, .T. ) ;
#275 = CYLINDRICAL_SURFACE ( 'NONE', #22, 2.500000000000057700 ) ;
#276 = FACE_OUTER_BOUND ( 'NONE', #176, .T. ) ;
#277 = FACE_OUTER_BOUND ( 'NONE', #198, .T. ) ;
#278 = FACE_OUTER_BOUND ( 'NONE', #179, .T. ) ;
#279 = FACE_OUTER_BOUND ( 'NONE', #174, .T. ) ;
#280 = CYLINDRICAL_SURFACE ( 'NONE', #19, 2.500000000000002200 ) ;
#281 = SHAPE_DEFINITION_REPRESENTATION ( #348, #335 ) ;
#282 = VERTEX_POINT ( 'NONE', #354 ) ;
#283 = FACE_OUTER_BOUND ( 'NONE', #171, .T. ) ;
#284 = APPROVAL_DATE_TIME ( #322, #7 ) ;
#285 = COORDINATED_UNIVERSAL_TIME_OFFSET ( 4, 0, .AHEAD. ) ;
#286 = PERSON_AND_ORGANIZATION ( #66, #319 ) ;
#287 = COORDINATED_UNIVERSAL_TIME_OFFSET ( 4, 0, .AHEAD. ) ;
#288 = APPROVAL_DATE_TIME ( #331, #12 ) ;
#289 = CALENDAR_DATE ( 2012, 9, 11 ) ;
#290 = COORDINATED_UNIVERSAL_TIME_OFFSET ( 4, 0, .AHEAD. ) ;
#291 = VERTEX_POINT ( 'NONE', #355 ) ;
#292 = CALENDAR_DATE ( 2012, 9, 11 ) ;
#293 = FACE_OUTER_BOUND ( 'NONE', #178, .T. ) ;
#294 = FACE_OUTER_BOUND ( 'NONE', #168, .T. ) ;
#295 = FACE_BOUND ( 'NONE', #200, .T. ) ;
#296 = VECTOR ( 'NONE', #122, 1000.000000000000000 ) ;
#297 = VECTOR ( 'NONE', #68, 1000.000000000000000 ) ;
#298 = VECTOR ( 'NONE', #81, 1000.000000000000000 ) ;
#299 = VECTOR ( 'NONE', #83, 1000.000000000000000 ) ;
#300 = LINE ( 'NONE', #125, #296 ) ;
#301 = LINE ( 'NONE', #123, #262 ) ;
#302 = VECTOR ( 'NONE', #93, 1000.000000000000000 ) ;
#303 = LINE ( 'NONE', #124, #299 ) ;
#304 = LINE ( 'NONE', #87, #302 ) ;
#305 = LINE ( 'NONE', #95, #261 ) ;
#306 = COORDINATED_UNIVERSAL_TIME_OFFSET ( 4, 0, .AHEAD. ) ;
#307 = APPROVAL_DATE_TIME ( #309, #61 ) ;
#308 = VERTEX_POINT ( 'NONE', #383 ) ;
#309 = DATE_AND_TIME ( #310, #311 ) ;
#310 = CALENDAR_DATE ( 2012, 9, 11 ) ;
#311 = LOCAL_TIME ( 12, 44, 34.00000000000000000, #312 ) ;
#312 = COORDINATED_UNIVERSAL_TIME_OFFSET ( 4, 0, .AHEAD. ) ;
#313 = APPROVAL_PERSON_ORGANIZATION ( #286, #61, #353 ) ;
#314 = CALENDAR_DATE ( 2012, 9, 11 ) ;
#315 = DATE_AND_TIME ( #314, #316 ) ;
#316 = LOCAL_TIME ( 12, 44, 34.00000000000000000, #285 ) ;
#317 = PERSON_AND_ORGANIZATION ( #66, #319 ) ;
#318 = PERSON_AND_ORGANIZATION ( #66, #319 ) ;
#319 = ORGANIZATION ( 'UNSPECIFIED', 'UNSPECIFIED', '' ) ;
#320 = PERSON_AND_ORGANIZATION ( #66, #319 ) ;
#321 = CALENDAR_DATE ( 2012, 9, 11 ) ;
#322 = DATE_AND_TIME ( #321, #323 ) ;
#323 = LOCAL_TIME ( 12, 44, 34.00000000000000000, #290 ) ;
#324 = PERSON_AND_ORGANIZATION ( #66, #319 ) ;
#325 = APPROVAL_PERSON_ORGANIZATION ( #324, #7, #377 ) ;
#326 = DATE_AND_TIME ( #289, #260 ) ;
#327 = VERTEX_POINT ( 'NONE', #352 ) ;
#328 = PERSON_AND_ORGANIZATION ( #66, #319 ) ;
#329 = LOCAL_TIME ( 12, 44, 34.00000000000000000, #287 ) ;
#330 = PERSON_AND_ORGANIZATION ( #66, #319 ) ;
#331 = DATE_AND_TIME ( #292, #329 ) ;
#332 = PERSON_AND_ORGANIZATION ( #66, #319 ) ;
#333 = MANIFOLD_SOLID_BREP ( 'Âûðåç-Âûòÿíóòü1', #208 ) ;
#334 = UNCERTAINTY_MEASURE_WITH_UNIT (LENGTH_MEASURE( 1.000000000000000100E-005 ), #373, 'distance_accuracy_value', 'NONE');
#335 = ADVANCED_BREP_SHAPE_REPRESENTATION ( '¦¨v°úð ýð þªòõªòøªõû¹ T-þñ¨ð÷ývù òõ¨ªøúðû¹ývù TDSR_38413', ( #333, #15 ), #17 ) ;
#336 = ADVANCED_FACE ( 'NONE', ( #266, #271, #272 ), #98, .F. ) ;
#337 = ADVANCED_FACE ( 'NONE', ( #134 ), #92, .T. ) ;
#338 = ADVANCED_FACE ( 'NONE', ( #273 ), #88, .F. ) ;
#339 = ADVANCED_FACE ( 'NONE', ( #279, #268 ), #275, .F. ) ;
#340 = ADVANCED_FACE ( 'NONE', ( #277 ), #79, .T. ) ;
#341 = ADVANCED_FACE ( 'NONE', ( #269 ), #74, .T. ) ;
#342 = ADVANCED_FACE ( 'NONE', ( #270, #295, #274 ), #67, .T. ) ;
#343 = ADVANCED_FACE ( 'NONE', ( #294 ), #111, .T. ) ;
#344 = ADVANCED_FACE ( 'NONE', ( #276 ), #69, .T. ) ;
#345 = ADVANCED_FACE ( 'NONE', ( #293, #278 ), #280, .F. ) ;
#346 = ADVANCED_FACE ( 'NONE', ( #263 ), #360, .F. ) ;
#347 = ADVANCED_FACE ( 'NONE', ( #283 ), #389, .F. ) ;
#348 = PRODUCT_DEFINITION_SHAPE ( 'NONE', 'NONE',  #13 ) ;
#349 = DESIGN_CONTEXT ( 'detailed design', #388, 'design' ) ;
#350 = PERSON_AND_ORGANIZATION_ROLE ( 'classification_officer' ) ;
#351 = DIRECTION ( 'NONE',  ( 0.0000000000000000000, 0.0000000000000000000, 1.000000000000000000 ) ) ;
#352 = CARTESIAN_POINT ( 'NONE',  ( 1.734723475976807100E-015, 0.5999999999999999800, 17.49999999999999600 ) ) ;
#353 = APPROVAL_ROLE ( '' ) ;
#354 = CARTESIAN_POINT ( 'NONE',  ( 0.0000000000000000000, 0.5999999999999999800, 542.5000000000001100 ) ) ;
#355 = CARTESIAN_POINT ( 'NONE',  ( 0.0000000000000000000, 0.0000000000000000000, 547.5000000000002300 ) ) ;
#356 = MECHANICAL_CONTEXT ( 'NONE', #357, 'mechanical' ) ;
#357 = APPLICATION_CONTEXT ( 'configuration controlled 3d designs of mechanical parts and assemblies' ) ;
#358 =( NAMED_UNIT ( * ) PLANE_ANGLE_UNIT ( ) SI_UNIT ( $, .RADIAN. ) );
#359 = CARTESIAN_POINT ( 'NONE',  ( -251.0000000000000000, 0.0000000000000000000, 560.0000000000000000 ) ) ;
#360 = PLANE ( 'NONE',  #18 ) ;
#361 = DIRECTION ( 'NONE',  ( 1.000000000000000000, 0.0000000000000000000, 0.0000000000000000000 ) ) ;
#362 = PERSON_AND_ORGANIZATION_ROLE ( 'creator' ) ;
#363 = DATE_TIME_ROLE ( 'creation_date' ) ;
#364 =( NAMED_UNIT ( * ) SI_UNIT ( $, .STERADIAN. ) SOLID_ANGLE_UNIT ( ) );
#365 = DIRECTION ( 'NONE',  ( 0.0000000000000000000, 0.0000000000000000000, 1.000000000000000000 ) ) ;
#366 = CARTESIAN_POINT ( 'NONE',  ( 0.0000000000000000000, 0.0000000000000000000, 560.0000000000000000 ) ) ;
#367 = APPLICATION_PROTOCOL_DEFINITION ( 'international standard', 'config_control_design', 1994, #357 ) ;
#368 = CARTESIAN_POINT ( 'NONE',  ( 1.734723475976807100E-015, -14.00099999999999900, 14.99999999999999300 ) ) ;
#369 = SECURITY_CLASSIFICATION_LEVEL ( 'unclassified' ) ;
#370 = PERSON_AND_ORGANIZATION_ROLE ( 'design_supplier' ) ;
#371 = DIRECTION ( 'NONE',  ( -1.000000000000000000, 0.0000000000000000000, 0.0000000000000000000 ) ) ;
#372 = PERSON_AND_ORGANIZATION_ROLE ( 'creator' ) ;
#373 =( LENGTH_UNIT ( ) NAMED_UNIT ( * ) SI_UNIT ( .MILLI., .METRE. ) );
#374 = DIRECTION ( 'NONE',  ( -0.0000000000000000000, 0.0000000000000000000, -1.000000000000000000 ) ) ;
#375 = APPROVAL_STATUS ( 'not_yet_approved' ) ;
#376 = DIRECTION ( 'NONE',  ( -1.000000000000000000, 0.0000000000000000000, 0.0000000000000000000 ) ) ;
#377 = APPROVAL_ROLE ( '' ) ;
#378 = DIRECTION ( 'NONE',  ( 0.0000000000000000000, 0.0000000000000000000, 1.000000000000000000 ) ) ;
#379 = APPROVAL_ROLE ( '' ) ;
#380 = APPROVAL_STATUS ( 'not_yet_approved' ) ;
#381 = DIRECTION ( 'NONE',  ( -0.0000000000000000000, 0.0000000000000000000, -1.000000000000000000 ) ) ;
#382 = APPLICATION_PROTOCOL_DEFINITION ( 'international standard', 'config_control_design', 1994, #388 ) ;
#383 = CARTESIAN_POINT ( 'NONE',  ( 1.734723475976807100E-015, 0.0000000000000000000, 17.49999999999999600 ) ) ;
#384 = DIRECTION ( 'NONE',  ( 0.0000000000000000000, 0.0000000000000000000, 1.000000000000000000 ) ) ;
#385 = DIRECTION ( 'NONE',  ( -1.000000000000000000, 0.0000000000000000000, 0.0000000000000000000 ) ) ;
#386 = CARTESIAN_POINT ( 'NONE',  ( 0.0000000000000000000, 0.0000000000000000000, 0.0000000000000000000 ) ) ;
#387 = PERSON_AND_ORGANIZATION_ROLE ( 'design_owner' ) ;
#388 = APPLICATION_CONTEXT ( 'configuration controlled 3d designs of mechanical parts and assemblies' ) ;
#389 = PLANE ( 'NONE',  #16 ) ;
#390 = CARTESIAN_POINT ( 'NONE',  ( 0.0000000000000000000, 0.0000000000000000000, 0.0000000000000000000 ) ) ;
#391 = DIRECTION ( 'NONE',  ( -0.0000000000000000000, 1.000000000000000000, -0.0000000000000000000 ) ) ;
#392 = APPROVAL_STATUS ( 'not_yet_approved' ) ;
#393 = DATE_TIME_ROLE ( 'classification_date' ) ;
#394 = DIRECTION ( 'NONE',  ( -0.0000000000000000000, -1.000000000000000000, -0.0000000000000000000 ) ) ;
#395 = CARTESIAN_POINT ( 'NONE',  ( 0.0000000000000000000, 0.0000000000000000000, 545.0000000000001100 ) ) ;
#396 = CARTESIAN_POINT ( 'NONE',  ( 251.0000000000000000, 0.0000000000000000000, 0.0000000000000000000 ) ) ;
#397 = CARTESIAN_POINT ( 'NONE',  ( -251.0000000000000000, 0.0000000000000000000, 0.0000000000000000000 ) ) ;
#398 = CARTESIAN_POINT ( 'NONE',  ( 251.0000000000000000, 0.0000000000000000000, 0.0000000000000000000 ) ) ;
#399 = DIRECTION ( 'NONE',  ( -0.0000000000000000000, 1.000000000000000000, -0.0000000000000000000 ) ) ;
#400 = DIRECTION ( 'NONE',  ( -0.0000000000000000000, -0.0000000000000000000, -1.000000000000000000 ) ) ;
#401 = DIRECTION ( 'NONE',  ( -0.0000000000000000000, -0.0000000000000000000, -1.000000000000000000 ) ) ;
#402 = CARTESIAN_POINT ( 'NONE',  ( -251.0000000000000000, 0.0000000000000000000, 560.0000000000000000 ) ) ;
#403 = DIRECTION ( 'NONE',  ( 0.0000000000000000000, 0.0000000000000000000, 1.000000000000000000 ) ) ;
#404 = DIRECTION ( 'NONE',  ( -0.0000000000000000000, 1.000000000000000000, -0.0000000000000000000 ) ) ;
#405 = CARTESIAN_POINT ( 'NONE',  ( -251.0000000000000000, 0.0000000000000000000, 0.0000000000000000000 ) ) ;
#406 = DIRECTION ( 'NONE',  ( -1.000000000000000000, 0.0000000000000000000, 0.0000000000000000000 ) ) ;
#407 = DIRECTION ( 'NONE',  ( -0.0000000000000000000, -0.0000000000000000000, -1.000000000000000000 ) ) ;
#408 = CARTESIAN_POINT ( 'NONE',  ( -251.0000000000000000, -14.00000000000000000, 560.0000000000000000 ) ) ;
#409 = DIRECTION ( 'NONE',  ( -1.000000000000000000, 0.0000000000000000000, 0.0000000000000000000 ) ) ;
#410 = CARTESIAN_POINT ( 'NONE',  ( -251.0000000000000000, -14.00000000000000000, 0.0000000000000000000 ) ) ;
#411 = DIRECTION ( 'NONE',  ( 0.0000000000000000000, 1.000000000000000000, 0.0000000000000000000 ) ) ;
#412 = DIRECTION ( 'NONE',  ( -0.0000000000000000000, -0.0000000000000000000, -1.000000000000000000 ) ) ;
#413 = CARTESIAN_POINT ( 'NONE',  ( -251.0000000000000000, 0.0000000000000000000, 560.0000000000000000 ) ) ;
#414 = CARTESIAN_POINT ( 'NONE',  ( -251.5999999999999900, -14.00000000000000000, 560.0000000000000000 ) ) ;
#415 = CARTESIAN_POINT ( 'NONE',  ( 251.5999999999999900, -14.00000000000000000, 560.0000000000000000 ) ) ;
#416 = DIRECTION ( 'NONE',  ( -0.0000000000000000000, -0.0000000000000000000, -1.000000000000000000 ) ) ;
#417 = DIRECTION ( 'NONE',  ( -0.0000000000000000000, -0.0000000000000000000, -1.000000000000000000 ) ) ;
#418 = CARTESIAN_POINT ( 'NONE',  ( -251.0000000000000000, -14.00000000000000000, 560.0000000000000000 ) ) ;
#419 = CARTESIAN_POINT ( 'NONE',  ( 251.0000000000000000, 0.0000000000000000000, 560.0000000000000000 ) ) ;
#420 = DIRECTION ( 'NONE',  ( 0.0000000000000000000, 1.000000000000000000, 0.0000000000000000000 ) ) ;
#421 = CARTESIAN_POINT ( 'NONE',  ( -251.5999999999999900, 0.0000000000000000000, 560.0000000000000000 ) ) ;
#422 = DIRECTION ( 'NONE',  ( 1.000000000000000000, 0.0000000000000000000, 0.0000000000000000000 ) ) ;
#423 = CARTESIAN_POINT ( 'NONE',  ( 251.5999999999999900, 0.5999999999999999800, 560.0000000000000000 ) ) ;
#424 = DIRECTION ( 'NONE',  ( -0.0000000000000000000, -0.0000000000000000000, -1.000000000000000000 ) ) ;
#425 = CARTESIAN_POINT ( 'NONE',  ( -251.5999999999999900, 0.0000000000000000000, 0.0000000000000000000 ) ) ;
#426 = CARTESIAN_POINT ( 'NONE',  ( 251.5999999999999900, -14.00000000000000000, 560.0000000000000000 ) ) ;
#427 = DIRECTION ( 'NONE',  ( 1.000000000000000000, 0.0000000000000000000, 0.0000000000000000000 ) ) ;
#428 = DIRECTION ( 'NONE',  ( 0.0000000000000000000, 0.0000000000000000000, 1.000000000000000000 ) ) ;
#429 = DIRECTION ( 'NONE',  ( 0.0000000000000000000, 1.000000000000000000, 0.0000000000000000000 ) ) ;
#430 = DIRECTION ( 'NONE',  ( -1.000000000000000000, 0.0000000000000000000, 0.0000000000000000000 ) ) ;
#431 = CARTESIAN_POINT ( 'NONE',  ( 1.734723475976807100E-015, 0.5999999999999999800, 14.99999999999999300 ) ) ;
#432 = CARTESIAN_POINT ( 'NONE',  ( -251.0000000000000000, 0.5999999999999999800, 560.0000000000000000 ) ) ;
#433 = DIRECTION ( 'NONE',  ( 0.0000000000000000000, 0.0000000000000000000, -1.000000000000000000 ) ) ;
#434 = DIRECTION ( 'NONE',  ( -0.0000000000000000000, 1.000000000000000000, -0.0000000000000000000 ) ) ;
#435 = CARTESIAN_POINT ( 'NONE',  ( 0.0000000000000000000, 0.5999999999999999800, 545.0000000000001100 ) ) ;
#436 = CARTESIAN_POINT ( 'NONE',  ( -251.5999999999999900, 0.5999999999999999800, 560.0000000000000000 ) ) ;
#437 = CARTESIAN_POINT ( 'NONE',  ( -251.0000000000000000, 0.5999999999999999800, 0.0000000000000000000 ) ) ;
ENDSEC;
END-ISO-10303-21;
