ISO-10303-21;
HEADER;
FILE_DESCRIPTION (( 'STEP AP203' ),
    '1' );
FILE_NAME ('CTA12D-M050-K02 Ìóôòà ñîåäèíèòåëüíàÿ äëÿ äâóñòåííîé òðóáû d50.STEP',
    '2016-06-20T13:40:20',
    ( '' ),
    ( '' ),
    'SwSTEP 2.0',
    'SolidWorks 2014',
    '' );
FILE_SCHEMA (( 'CONFIG_CONTROL_DESIGN' ));
ENDSEC;

DATA;
#1 = CLOSED_SHELL ( 'NONE', ( #84, #71, #95, #74, #98, #81, #107, #93 ) ) ;
#2 = FACE_OUTER_BOUND ( 'NONE', #156, .T. ) ;
#3 = APPROVAL_STATUS ( 'not_yet_approved' ) ;
#4 = APPROVAL_ROLE ( '' ) ;
#5 = DATE_TIME_ROLE ( 'classification_date' ) ;
#6 = CIRCLE ( 'NONE', #171, 26.50000000000000000 ) ;
#7 = CIRCLE ( 'NONE', #157, 23.50000000000007800 ) ;
#8 =( GEOMETRIC_REPRESENTATION_CONTEXT ( 3 ) GLOBAL_UNCERTAINTY_ASSIGNED_CONTEXT ( ( #20 ) ) GLOBAL_UNIT_ASSIGNED_CONTEXT ( ( #69, #67, #65 ) ) REPRESENTATION_CONTEXT ( 'NONE', 'WORKASPACE' ) );
#9 = EDGE_LOOP ( 'NONE', ( #228 ) ) ;
#10 = ORIENTED_EDGE ( 'NONE', *, *, #240, .F. ) ;
#11 = AXIS2_PLACEMENT_3D ( 'NONE', #146, #89, #137 ) ;
#12 = EDGE_CURVE ( 'NONE', #193, #193, #224, .T. ) ;
#13 = ORIENTED_EDGE ( 'NONE', *, *, #12, .T. ) ;
#14 = VERTEX_POINT ( 'NONE', #57 ) ;
#15 = FACE_BOUND ( 'NONE', #9, .T. ) ;
#16 = ORIENTED_EDGE ( 'NONE', *, *, #40, .F. ) ;
#17 = COORDINATED_UNIVERSAL_TIME_OFFSET ( 3, 0, .AHEAD. ) ;
#18 = SHAPE_DEFINITION_REPRESENTATION ( #38, #186 ) ;
#19 = EDGE_CURVE ( 'NONE', #48, #48, #41, .T. ) ;
#20 = UNCERTAINTY_MEASURE_WITH_UNIT (LENGTH_MEASURE( 1.000000000000000100E-005 ), #69, 'distance_accuracy_value', 'NONE');
#21 = PERSON ( 'UNSPECIFIED', 'UNSPECIFIED', 'UNSPECIFIED', ('UNSPECIFIED'), ('UNSPECIFIED'), ('UNSPECIFIED') ) ;
#22 = LOCAL_TIME ( 16, 40, 20.00000000000000000, #112 ) ;
#23 = LOCAL_TIME ( 16, 40, 20.00000000000000000, #115 ) ;
#24 = EDGE_LOOP ( 'NONE', ( #173 ) ) ;
#25 = DIRECTION ( 'NONE',  ( 0.0000000000000000000, 0.0000000000000000000, 1.000000000000000000 ) ) ;
#26 = APPROVAL_DATE_TIME ( #122, #175 ) ;
#27 = AXIS2_PLACEMENT_3D ( 'NONE', #166, #131, #46 ) ;
#28 = EDGE_CURVE ( 'NONE', #233, #233, #202, .T. ) ;
#29 = CALENDAR_DATE ( 2016, 20, 6 ) ;
#30 = CC_DESIGN_PERSON_AND_ORGANIZATION_ASSIGNMENT ( #144, #90, ( #176 ) ) ;
#31 = EDGE_LOOP ( 'NONE', ( #53 ) ) ;
#32 = FACE_OUTER_BOUND ( 'NONE', #212, .T. ) ;
#33 = DATE_AND_TIME ( #135, #189 ) ;
#34 = DIRECTION ( 'NONE',  ( -1.000000000000000000, -0.0000000000000000000, -0.0000000000000000000 ) ) ;
#35 = FACE_OUTER_BOUND ( 'NONE', #31, .T. ) ;
#36 = CARTESIAN_POINT ( 'NONE',  ( 42.49999999999998600, 0.0000000000000000000, 0.0000000000000000000 ) ) ;
#37 = AXIS2_PLACEMENT_3D ( 'NONE', #36, #34, #25 ) ;
#38 = PRODUCT_DEFINITION_SHAPE ( 'NONE', 'NONE',  #42 ) ;
#39 = PERSON_AND_ORGANIZATION ( #21, #195 ) ;
#40 = EDGE_CURVE ( 'NONE', #205, #205, #161, .T. ) ;
#41 = CIRCLE ( 'NONE', #158, 23.50000000000007800 ) ;
#42 = PRODUCT_DEFINITION ( 'UNKNOWN', '', #160, #218 ) ;
#43 = PERSON_AND_ORGANIZATION_ROLE ( 'classification_officer' ) ;
#44 = CIRCLE ( 'NONE', #37, 26.50000000000000000 ) ;
#45 = DIRECTION ( 'NONE',  ( -1.000000000000000000, -0.0000000000000000000, -0.0000000000000000000 ) ) ;
#46 = DIRECTION ( 'NONE',  ( -0.0000000000000000000, 0.0000000000000000000, 1.000000000000000000 ) ) ;
#47 = CARTESIAN_POINT ( 'NONE',  ( 42.49999999999998600, 0.0000000000000000000, 26.50000000000000000 ) ) ;
#48 = VERTEX_POINT ( 'NONE', #55 ) ;
#49 = CARTESIAN_POINT ( 'NONE',  ( -42.49999999999998600, 0.0000000000000000000, 26.50000000000000000 ) ) ;
#50 = CARTESIAN_POINT ( 'NONE',  ( -1.972948183318390400, 0.0000000000000000000, 0.0000000000000000000 ) ) ;
#51 = DIRECTION ( 'NONE',  ( 0.0000000000000000000, 0.0000000000000000000, 1.000000000000000000 ) ) ;
#52 = DIRECTION ( 'NONE',  ( -1.000000000000000000, -0.0000000000000000000, -0.0000000000000000000 ) ) ;
#53 = ORIENTED_EDGE ( 'NONE', *, *, #19, .T. ) ;
#54 = CARTESIAN_POINT ( 'NONE',  ( 1.500000000000056800, 0.0000000000000000000, 0.0000000000000000000 ) ) ;
#55 = CARTESIAN_POINT ( 'NONE',  ( -1.500000000000056800, 0.0000000000000000000, 23.50000000000007800 ) ) ;
#56 = MANIFOLD_SOLID_BREP ( 'Ïîâåðíóòü1', #1 ) ;
#57 = CARTESIAN_POINT ( 'NONE',  ( 1.500000000000056800, 0.0000000000000000000, 23.50000000000007800 ) ) ;
#58 = CARTESIAN_POINT ( 'NONE',  ( -1.972948183318390400, 0.0000000000000000000, 24.99999999999999300 ) ) ;
#59 = DIRECTION ( 'NONE',  ( 0.0000000000000000000, 0.0000000000000000000, 1.000000000000000000 ) ) ;
#60 = DIRECTION ( 'NONE',  ( -1.000000000000000000, -0.0000000000000000000, -0.0000000000000000000 ) ) ;
#61 = CARTESIAN_POINT ( 'NONE',  ( 42.49999999999998600, 0.0000000000000000000, 24.99999999999999300 ) ) ;
#62 = CARTESIAN_POINT ( 'NONE',  ( 1.972948183318390400, 0.0000000000000000000, 24.99999999999999300 ) ) ;
#63 = CARTESIAN_POINT ( 'NONE',  ( -42.49999999999998600, 0.0000000000000000000, 0.0000000000000000000 ) ) ;
#64 = CARTESIAN_POINT ( 'NONE',  ( -42.49999999999998600, 0.0000000000000000000, 24.99999999999999300 ) ) ;
#65 =( NAMED_UNIT ( * ) SI_UNIT ( $, .STERADIAN. ) SOLID_ANGLE_UNIT ( ) );
#66 = APPROVAL ( #94, 'UNSPECIFIED' ) ;
#67 =( NAMED_UNIT ( * ) PLANE_ANGLE_UNIT ( ) SI_UNIT ( $, .RADIAN. ) );
#68 = FACE_OUTER_BOUND ( 'NONE', #190, .T. ) ;
#69 =( LENGTH_UNIT ( ) NAMED_UNIT ( * ) SI_UNIT ( .MILLI., .METRE. ) );
#70 = DIRECTION ( 'NONE',  ( 0.0000000000000000000, 0.0000000000000000000, 1.000000000000000000 ) ) ;
#71 = ADVANCED_FACE ( 'NONE', ( #168, #68 ), #127, .F. ) ;
#72 = DIRECTION ( 'NONE',  ( -1.000000000000000000, -0.0000000000000000000, -0.0000000000000000000 ) ) ;
#73 = EDGE_LOOP ( 'NONE', ( #178 ) ) ;
#74 = ADVANCED_FACE ( 'NONE', ( #208, #15 ), #198, .F. ) ;
#75 = APPROVAL_DATE_TIME ( #163, #234 ) ;
#76 = VERTEX_POINT ( 'NONE', #58 ) ;
#77 = SECURITY_CLASSIFICATION_LEVEL ( 'unclassified' ) ;
#78 = DIRECTION ( 'NONE',  ( 0.0000000000000000000, 0.0000000000000000000, 1.000000000000000000 ) ) ;
#79 = PERSON_AND_ORGANIZATION_ROLE ( 'creator' ) ;
#80 = PERSON_AND_ORGANIZATION_ROLE ( 'design_supplier' ) ;
#81 = ADVANCED_FACE ( 'NONE', ( #184, #220 ), #130, .F. ) ;
#82 = FACE_OUTER_BOUND ( 'NONE', #217, .T. ) ;
#83 = APPLICATION_PROTOCOL_DEFINITION ( 'international standard', 'config_control_design', 1994, #104 ) ;
#84 = ADVANCED_FACE ( 'NONE', ( #82, #2 ), #239, .F. ) ;
#85 = APPLICATION_PROTOCOL_DEFINITION ( 'international standard', 'config_control_design', 1994, #88 ) ;
#86 = DIRECTION ( 'NONE',  ( -1.000000000000000000, -0.0000000000000000000, -0.0000000000000000000 ) ) ;
#87 = EDGE_LOOP ( 'NONE', ( #226 ) ) ;
#88 = APPLICATION_CONTEXT ( 'configuration controlled 3d designs of mechanical parts and assemblies' ) ;
#89 = DIRECTION ( 'NONE',  ( -1.000000000000000000, -0.0000000000000000000, -0.0000000000000000000 ) ) ;
#90 = PERSON_AND_ORGANIZATION_ROLE ( 'design_owner' ) ;
#91 = APPROVAL_PERSON_ORGANIZATION ( #170, #234, #4 ) ;
#92 = PERSON_AND_ORGANIZATION_ROLE ( 'creator' ) ;
#93 = ADVANCED_FACE ( 'NONE', ( #155, #245 ), #134, .F. ) ;
#94 = APPROVAL_STATUS ( 'not_yet_approved' ) ;
#95 = ADVANCED_FACE ( 'NONE', ( #230, #35 ), #187, .F. ) ;
#96 = APPROVAL_ROLE ( '' ) ;
#97 = AXIS2_PLACEMENT_3D ( 'NONE', #147, #149, #167 ) ;
#98 = ADVANCED_FACE ( 'NONE', ( #32, #154 ), #214, .F. ) ;
#99 = APPROVAL_STATUS ( 'not_yet_approved' ) ;
#100 = DATE_TIME_ROLE ( 'creation_date' ) ;
#101 = EDGE_CURVE ( 'NONE', #164, #164, #44, .T. ) ;
#102 = MECHANICAL_CONTEXT ( 'NONE', #104, 'mechanical' ) ;
#103 = DIRECTION ( 'NONE',  ( 1.000000000000000000, 0.0000000000000000000, 0.0000000000000000000 ) ) ;
#104 = APPLICATION_CONTEXT ( 'configuration controlled 3d designs of mechanical parts and assemblies' ) ;
#105 = APPROVAL_ROLE ( '' ) ;
#106 = CC_DESIGN_APPROVAL ( #66, ( #42 ) ) ;
#107 = ADVANCED_FACE ( 'NONE', ( #221, #225 ), #179, .T. ) ;
#108 = CARTESIAN_POINT ( 'NONE',  ( -1229.991103041891800, 0.0000000000000000000, 0.0000000000000000000 ) ) ;
#109 = DIRECTION ( 'NONE',  ( 1.000000000000000000, 0.0000000000000000000, 0.0000000000000000000 ) ) ;
#110 = ORIENTED_EDGE ( 'NONE', *, *, #125, .T. ) ;
#111 = CARTESIAN_POINT ( 'NONE',  ( 42.49999999999998600, 0.0000000000000000000, 0.0000000000000000000 ) ) ;
#112 = COORDINATED_UNIVERSAL_TIME_OFFSET ( 3, 0, .AHEAD. ) ;
#113 = DIRECTION ( 'NONE',  ( -1.000000000000000000, -0.0000000000000000000, -0.0000000000000000000 ) ) ;
#114 = DIRECTION ( 'NONE',  ( 0.0000000000000000000, 0.0000000000000000000, 1.000000000000000000 ) ) ;
#115 = COORDINATED_UNIVERSAL_TIME_OFFSET ( 3, 0, .AHEAD. ) ;
#116 = CARTESIAN_POINT ( 'NONE',  ( -1.972948183318390400, 0.0000000000000000000, 0.0000000000000000000 ) ) ;
#117 = CARTESIAN_POINT ( 'NONE',  ( -1229.991103041891800, 0.0000000000000000000, 0.0000000000000000000 ) ) ;
#118 = DIRECTION ( 'NONE',  ( 0.0000000000000000000, 0.0000000000000000000, -1.000000000000000000 ) ) ;
#119 = DIRECTION ( 'NONE',  ( 0.0000000000000000000, 0.0000000000000000000, 1.000000000000000000 ) ) ;
#120 = ORIENTED_EDGE ( 'NONE', *, *, #101, .F. ) ;
#121 = DIRECTION ( 'NONE',  ( -1.000000000000000000, -0.0000000000000000000, -0.0000000000000000000 ) ) ;
#122 = DATE_AND_TIME ( #236, #23 ) ;
#123 = CARTESIAN_POINT ( 'NONE',  ( -42.49999999999998600, 24.99999999999999300, 0.0000000000000000000 ) ) ;
#124 = DIRECTION ( 'NONE',  ( -1.000000000000000000, -0.0000000000000000000, -0.0000000000000000000 ) ) ;
#125 = EDGE_CURVE ( 'NONE', #76, #76, #140, .T. ) ;
#126 = LOCAL_TIME ( 16, 40, 20.00000000000000000, #182 ) ;
#127 = CONICAL_SURFACE ( 'NONE', #201, 24.99999999999999300, 1.265363707695959200 ) ;
#128 = CARTESIAN_POINT ( 'NONE',  ( -1229.991103041891800, 0.0000000000000000000, 0.0000000000000000000 ) ) ;
#129 = CC_DESIGN_PERSON_AND_ORGANIZATION_ASSIGNMENT ( #219, #92, ( #42 ) ) ;
#130 = PLANE ( 'NONE',  #27 ) ;
#131 = DIRECTION ( 'NONE',  ( -1.000000000000000000, 0.0000000000000000000, -0.0000000000000000000 ) ) ;
#132 = DIRECTION ( 'NONE',  ( 0.0000000000000000000, 0.0000000000000000000, 1.000000000000000000 ) ) ;
#133 = DIRECTION ( 'NONE',  ( 0.0000000000000000000, 0.0000000000000000000, 1.000000000000000000 ) ) ;
#134 = PLANE ( 'NONE',  #246 ) ;
#135 = CALENDAR_DATE ( 2016, 20, 6 ) ;
#136 = EDGE_LOOP ( 'NONE', ( #10 ) ) ;
#137 = DIRECTION ( 'NONE',  ( 0.0000000000000000000, 0.0000000000000000000, 1.000000000000000000 ) ) ;
#138 = CARTESIAN_POINT ( 'NONE',  ( 0.0000000000000000000, 0.0000000000000000000, 0.0000000000000000000 ) ) ;
#139 = CARTESIAN_POINT ( 'NONE',  ( -1.500000000000056800, 0.0000000000000000000, 0.0000000000000000000 ) ) ;
#140 = CIRCLE ( 'NONE', #211, 24.99999999999999300 ) ;
#141 = DIRECTION ( 'NONE',  ( 0.0000000000000000000, 0.0000000000000000000, 1.000000000000000000 ) ) ;
#142 = DIRECTION ( 'NONE',  ( -1.000000000000000000, -0.0000000000000000000, -0.0000000000000000000 ) ) ;
#143 = CARTESIAN_POINT ( 'NONE',  ( -42.49999999999998600, 0.0000000000000000000, 0.0000000000000000000 ) ) ;
#144 = PERSON_AND_ORGANIZATION ( #21, #195 ) ;
#145 = AXIS2_PLACEMENT_3D ( 'NONE', #165, #152, #114 ) ;
#146 = CARTESIAN_POINT ( 'NONE',  ( -1229.991103041891800, 0.0000000000000000000, 0.0000000000000000000 ) ) ;
#147 = CARTESIAN_POINT ( 'NONE',  ( 1.500000000000056800, 0.0000000000000000000, 0.0000000000000000000 ) ) ;
#148 = DIRECTION ( 'NONE',  ( 0.0000000000000000000, 0.0000000000000000000, 1.000000000000000000 ) ) ;
#149 = DIRECTION ( 'NONE',  ( 1.000000000000000000, 0.0000000000000000000, 0.0000000000000000000 ) ) ;
#150 = CC_DESIGN_DATE_AND_TIME_ASSIGNMENT ( #241, #100, ( #42 ) ) ;
#151 = DIRECTION ( 'NONE',  ( 0.0000000000000000000, 0.0000000000000000000, 1.000000000000000000 ) ) ;
#152 = DIRECTION ( 'NONE',  ( -1.000000000000000000, -0.0000000000000000000, -0.0000000000000000000 ) ) ;
#153 = DIRECTION ( 'NONE',  ( -1.000000000000000000, -0.0000000000000000000, -0.0000000000000000000 ) ) ;
#154 = FACE_OUTER_BOUND ( 'NONE', #249, .T. ) ;
#155 = FACE_BOUND ( 'NONE', #231, .T. ) ;
#156 = EDGE_LOOP ( 'NONE', ( #242 ) ) ;
#157 = AXIS2_PLACEMENT_3D ( 'NONE', #54, #72, #70 ) ;
#158 = AXIS2_PLACEMENT_3D ( 'NONE', #139, #142, #141 ) ;
#159 = DIRECTION ( 'NONE',  ( 0.0000000000000000000, 0.0000000000000000000, 1.000000000000000000 ) ) ;
#160 = PRODUCT_DEFINITION_FORMATION_WITH_SPECIFIED_SOURCE ( 'ANY', '', #176, .NOT_KNOWN. ) ;
#161 = CIRCLE ( 'NONE', #183, 24.99999999999999300 ) ;
#162 = EDGE_LOOP ( 'NONE', ( #120 ) ) ;
#163 = DATE_AND_TIME ( #204, #232 ) ;
#164 = VERTEX_POINT ( 'NONE', #47 ) ;
#165 = CARTESIAN_POINT ( 'NONE',  ( 1.972948183318390400, 0.0000000000000000000, 0.0000000000000000000 ) ) ;
#166 = CARTESIAN_POINT ( 'NONE',  ( 42.49999999999998600, 24.99999999999999300, 0.0000000000000000000 ) ) ;
#167 = DIRECTION ( 'NONE',  ( 0.0000000000000000000, 0.0000000000000000000, -1.000000000000000000 ) ) ;
#168 = FACE_BOUND ( 'NONE', #73, .T. ) ;
#169 = ORIENTED_EDGE ( 'NONE', *, *, #125, .F. ) ;
#170 = PERSON_AND_ORGANIZATION ( #21, #195 ) ;
#171 = AXIS2_PLACEMENT_3D ( 'NONE', #63, #60, #59 ) ;
#172 = AXIS2_PLACEMENT_3D ( 'NONE', #143, #113, #148 ) ;
#173 = ORIENTED_EDGE ( 'NONE', *, *, #247, .F. ) ;
#174 = PERSON_AND_ORGANIZATION ( #21, #195 ) ;
#175 = APPROVAL ( #99, 'UNSPECIFIED' ) ;
#176 = PRODUCT ( 'CTA12D-M050-K02 Ìóôòà ñîåäèíèòåëüíàÿ äëÿ äâóñòåííîé òðóáû d50', 'CTA12D-M050-K02 Ìóôòà ñîåäèíèòåëüíàÿ äëÿ äâóñòåííîé òðóáû d50', '', ( #102 ) ) ;
#177 = APPROVAL_PERSON_ORGANIZATION ( #216, #175, #105 ) ;
#178 = ORIENTED_EDGE ( 'NONE', *, *, #19, .F. ) ;
#179 = CYLINDRICAL_SURFACE ( 'NONE', #200, 26.50000000000000000 ) ;
#180 = AXIS2_PLACEMENT_3D ( 'NONE', #108, #121, #159 ) ;
#181 = AXIS2_PLACEMENT_3D ( 'NONE', #138, #78, #103 ) ;
#182 = COORDINATED_UNIVERSAL_TIME_OFFSET ( 3, 0, .AHEAD. ) ;
#183 = AXIS2_PLACEMENT_3D ( 'NONE', #111, #45, #133 ) ;
#184 = FACE_OUTER_BOUND ( 'NONE', #162, .T. ) ;
#185 = EDGE_LOOP ( 'NONE', ( #244 ) ) ;
#186 = ADVANCED_BREP_SHAPE_REPRESENTATION ( 'CTA12D-M050-K02 ¦º¯ªð ¸þõôøýøªõû¹ýð  ôû  ôòº¸ªõýýþù ª¨ºñv d50', ( #56, #181 ), #8 ) ;
#187 = CYLINDRICAL_SURFACE ( 'NONE', #180, 23.50000000000007800 ) ;
#188 = CC_DESIGN_APPROVAL ( #175, ( #160 ) ) ;
#189 = LOCAL_TIME ( 16, 40, 20.00000000000000000, #223 ) ;
#190 = EDGE_LOOP ( 'NONE', ( #110 ) ) ;
#191 = CC_DESIGN_APPROVAL ( #234, ( #215 ) ) ;
#192 = ORIENTED_EDGE ( 'NONE', *, *, #247, .T. ) ;
#193 = VERTEX_POINT ( 'NONE', #62 ) ;
#194 = AXIS2_PLACEMENT_3D ( 'NONE', #117, #124, #119 ) ;
#195 = ORGANIZATION ( 'UNSPECIFIED', 'UNSPECIFIED', '' ) ;
#196 = CC_DESIGN_PERSON_AND_ORGANIZATION_ASSIGNMENT ( #238, #79, ( #160 ) ) ;
#197 = CC_DESIGN_SECURITY_CLASSIFICATION ( #215, ( #160 ) ) ;
#198 = CONICAL_SURFACE ( 'NONE', #97, 23.50000000000007800, 1.265363707695959200 ) ;
#199 = ORIENTED_EDGE ( 'NONE', *, *, #12, .F. ) ;
#200 = AXIS2_PLACEMENT_3D ( 'NONE', #128, #86, #132 ) ;
#201 = AXIS2_PLACEMENT_3D ( 'NONE', #116, #153, #151 ) ;
#202 = CIRCLE ( 'NONE', #172, 24.99999999999999300 ) ;
#203 = ORIENTED_EDGE ( 'NONE', *, *, #28, .F. ) ;
#204 = CALENDAR_DATE ( 2016, 20, 6 ) ;
#205 = VERTEX_POINT ( 'NONE', #61 ) ;
#206 = CC_DESIGN_PERSON_AND_ORGANIZATION_ASSIGNMENT ( #213, #80, ( #160 ) ) ;
#207 = PRODUCT_RELATED_PRODUCT_CATEGORY ( 'detail', '', ( #176 ) ) ;
#208 = FACE_OUTER_BOUND ( 'NONE', #209, .T. ) ;
#209 = EDGE_LOOP ( 'NONE', ( #199 ) ) ;
#210 = DATE_AND_TIME ( #235, #22 ) ;
#211 = AXIS2_PLACEMENT_3D ( 'NONE', #50, #52, #51 ) ;
#212 = EDGE_LOOP ( 'NONE', ( #16 ) ) ;
#213 = PERSON_AND_ORGANIZATION ( #21, #195 ) ;
#214 = CYLINDRICAL_SURFACE ( 'NONE', #194, 24.99999999999999300 ) ;
#215 = SECURITY_CLASSIFICATION ( '', '', #77 ) ;
#216 = PERSON_AND_ORGANIZATION ( #21, #195 ) ;
#217 = EDGE_LOOP ( 'NONE', ( #169 ) ) ;
#218 = DESIGN_CONTEXT ( 'detailed design', #88, 'design' ) ;
#219 = PERSON_AND_ORGANIZATION ( #21, #195 ) ;
#220 = FACE_BOUND ( 'NONE', #185, .T. ) ;
#221 = FACE_OUTER_BOUND ( 'NONE', #24, .T. ) ;
#222 = CC_DESIGN_PERSON_AND_ORGANIZATION_ASSIGNMENT ( #174, #43, ( #215 ) ) ;
#223 = COORDINATED_UNIVERSAL_TIME_OFFSET ( 3, 0, .AHEAD. ) ;
#224 = CIRCLE ( 'NONE', #145, 24.99999999999999300 ) ;
#225 = FACE_OUTER_BOUND ( 'NONE', #87, .T. ) ;
#226 = ORIENTED_EDGE ( 'NONE', *, *, #101, .T. ) ;
#227 = CC_DESIGN_DATE_AND_TIME_ASSIGNMENT ( #210, #5, ( #215 ) ) ;
#228 = ORIENTED_EDGE ( 'NONE', *, *, #240, .T. ) ;
#229 = VERTEX_POINT ( 'NONE', #49 ) ;
#230 = FACE_OUTER_BOUND ( 'NONE', #136, .T. ) ;
#231 = EDGE_LOOP ( 'NONE', ( #203 ) ) ;
#232 = LOCAL_TIME ( 16, 40, 20.00000000000000000, #17 ) ;
#233 = VERTEX_POINT ( 'NONE', #64 ) ;
#234 = APPROVAL ( #3, 'UNSPECIFIED' ) ;
#235 = CALENDAR_DATE ( 2016, 20, 6 ) ;
#236 = CALENDAR_DATE ( 2016, 20, 6 ) ;
#237 = EDGE_LOOP ( 'NONE', ( #192 ) ) ;
#238 = PERSON_AND_ORGANIZATION ( #21, #195 ) ;
#239 = CYLINDRICAL_SURFACE ( 'NONE', #11, 24.99999999999999300 ) ;
#240 = EDGE_CURVE ( 'NONE', #14, #14, #7, .T. ) ;
#241 = DATE_AND_TIME ( #29, #126 ) ;
#242 = ORIENTED_EDGE ( 'NONE', *, *, #28, .T. ) ;
#243 = APPROVAL_DATE_TIME ( #33, #66 ) ;
#244 = ORIENTED_EDGE ( 'NONE', *, *, #40, .T. ) ;
#245 = FACE_OUTER_BOUND ( 'NONE', #237, .T. ) ;
#246 = AXIS2_PLACEMENT_3D ( 'NONE', #123, #109, #118 ) ;
#247 = EDGE_CURVE ( 'NONE', #229, #229, #6, .T. ) ;
#248 = APPROVAL_PERSON_ORGANIZATION ( #39, #66, #96 ) ;
#249 = EDGE_LOOP ( 'NONE', ( #13 ) ) ;
ENDSEC;
END-ISO-10303-21;
