ISO-10303-21;
HEADER;
FILE_DESCRIPTION (( 'STEP AP203' ),
    '1' );
FILE_NAME ('Ãèëüçà ìåäíàÿ GT-25-8 (ÃÌ) EKF.STEP',
    '2017-01-10T16:23:37',
    ( 'kuryshev' ),
    ( '' ),
    'SwSTEP 2.0',
    'SolidWorks 2010',
    '' );
FILE_SCHEMA (( 'CONFIG_CONTROL_DESIGN' ));
ENDSEC;

DATA;
#1 = AXIS2_PLACEMENT_3D ( 'NONE', #275, #282, #283 ) ;
#2 = AXIS2_PLACEMENT_3D ( 'NONE', #278, #285, #286 ) ;
#3 = AXIS2_PLACEMENT_3D ( 'NONE', #192, #279, #280 ) ;
#4 = AXIS2_PLACEMENT_3D ( 'NONE', #333, #347, #348 ) ;
#5 = AXIS2_PLACEMENT_3D ( 'NONE', #284, #303, #304 ) ;
#6 = EDGE_CURVE ( 'NONE', #346, #345, #93, .T. ) ;
#7 = AXIS2_PLACEMENT_3D ( 'NONE', #281, #289, #290 ) ;
#8 = AXIS2_PLACEMENT_3D ( 'NONE', #349, #312, #313 ) ;
#9 = EDGE_CURVE ( 'NONE', #342, #341, #95, .T. ) ;
#10 = EDGE_CURVE ( 'NONE', #338, #339, #94, .T. ) ;
#11 = EDGE_CURVE ( 'NONE', #340, #339, #98, .T. ) ;
#12 = EDGE_CURVE ( 'NONE', #337, #340, #91, .T. ) ;
#13 = EDGE_CURVE ( 'NONE', #338, #337, #101, .T. ) ;
#14 = EDGE_CURVE ( 'NONE', #330, #341, #100, .T. ) ;
#15 = EDGE_CURVE ( 'NONE', #330, #334, #104, .T. ) ;
#16 = EDGE_CURVE ( 'NONE', #334, #342, #103, .T. ) ;
#17 = EDGE_CURVE ( 'NONE', #339, #342, #102, .T. ) ;
#18 = EDGE_CURVE ( 'NONE', #344, #345, #107, .T. ) ;
#19 = EDGE_CURVE ( 'NONE', #343, #344, #110, .T. ) ;
#20 = EDGE_CURVE ( 'NONE', #343, #346, #106, .T. ) ;
#21 = EDGE_CURVE ( 'NONE', #339, #340, #112, .T. ) ;
#22 = AXIS2_PLACEMENT_3D ( 'NONE', #291, #288, #287 ) ;
#23 = AXIS2_PLACEMENT_3D ( 'NONE', #199, #200, #201 ) ;
#24 = AXIS2_PLACEMENT_3D ( 'NONE', #202, #276, #277 ) ;
#25 = AXIS2_PLACEMENT_3D ( 'NONE', #307, #306, #309 ) ;
#26 = AXIS2_PLACEMENT_3D ( 'NONE', #314, #194, #195 ) ;
#27 = EDGE_CURVE ( 'NONE', #340, #341, #111, .T. ) ;
#28 = EDGE_CURVE ( 'NONE', #341, #342, #114, .T. ) ;
#29 = EDGE_CURVE ( 'NONE', #337, #338, #116, .T. ) ;
#30 = EDGE_CURVE ( 'NONE', #344, #343, #118, .T. ) ;
#31 = EDGE_CURVE ( 'NONE', #334, #330, #120, .T. ) ;
#32 = EDGE_CURVE ( 'NONE', #345, #346, #122, .T. ) ;
#33 = AXIS2_PLACEMENT_3D ( 'NONE', #322, #324, #332 ) ;
#34 = AXIS2_PLACEMENT_3D ( 'NONE', #327, #187, #188 ) ;
#35 = AXIS2_PLACEMENT_3D ( 'NONE', #316, #317, #318 ) ;
#36 = AXIS2_PLACEMENT_3D ( 'NONE', #308, #205, #210 ) ;
#37 = CLOSED_SHELL ( 'NONE', ( #179, #181, #180, #183, #182, #177, #176, #175, #178, #184 ) ) ;
#38 = ORIENTED_EDGE ( 'NONE', *, *, #21, .F. ) ;
#39 = ORIENTED_EDGE ( 'NONE', *, *, #15, .F. ) ;
#40 = ORIENTED_EDGE ( 'NONE', *, *, #12, .T. ) ;
#41 = ORIENTED_EDGE ( 'NONE', *, *, #14, .T. ) ;
#42 = ORIENTED_EDGE ( 'NONE', *, *, #16, .F. ) ;
#43 = ORIENTED_EDGE ( 'NONE', *, *, #32, .F. ) ;
#44 = ORIENTED_EDGE ( 'NONE', *, *, #9, .F. ) ;
#45 = ORIENTED_EDGE ( 'NONE', *, *, #18, .T. ) ;
#46 = ORIENTED_EDGE ( 'NONE', *, *, #6, .F. ) ;
#47 = ORIENTED_EDGE ( 'NONE', *, *, #20, .F. ) ;
#48 = ORIENTED_EDGE ( 'NONE', *, *, #11, .T. ) ;
#49 = ORIENTED_EDGE ( 'NONE', *, *, #17, .T. ) ;
#50 = ORIENTED_EDGE ( 'NONE', *, *, #27, .F. ) ;
#51 = ORIENTED_EDGE ( 'NONE', *, *, #29, .T. ) ;
#52 = ORIENTED_EDGE ( 'NONE', *, *, #9, .T. ) ;
#53 = ORIENTED_EDGE ( 'NONE', *, *, #13, .T. ) ;
#54 = ORIENTED_EDGE ( 'NONE', *, *, #19, .F. ) ;
#55 = ORIENTED_EDGE ( 'NONE', *, *, #30, .F. ) ;
#56 = ORIENTED_EDGE ( 'NONE', *, *, #31, .T. ) ;
#57 = ORIENTED_EDGE ( 'NONE', *, *, #15, .T. ) ;
#58 = ORIENTED_EDGE ( 'NONE', *, *, #17, .F. ) ;
#59 = ORIENTED_EDGE ( 'NONE', *, *, #6, .T. ) ;
#60 = ORIENTED_EDGE ( 'NONE', *, *, #32, .T. ) ;
#61 = ORIENTED_EDGE ( 'NONE', *, *, #21, .T. ) ;
#62 = ORIENTED_EDGE ( 'NONE', *, *, #27, .T. ) ;
#63 = ORIENTED_EDGE ( 'NONE', *, *, #28, .T. ) ;
#64 = ORIENTED_EDGE ( 'NONE', *, *, #18, .F. ) ;
#65 = ORIENTED_EDGE ( 'NONE', *, *, #30, .T. ) ;
#66 = ORIENTED_EDGE ( 'NONE', *, *, #19, .T. ) ;
#67 = ORIENTED_EDGE ( 'NONE', *, *, #20, .T. ) ;
#68 = ORIENTED_EDGE ( 'NONE', *, *, #14, .F. ) ;
#69 = ORIENTED_EDGE ( 'NONE', *, *, #31, .F. ) ;
#70 = ORIENTED_EDGE ( 'NONE', *, *, #16, .T. ) ;
#71 = ORIENTED_EDGE ( 'NONE', *, *, #28, .F. ) ;
#72 = ORIENTED_EDGE ( 'NONE', *, *, #10, .F. ) ;
#73 = ORIENTED_EDGE ( 'NONE', *, *, #29, .F. ) ;
#74 = ORIENTED_EDGE ( 'NONE', *, *, #13, .F. ) ;
#75 = ORIENTED_EDGE ( 'NONE', *, *, #10, .T. ) ;
#76 = ORIENTED_EDGE ( 'NONE', *, *, #11, .F. ) ;
#77 = ORIENTED_EDGE ( 'NONE', *, *, #12, .F. ) ;
#78 = EDGE_LOOP ( 'NONE', ( #64, #65, #67, #43 ) ) ;
#79 = EDGE_LOOP ( 'NONE', ( #58, #61, #62, #63 ) ) ;
#80 = EDGE_LOOP ( 'NONE', ( #54, #55 ) ) ;
#81 = EDGE_LOOP ( 'NONE', ( #68, #69, #70, #71 ) ) ;
#82 = EDGE_LOOP ( 'NONE', ( #59, #60 ) ) ;
#83 = EDGE_LOOP ( 'NONE', ( #72, #73, #40, #38 ) ) ;
#84 = EDGE_LOOP ( 'NONE', ( #51, #53 ) ) ;
#85 = EDGE_LOOP ( 'NONE', ( #48, #49, #52, #50 ) ) ;
#86 = EDGE_LOOP ( 'NONE', ( #74, #75, #76, #77 ) ) ;
#87 = EDGE_LOOP ( 'NONE', ( #39, #41, #44, #42 ) ) ;
#88 = EDGE_LOOP ( 'NONE', ( #66, #45, #46, #47 ) ) ;
#89 = EDGE_LOOP ( 'NONE', ( #56, #57 ) ) ;
#90 = VECTOR ( 'NONE', #321, 1000.000000000000000 ) ;
#91 = LINE ( 'NONE', #320, #90 ) ;
#92 = VECTOR ( 'NONE', #315, 1000.000000000000000 ) ;
#93 = CIRCLE ( 'NONE', #4, 4.000000000000000000 ) ;
#94 = LINE ( 'NONE', #331, #92 ) ;
#95 = CIRCLE ( 'NONE', #8, 5.500000000000000000 ) ;
#96 = VECTOR ( 'NONE', #323, 1000.000000000000000 ) ;
#97 = VECTOR ( 'NONE', #190, 1000.000000000000000 ) ;
#98 = CIRCLE ( 'NONE', #35, 5.500000000000000000 ) ;
#99 = VECTOR ( 'NONE', #198, 1000.000000000000000 ) ;
#100 = LINE ( 'NONE', #319, #96 ) ;
#101 = CIRCLE ( 'NONE', #33, 5.000000000000000900 ) ;
#102 = LINE ( 'NONE', #189, #105 ) ;
#103 = LINE ( 'NONE', #326, #97 ) ;
#104 = CIRCLE ( 'NONE', #34, 5.000000000000008000 ) ;
#105 = VECTOR ( 'NONE', #191, 1000.000000000000000 ) ;
#106 = LINE ( 'NONE', #197, #99 ) ;
#107 = LINE ( 'NONE', #193, #108 ) ;
#108 = VECTOR ( 'NONE', #325, 1000.000000000000000 ) ;
#109 = VECTOR ( 'NONE', #274, 1000.000000000000000 ) ;
#110 = CIRCLE ( 'NONE', #26, 4.000000000000000000 ) ;
#111 = LINE ( 'NONE', #196, #109 ) ;
#112 = CIRCLE ( 'NONE', #23, 5.500000000000000000 ) ;
#113 = CYLINDRICAL_SURFACE ( 'NONE', #22, 4.000000000000000000 ) ;
#114 = CIRCLE ( 'NONE', #24, 5.500000000000000000 ) ;
#115 = FACE_OUTER_BOUND ( 'NONE', #78, .T. ) ;
#116 = CIRCLE ( 'NONE', #3, 5.000000000000000900 ) ;
#117 = FACE_OUTER_BOUND ( 'NONE', #81, .T. ) ;
#118 = CIRCLE ( 'NONE', #1, 4.000000000000000000 ) ;
#119 = FACE_OUTER_BOUND ( 'NONE', #84, .T. ) ;
#120 = CIRCLE ( 'NONE', #2, 5.000000000000008000 ) ;
#121 = FACE_OUTER_BOUND ( 'NONE', #79, .T. ) ;
#122 = CIRCLE ( 'NONE', #7, 4.000000000000000000 ) ;
#123 = FACE_OUTER_BOUND ( 'NONE', #89, .T. ) ;
#124 = FACE_OUTER_BOUND ( 'NONE', #88, .T. ) ;
#125 = CYLINDRICAL_SURFACE ( 'NONE', #271, 5.500000000000000000 ) ;
#126 = FACE_BOUND ( 'NONE', #82, .T. ) ;
#127 = FACE_OUTER_BOUND ( 'NONE', #86, .T. ) ;
#128 = FACE_OUTER_BOUND ( 'NONE', #87, .T. ) ;
#129 = CONICAL_SURFACE ( 'NONE', #5, 5.500000000000000000, 0.7853981633974466100 ) ;
#130 = CONICAL_SURFACE ( 'NONE', #335, 5.000000000000000900, 0.7853981633974466100 ) ;
#131 = FACE_OUTER_BOUND ( 'NONE', #85, .T. ) ;
#132 = CYLINDRICAL_SURFACE ( 'NONE', #25, 4.000000000000000000 ) ;
#133 = CONICAL_SURFACE ( 'NONE', #230, 5.500000000000000000, 0.7853981633974466100 ) ;
#134 = FACE_BOUND ( 'NONE', #80, .T. ) ;
#135 = FACE_OUTER_BOUND ( 'NONE', #83, .T. ) ;
#136 = CYLINDRICAL_SURFACE ( 'NONE', #36, 5.500000000000000000 ) ;
#137 = CONICAL_SURFACE ( 'NONE', #233, 5.000000000000000900, 0.7853981633974466100 ) ;
#138 =( GEOMETRIC_REPRESENTATION_CONTEXT ( 3 ) GLOBAL_UNCERTAINTY_ASSIGNED_CONTEXT ( ( #328 ) ) GLOBAL_UNIT_ASSIGNED_CONTEXT ( ( #223, #224, #225 ) ) REPRESENTATION_CONTEXT ( 'NONE', 'WORKASPACE' ) );
#139 = SHAPE_DEFINITION_REPRESENTATION ( #186, #329 ) ;
#140 = ORGANIZATION ( 'UNSPECIFIED', 'UNSPECIFIED', '' ) ;
#141 = PERSON_AND_ORGANIZATION ( #273, #140 ) ;
#142 = PERSON_AND_ORGANIZATION ( #273, #140 ) ;
#143 = APPROVAL_PERSON_ORGANIZATION ( #142, #236, #267 ) ;
#144 = COORDINATED_UNIVERSAL_TIME_OFFSET ( 3, 0, .AHEAD. ) ;
#145 = LOCAL_TIME ( 19, 23, 37.00000000000000000, #144 ) ;
#146 = CALENDAR_DATE ( 2017, 10, 1 ) ;
#147 = DATE_AND_TIME ( #146, #145 ) ;
#148 = APPROVAL_DATE_TIME ( #147, #236 ) ;
#149 = PERSON_AND_ORGANIZATION ( #273, #140 ) ;
#150 = COORDINATED_UNIVERSAL_TIME_OFFSET ( 3, 0, .AHEAD. ) ;
#151 = LOCAL_TIME ( 19, 23, 37.00000000000000000, #150 ) ;
#152 = CALENDAR_DATE ( 2017, 10, 1 ) ;
#153 = DATE_AND_TIME ( #152, #151 ) ;
#154 = PERSON_AND_ORGANIZATION ( #273, #140 ) ;
#155 = APPROVAL_PERSON_ORGANIZATION ( #154, #241, #252 ) ;
#156 = COORDINATED_UNIVERSAL_TIME_OFFSET ( 3, 0, .AHEAD. ) ;
#157 = LOCAL_TIME ( 19, 23, 37.00000000000000000, #156 ) ;
#158 = CALENDAR_DATE ( 2017, 10, 1 ) ;
#159 = DATE_AND_TIME ( #158, #157 ) ;
#160 = APPROVAL_DATE_TIME ( #159, #241 ) ;
#161 = PERSON_AND_ORGANIZATION ( #273, #140 ) ;
#162 = PERSON_AND_ORGANIZATION ( #273, #140 ) ;
#163 = PERSON_AND_ORGANIZATION ( #273, #140 ) ;
#164 = COORDINATED_UNIVERSAL_TIME_OFFSET ( 3, 0, .AHEAD. ) ;
#165 = LOCAL_TIME ( 19, 23, 37.00000000000000000, #164 ) ;
#166 = CALENDAR_DATE ( 2017, 10, 1 ) ;
#167 = DATE_AND_TIME ( #166, #165 ) ;
#168 = PERSON_AND_ORGANIZATION ( #273, #140 ) ;
#169 = APPROVAL_PERSON_ORGANIZATION ( #168, #248, #259 ) ;
#170 = COORDINATED_UNIVERSAL_TIME_OFFSET ( 3, 0, .AHEAD. ) ;
#171 = LOCAL_TIME ( 19, 23, 37.00000000000000000, #170 ) ;
#172 = CALENDAR_DATE ( 2017, 10, 1 ) ;
#173 = DATE_AND_TIME ( #172, #171 ) ;
#174 = APPROVAL_DATE_TIME ( #173, #248 ) ;
#175 = ADVANCED_FACE ( 'NONE', ( #115 ), #113, .F. ) ;
#176 = ADVANCED_FACE ( 'NONE', ( #121 ), #125, .T. ) ;
#177 = ADVANCED_FACE ( 'NONE', ( #123, #126 ), #297, .F. ) ;
#178 = ADVANCED_FACE ( 'NONE', ( #117 ), #129, .T. ) ;
#179 = ADVANCED_FACE ( 'NONE', ( #127 ), #130, .T. ) ;
#180 = ADVANCED_FACE ( 'NONE', ( #124 ), #132, .F. ) ;
#181 = ADVANCED_FACE ( 'NONE', ( #128 ), #133, .T. ) ;
#182 = ADVANCED_FACE ( 'NONE', ( #119, #134 ), #204, .T. ) ;
#183 = ADVANCED_FACE ( 'NONE', ( #131 ), #136, .T. ) ;
#184 = ADVANCED_FACE ( 'NONE', ( #135 ), #137, .T. ) ;
#185 = DESIGN_CONTEXT ( 'detailed design', #264, 'design' ) ;
#186 = PRODUCT_DEFINITION_SHAPE ( 'NONE', 'NONE',  #235 ) ;
#187 = DIRECTION ( 'NONE',  ( -0.0000000000000000000, -0.0000000000000000000, -1.000000000000000000 ) ) ;
#188 = DIRECTION ( 'NONE',  ( 1.000000000000000000, 0.0000000000000000000, 0.0000000000000000000 ) ) ;
#189 = CARTESIAN_POINT ( 'NONE',  ( 5.500000000000000000, 6.735557395310442000E-016, 40.00000000000000000 ) ) ;
#190 = DIRECTION ( 'NONE',  ( 0.7071067811865463500, 0.0000000000000000000, 0.7071067811865487900 ) ) ;
#191 = DIRECTION ( 'NONE',  ( -0.0000000000000000000, -0.0000000000000000000, -1.000000000000000000 ) ) ;
#192 = CARTESIAN_POINT ( 'NONE',  ( 0.0000000000000000000, 0.0000000000000000000, 40.00000000000000000 ) ) ;
#193 = CARTESIAN_POINT ( 'NONE',  ( 4.000000000000000000, 4.898587196589412800E-016, 40.00000000000000000 ) ) ;
#194 = DIRECTION ( 'NONE',  ( 0.0000000000000000000, 0.0000000000000000000, 1.000000000000000000 ) ) ;
#195 = DIRECTION ( 'NONE',  ( 1.000000000000000000, 0.0000000000000000000, 0.0000000000000000000 ) ) ;
#196 = CARTESIAN_POINT ( 'NONE',  ( -5.500000000000000000, 0.0000000000000000000, 40.00000000000000000 ) ) ;
#197 = CARTESIAN_POINT ( 'NONE',  ( -4.000000000000000000, 0.0000000000000000000, 40.00000000000000000 ) ) ;
#198 = DIRECTION ( 'NONE',  ( -0.0000000000000000000, -0.0000000000000000000, -1.000000000000000000 ) ) ;
#199 = CARTESIAN_POINT ( 'NONE',  ( 0.0000000000000000000, 0.0000000000000000000, 39.50000000000000000 ) ) ;
#200 = DIRECTION ( 'NONE',  ( 0.0000000000000000000, 0.0000000000000000000, -1.000000000000000000 ) ) ;
#201 = DIRECTION ( 'NONE',  ( 1.000000000000000000, 0.0000000000000000000, 0.0000000000000000000 ) ) ;
#202 = CARTESIAN_POINT ( 'NONE',  ( 0.0000000000000000000, 0.0000000000000000000, 0.4999999999999935100 ) ) ;
#203 = CARTESIAN_POINT ( 'NONE',  ( 0.0000000000000000000, 0.0000000000000000000, 40.00000000000000000 ) ) ;
#204 = PLANE ( 'NONE',  #231 ) ;
#205 = DIRECTION ( 'NONE',  ( -0.0000000000000000000, -0.0000000000000000000, -1.000000000000000000 ) ) ;
#206 = DIRECTION ( 'NONE',  ( 0.0000000000000000000, 0.0000000000000000000, 1.000000000000000000 ) ) ;
#207 = DIRECTION ( 'NONE',  ( 1.000000000000000000, 0.0000000000000000000, -0.0000000000000000000 ) ) ;
#208 = CARTESIAN_POINT ( 'NONE',  ( 5.000000000000008000, 0.0000000000000000000, 0.0000000000000000000 ) ) ;
#209 = CARTESIAN_POINT ( 'NONE',  ( -4.000000000000000000, 0.0000000000000000000, 40.00000000000000000 ) ) ;
#210 = DIRECTION ( 'NONE',  ( -1.000000000000000000, 0.0000000000000000000, 0.0000000000000000000 ) ) ;
#211 = CARTESIAN_POINT ( 'NONE',  ( -5.000000000000008000, 6.429395695523609100E-016, 0.0000000000000000000 ) ) ;
#212 = CARTESIAN_POINT ( 'NONE',  ( -5.500000000000000000, 0.0000000000000000000, 0.4999999999999935100 ) ) ;
#213 = DIRECTION ( 'NONE',  ( 0.0000000000000000000, 0.0000000000000000000, -1.000000000000000000 ) ) ;
#214 = DIRECTION ( 'NONE',  ( -1.000000000000000000, 0.0000000000000000000, 0.0000000000000000000 ) ) ;
#215 = CARTESIAN_POINT ( 'NONE',  ( -5.000000000000000900, 0.0000000000000000000, 40.00000000000000000 ) ) ;
#216 = CARTESIAN_POINT ( 'NONE',  ( 5.000000000000000900, 6.429395695523604200E-016, 40.00000000000000000 ) ) ;
#217 = CARTESIAN_POINT ( 'NONE',  ( 5.500000000000000000, 6.735557395310442000E-016, 39.50000000000000000 ) ) ;
#218 = CARTESIAN_POINT ( 'NONE',  ( -5.500000000000000000, 0.0000000000000000000, 39.50000000000000000 ) ) ;
#219 = CARTESIAN_POINT ( 'NONE',  ( 5.500000000000000000, 6.735557395310442000E-016, 0.4999999999999935100 ) ) ;
#220 = CARTESIAN_POINT ( 'NONE',  ( 4.000000000000000000, 4.898587196589412800E-016, 40.00000000000000000 ) ) ;
#221 = CARTESIAN_POINT ( 'NONE',  ( 4.000000000000000000, 4.898587196589412800E-016, 0.0000000000000000000 ) ) ;
#222 = CARTESIAN_POINT ( 'NONE',  ( -4.000000000000000000, 0.0000000000000000000, 0.0000000000000000000 ) ) ;
#223 =( LENGTH_UNIT ( ) NAMED_UNIT ( * ) SI_UNIT ( .MILLI., .METRE. ) );
#224 =( NAMED_UNIT ( * ) PLANE_ANGLE_UNIT ( ) SI_UNIT ( $, .RADIAN. ) );
#225 =( NAMED_UNIT ( * ) SI_UNIT ( $, .STERADIAN. ) SOLID_ANGLE_UNIT ( ) );
#226 = CARTESIAN_POINT ( 'NONE',  ( 0.0000000000000000000, 0.0000000000000000000, 0.0000000000000000000 ) ) ;
#227 = DIRECTION ( 'NONE',  ( 0.0000000000000000000, 0.0000000000000000000, 1.000000000000000000 ) ) ;
#228 = DIRECTION ( 'NONE',  ( 1.000000000000000000, 0.0000000000000000000, 0.0000000000000000000 ) ) ;
#229 = MANIFOLD_SOLID_BREP ( 'Ôàñêà1', #37 ) ;
#230 = AXIS2_PLACEMENT_3D ( 'NONE', #311, #310, #305 ) ;
#231 = AXIS2_PLACEMENT_3D ( 'NONE', #203, #206, #207 ) ;
#232 = CC_DESIGN_PERSON_AND_ORGANIZATION_ASSIGNMENT ( #141, #263, ( #272 ) ) ;
#233 = AXIS2_PLACEMENT_3D ( 'NONE', #292, #213, #214 ) ;
#234 = AXIS2_PLACEMENT_3D ( 'NONE', #226, #227, #228 ) ;
#235 = PRODUCT_DEFINITION ( 'UNKNOWN', '', #240, #185 ) ;
#236 = APPROVAL ( #266, 'UNSPECIFIED' ) ;
#237 = CC_DESIGN_APPROVAL ( #236, ( #235 ) ) ;
#238 = CC_DESIGN_PERSON_AND_ORGANIZATION_ASSIGNMENT ( #149, #268, ( #235 ) ) ;
#239 = CC_DESIGN_DATE_AND_TIME_ASSIGNMENT ( #153, #269, ( #235 ) ) ;
#240 = PRODUCT_DEFINITION_FORMATION_WITH_SPECIFIED_SOURCE ( 'ANY', '', #272, .NOT_KNOWN. ) ;
#241 = APPROVAL ( #270, 'UNSPECIFIED' ) ;
#242 = CC_DESIGN_APPROVAL ( #241, ( #240 ) ) ;
#243 = CC_DESIGN_PERSON_AND_ORGANIZATION_ASSIGNMENT ( #161, #253, ( #240 ) ) ;
#244 = CC_DESIGN_PERSON_AND_ORGANIZATION_ASSIGNMENT ( #162, #254, ( #240 ) ) ;
#245 = SECURITY_CLASSIFICATION ( '', '', #255 ) ;
#246 = CC_DESIGN_PERSON_AND_ORGANIZATION_ASSIGNMENT ( #163, #256, ( #245 ) ) ;
#247 = CC_DESIGN_DATE_AND_TIME_ASSIGNMENT ( #167, #257, ( #245 ) ) ;
#248 = APPROVAL ( #258, 'UNSPECIFIED' ) ;
#249 = CC_DESIGN_APPROVAL ( #248, ( #245 ) ) ;
#250 = CC_DESIGN_SECURITY_CLASSIFICATION ( #245, ( #240 ) ) ;
#251 = PRODUCT_RELATED_PRODUCT_CATEGORY ( 'detail', '', ( #272 ) ) ;
#252 = APPROVAL_ROLE ( '' ) ;
#253 = PERSON_AND_ORGANIZATION_ROLE ( 'creator' ) ;
#254 = PERSON_AND_ORGANIZATION_ROLE ( 'design_supplier' ) ;
#255 = SECURITY_CLASSIFICATION_LEVEL ( 'unclassified' ) ;
#256 = PERSON_AND_ORGANIZATION_ROLE ( 'classification_officer' ) ;
#257 = DATE_TIME_ROLE ( 'classification_date' ) ;
#258 = APPROVAL_STATUS ( 'not_yet_approved' ) ;
#259 = APPROVAL_ROLE ( '' ) ;
#260 = APPLICATION_CONTEXT ( 'configuration controlled 3d designs of mechanical parts and assemblies' ) ;
#261 = APPLICATION_PROTOCOL_DEFINITION ( 'international standard', 'config_control_design', 1994, #260 ) ;
#262 = MECHANICAL_CONTEXT ( 'NONE', #260, 'mechanical' ) ;
#263 = PERSON_AND_ORGANIZATION_ROLE ( 'design_owner' ) ;
#264 = APPLICATION_CONTEXT ( 'configuration controlled 3d designs of mechanical parts and assemblies' ) ;
#265 = APPLICATION_PROTOCOL_DEFINITION ( 'international standard', 'config_control_design', 1994, #264 ) ;
#266 = APPROVAL_STATUS ( 'not_yet_approved' ) ;
#267 = APPROVAL_ROLE ( '' ) ;
#268 = PERSON_AND_ORGANIZATION_ROLE ( 'creator' ) ;
#269 = DATE_TIME_ROLE ( 'creation_date' ) ;
#270 = APPROVAL_STATUS ( 'not_yet_approved' ) ;
#271 = AXIS2_PLACEMENT_3D ( 'NONE', #294, #293, #296 ) ;
#272 = PRODUCT ( 'Ãèëüçà ìåäíàÿ GT-25-8 (ÃÌ) EKF', 'Ãèëüçà ìåäíàÿ GT-25-8 (ÃÌ) EKF', '', ( #262 ) ) ;
#273 = PERSON ( 'UNSPECIFIED', 'UNSPECIFIED', 'UNSPECIFIED', ('UNSPECIFIED'), ('UNSPECIFIED'), ('UNSPECIFIED') ) ;
#274 = DIRECTION ( 'NONE',  ( -0.0000000000000000000, -0.0000000000000000000, -1.000000000000000000 ) ) ;
#275 = CARTESIAN_POINT ( 'NONE',  ( 0.0000000000000000000, 0.0000000000000000000, 40.00000000000000000 ) ) ;
#276 = DIRECTION ( 'NONE',  ( -0.0000000000000000000, -0.0000000000000000000, 1.000000000000000000 ) ) ;
#277 = DIRECTION ( 'NONE',  ( 1.000000000000000000, 0.0000000000000000000, 0.0000000000000000000 ) ) ;
#278 = CARTESIAN_POINT ( 'NONE',  ( 0.0000000000000000000, 0.0000000000000000000, 0.0000000000000000000 ) ) ;
#279 = DIRECTION ( 'NONE',  ( 0.0000000000000000000, 0.0000000000000000000, 1.000000000000000000 ) ) ;
#280 = DIRECTION ( 'NONE',  ( 1.000000000000000000, 0.0000000000000000000, 0.0000000000000000000 ) ) ;
#281 = CARTESIAN_POINT ( 'NONE',  ( 0.0000000000000000000, 0.0000000000000000000, 0.0000000000000000000 ) ) ;
#282 = DIRECTION ( 'NONE',  ( 0.0000000000000000000, 0.0000000000000000000, 1.000000000000000000 ) ) ;
#283 = DIRECTION ( 'NONE',  ( 1.000000000000000000, 0.0000000000000000000, 0.0000000000000000000 ) ) ;
#284 = CARTESIAN_POINT ( 'NONE',  ( 0.0000000000000000000, 0.0000000000000000000, 0.4999999999999935100 ) ) ;
#285 = DIRECTION ( 'NONE',  ( -0.0000000000000000000, -0.0000000000000000000, -1.000000000000000000 ) ) ;
#286 = DIRECTION ( 'NONE',  ( 1.000000000000000000, 0.0000000000000000000, 0.0000000000000000000 ) ) ;
#287 = DIRECTION ( 'NONE',  ( -1.000000000000000000, 0.0000000000000000000, 0.0000000000000000000 ) ) ;
#288 = DIRECTION ( 'NONE',  ( -0.0000000000000000000, -0.0000000000000000000, -1.000000000000000000 ) ) ;
#289 = DIRECTION ( 'NONE',  ( 0.0000000000000000000, 0.0000000000000000000, 1.000000000000000000 ) ) ;
#290 = DIRECTION ( 'NONE',  ( 1.000000000000000000, 0.0000000000000000000, 0.0000000000000000000 ) ) ;
#291 = CARTESIAN_POINT ( 'NONE',  ( 0.0000000000000000000, 0.0000000000000000000, 40.00000000000000000 ) ) ;
#292 = CARTESIAN_POINT ( 'NONE',  ( 0.0000000000000000000, 0.0000000000000000000, 40.00000000000000000 ) ) ;
#293 = DIRECTION ( 'NONE',  ( -0.0000000000000000000, -0.0000000000000000000, -1.000000000000000000 ) ) ;
#294 = CARTESIAN_POINT ( 'NONE',  ( 0.0000000000000000000, 0.0000000000000000000, 40.00000000000000000 ) ) ;
#295 = DIRECTION ( 'NONE',  ( 0.0000000000000000000, 0.0000000000000000000, -1.000000000000000000 ) ) ;
#296 = DIRECTION ( 'NONE',  ( -1.000000000000000000, 0.0000000000000000000, 0.0000000000000000000 ) ) ;
#297 = PLANE ( 'NONE',  #336 ) ;
#298 = CARTESIAN_POINT ( 'NONE',  ( 0.0000000000000000000, 0.0000000000000000000, 40.00000000000000000 ) ) ;
#299 = CARTESIAN_POINT ( 'NONE',  ( 0.0000000000000000000, 0.0000000000000000000, 0.0000000000000000000 ) ) ;
#300 = DIRECTION ( 'NONE',  ( 0.0000000000000000000, 0.0000000000000000000, 1.000000000000000000 ) ) ;
#301 = DIRECTION ( 'NONE',  ( 1.000000000000000000, 0.0000000000000000000, -0.0000000000000000000 ) ) ;
#302 = DIRECTION ( 'NONE',  ( -1.000000000000000000, 0.0000000000000000000, 0.0000000000000000000 ) ) ;
#303 = DIRECTION ( 'NONE',  ( -0.0000000000000000000, -0.0000000000000000000, 1.000000000000000000 ) ) ;
#304 = DIRECTION ( 'NONE',  ( 1.000000000000000000, 0.0000000000000000000, 0.0000000000000000000 ) ) ;
#305 = DIRECTION ( 'NONE',  ( 1.000000000000000000, 0.0000000000000000000, 0.0000000000000000000 ) ) ;
#306 = DIRECTION ( 'NONE',  ( -0.0000000000000000000, -0.0000000000000000000, -1.000000000000000000 ) ) ;
#307 = CARTESIAN_POINT ( 'NONE',  ( 0.0000000000000000000, 0.0000000000000000000, 40.00000000000000000 ) ) ;
#308 = CARTESIAN_POINT ( 'NONE',  ( 0.0000000000000000000, 0.0000000000000000000, 40.00000000000000000 ) ) ;
#309 = DIRECTION ( 'NONE',  ( -1.000000000000000000, 0.0000000000000000000, 0.0000000000000000000 ) ) ;
#310 = DIRECTION ( 'NONE',  ( -0.0000000000000000000, -0.0000000000000000000, 1.000000000000000000 ) ) ;
#311 = CARTESIAN_POINT ( 'NONE',  ( 0.0000000000000000000, 0.0000000000000000000, 0.4999999999999935100 ) ) ;
#312 = DIRECTION ( 'NONE',  ( -0.0000000000000000000, -0.0000000000000000000, 1.000000000000000000 ) ) ;
#313 = DIRECTION ( 'NONE',  ( 1.000000000000000000, 0.0000000000000000000, 0.0000000000000000000 ) ) ;
#314 = CARTESIAN_POINT ( 'NONE',  ( 0.0000000000000000000, 0.0000000000000000000, 40.00000000000000000 ) ) ;
#315 = DIRECTION ( 'NONE',  ( 0.7071067811865463500, 8.659560562354919300E-017, -0.7071067811865487900 ) ) ;
#316 = CARTESIAN_POINT ( 'NONE',  ( 0.0000000000000000000, 0.0000000000000000000, 39.50000000000000000 ) ) ;
#317 = DIRECTION ( 'NONE',  ( 0.0000000000000000000, 0.0000000000000000000, -1.000000000000000000 ) ) ;
#318 = DIRECTION ( 'NONE',  ( 1.000000000000000000, 0.0000000000000000000, 0.0000000000000000000 ) ) ;
#319 = CARTESIAN_POINT ( 'NONE',  ( -5.500000000000000000, 6.735557395310442000E-016, 0.4999999999999935100 ) ) ;
#320 = CARTESIAN_POINT ( 'NONE',  ( -5.000000000000000900, 0.0000000000000000000, 40.00000000000000000 ) ) ;
#321 = DIRECTION ( 'NONE',  ( -0.7071067811865463500, 0.0000000000000000000, -0.7071067811865487900 ) ) ;
#322 = CARTESIAN_POINT ( 'NONE',  ( 0.0000000000000000000, 0.0000000000000000000, 40.00000000000000000 ) ) ;
#323 = DIRECTION ( 'NONE',  ( -0.7071067811865463500, 8.659560562354918100E-017, 0.7071067811865487900 ) ) ;
#324 = DIRECTION ( 'NONE',  ( 0.0000000000000000000, 0.0000000000000000000, 1.000000000000000000 ) ) ;
#325 = DIRECTION ( 'NONE',  ( -0.0000000000000000000, -0.0000000000000000000, -1.000000000000000000 ) ) ;
#326 = CARTESIAN_POINT ( 'NONE',  ( 5.500000000000000000, 0.0000000000000000000, 0.4999999999999935100 ) ) ;
#327 = CARTESIAN_POINT ( 'NONE',  ( 0.0000000000000000000, 0.0000000000000000000, 0.0000000000000000000 ) ) ;
#328 = UNCERTAINTY_MEASURE_WITH_UNIT (LENGTH_MEASURE( 1.000000000000000100E-005 ), #223, 'distance_accuracy_value', 'NONE');
#329 = ADVANCED_BREP_SHAPE_REPRESENTATION ( 'Ãèëüçà ìåäíàÿ GT-25-8 (ÃÌ) EKF', ( #229, #234 ), #138 ) ;
#330 = VERTEX_POINT ( 'NONE', #211 ) ;
#331 = CARTESIAN_POINT ( 'NONE',  ( 5.000000000000000900, 6.123233995736767300E-016, 40.00000000000000000 ) ) ;
#332 = DIRECTION ( 'NONE',  ( 1.000000000000000000, 0.0000000000000000000, 0.0000000000000000000 ) ) ;
#333 = CARTESIAN_POINT ( 'NONE',  ( 0.0000000000000000000, 0.0000000000000000000, 0.0000000000000000000 ) ) ;
#334 = VERTEX_POINT ( 'NONE', #208 ) ;
#335 = AXIS2_PLACEMENT_3D ( 'NONE', #298, #295, #302 ) ;
#336 = AXIS2_PLACEMENT_3D ( 'NONE', #299, #300, #301 ) ;
#337 = VERTEX_POINT ( 'NONE', #215 ) ;
#338 = VERTEX_POINT ( 'NONE', #216 ) ;
#339 = VERTEX_POINT ( 'NONE', #217 ) ;
#340 = VERTEX_POINT ( 'NONE', #218 ) ;
#341 = VERTEX_POINT ( 'NONE', #212 ) ;
#342 = VERTEX_POINT ( 'NONE', #219 ) ;
#343 = VERTEX_POINT ( 'NONE', #209 ) ;
#344 = VERTEX_POINT ( 'NONE', #220 ) ;
#345 = VERTEX_POINT ( 'NONE', #221 ) ;
#346 = VERTEX_POINT ( 'NONE', #222 ) ;
#347 = DIRECTION ( 'NONE',  ( 0.0000000000000000000, 0.0000000000000000000, 1.000000000000000000 ) ) ;
#348 = DIRECTION ( 'NONE',  ( 1.000000000000000000, 0.0000000000000000000, 0.0000000000000000000 ) ) ;
#349 = CARTESIAN_POINT ( 'NONE',  ( 0.0000000000000000000, 0.0000000000000000000, 0.4999999999999935100 ) ) ;
ENDSEC;
END-ISO-10303-21;
