ISO-10303-21;
HEADER;
FILE_DESCRIPTION (( 'STEP AP203' ),
    '1' );
FILE_NAME ('Êðûøêà íà îòâåòâèòåëü Ò-îáðàçíûé âåðòèêàëüíûé áîêîâîé TDS_38325.STEP',
    '2012-11-09T08:44:37',
    ( 'Àñååâ' ),
    ( '' ),
    'SwSTEP 2.0',
    'SolidWorks 2012',
    '' );
FILE_SCHEMA (( 'CONFIG_CONTROL_DESIGN' ));
ENDSEC;

DATA;
#1 = DIRECTION ( 'NONE',  ( -1.000000000000000000, 0.0000000000000000000, 0.0000000000000000000 ) ) ;
#2 = CARTESIAN_POINT ( 'NONE',  ( 151.0000000000000000, 0.0000000000000000000, 560.0000000000000000 ) ) ;
#3 = APPROVAL_STATUS ( 'not_yet_approved' ) ;
#4 = CARTESIAN_POINT ( 'NONE',  ( 151.0000000000000000, 0.0000000000000000000, 560.0000000000000000 ) ) ;
#5 = APPROVAL_ROLE ( '' ) ;
#6 = CARTESIAN_POINT ( 'NONE',  ( 1.734723475976807100E-015, 0.8000000000000000400, 17.49999999999999600 ) ) ;
#7 = CARTESIAN_POINT ( 'NONE',  ( 151.0000000000000000, 0.0000000000000000000, 0.0000000000000000000 ) ) ;
#8 = CARTESIAN_POINT ( 'NONE',  ( -151.0000000000000000, 0.0000000000000000000, 560.0000000000000000 ) ) ;
#9 = CARTESIAN_POINT ( 'NONE',  ( 151.0000000000000000, -14.00000000000000000, 560.0000000000000000 ) ) ;
#10 = DIRECTION ( 'NONE',  ( 0.0000000000000000000, 1.000000000000000000, 0.0000000000000000000 ) ) ;
#11 = CARTESIAN_POINT ( 'NONE',  ( -151.7999999999999800, 0.8000000000000000400, 0.0000000000000000000 ) ) ;
#12 = CARTESIAN_POINT ( 'NONE',  ( -151.0000000000000000, 0.0000000000000000000, 560.0000000000000000 ) ) ;
#13 = DIRECTION ( 'NONE',  ( -0.0000000000000000000, 0.0000000000000000000, -1.000000000000000000 ) ) ;
#14 = DIRECTION ( 'NONE',  ( 1.000000000000000000, 0.0000000000000000000, -0.0000000000000000000 ) ) ;
#15 = CARTESIAN_POINT ( 'NONE',  ( -151.0000000000000000, -14.00000000000000000, 560.0000000000000000 ) ) ;
#16 = DIRECTION ( 'NONE',  ( -0.0000000000000000000, 1.000000000000000000, -0.0000000000000000000 ) ) ;
#17 = PLANE ( 'NONE',  #204 ) ;
#18 = PLANE ( 'NONE',  #177 ) ;
#19 = DIRECTION ( 'NONE',  ( 0.0000000000000000000, 0.0000000000000000000, 1.000000000000000000 ) ) ;
#20 = CARTESIAN_POINT ( 'NONE',  ( 151.7999999999999800, -14.00000000000000000, 560.0000000000000000 ) ) ;
#21 = DIRECTION ( 'NONE',  ( -1.000000000000000000, 0.0000000000000000000, 0.0000000000000000000 ) ) ;
#22 = PLANE ( 'NONE',  #171 ) ;
#23 = PLANE ( 'NONE',  #186 ) ;
#24 = CARTESIAN_POINT ( 'NONE',  ( -151.0000000000000000, 0.0000000000000000000, 560.0000000000000000 ) ) ;
#25 = DIRECTION ( 'NONE',  ( 0.0000000000000000000, 1.000000000000000000, 0.0000000000000000000 ) ) ;
#26 = CARTESIAN_POINT ( 'NONE',  ( -151.7999999999999800, -14.00000000000000000, 560.0000000000000000 ) ) ;
#27 = CARTESIAN_POINT ( 'NONE',  ( -151.0000000000000000, -14.00000000000000000, 0.0000000000000000000 ) ) ;
#28 =( LENGTH_UNIT ( ) NAMED_UNIT ( * ) SI_UNIT ( .MILLI., .METRE. ) );
#29 = CARTESIAN_POINT ( 'NONE',  ( -151.7999999999999800, 0.8000000000000000400, 560.0000000000000000 ) ) ;
#30 = CARTESIAN_POINT ( 'NONE',  ( 151.7999999999999800, 0.8000000000000000400, 0.0000000000000000000 ) ) ;
#31 = CARTESIAN_POINT ( 'NONE',  ( -151.7999999999999800, 0.0000000000000000000, 560.0000000000000000 ) ) ;
#32 = CARTESIAN_POINT ( 'NONE',  ( -151.0000000000000000, -14.00000000000000000, 560.0000000000000000 ) ) ;
#33 = CARTESIAN_POINT ( 'NONE',  ( -151.7999999999999800, -14.00000000000000000, 0.0000000000000000000 ) ) ;
#34 = DIRECTION ( 'NONE',  ( 0.0000000000000000000, -1.000000000000000000, 0.0000000000000000000 ) ) ;
#35 = CARTESIAN_POINT ( 'NONE',  ( -151.0000000000000000, -14.00000000000000000, 0.0000000000000000000 ) ) ;
#36 = DIRECTION ( 'NONE',  ( 0.0000000000000000000, 1.000000000000000000, 0.0000000000000000000 ) ) ;
#37 = CARTESIAN_POINT ( 'NONE',  ( 1.734723475976807100E-015, 0.8000000000000000400, 14.99999999999999300 ) ) ;
#38 = APPLICATION_PROTOCOL_DEFINITION ( 'international standard', 'config_control_design', 1994, #131 ) ;
#39 = CARTESIAN_POINT ( 'NONE',  ( 2.653208575337321100E-015, 0.0000000000000000000, 547.5000000000001100 ) ) ;
#40 = CARTESIAN_POINT ( 'NONE',  ( 1.734723475976807100E-015, -14.00099999999999900, 14.99999999999999300 ) ) ;
#41 = APPROVAL_STATUS ( 'not_yet_approved' ) ;
#42 = APPLICATION_PROTOCOL_DEFINITION ( 'international standard', 'config_control_design', 1994, #126 ) ;
#43 = DIRECTION ( 'NONE',  ( 0.0000000000000000000, -0.0000000000000000000, -1.000000000000000000 ) ) ;
#44 = PERSON_AND_ORGANIZATION_ROLE ( 'creator' ) ;
#45 = CARTESIAN_POINT ( 'NONE',  ( 151.7999999999999800, 0.8000000000000000400, 560.0000000000000000 ) ) ;
#46 = PLANE ( 'NONE',  #167 ) ;
#47 = DIRECTION ( 'NONE',  ( 0.0000000000000000000, -1.000000000000000000, 0.0000000000000000000 ) ) ;
#48 = PLANE ( 'NONE',  #176 ) ;
#49 = CARTESIAN_POINT ( 'NONE',  ( 151.7999999999999800, 0.0000000000000000000, 560.0000000000000000 ) ) ;
#50 = DIRECTION ( 'NONE',  ( -0.0000000000000000000, 1.000000000000000000, -0.0000000000000000000 ) ) ;
#51 = PLANE ( 'NONE',  #164 ) ;
#52 = DIRECTION ( 'NONE',  ( 0.0000000000000000000, -0.0000000000000000000, 1.000000000000000000 ) ) ;
#53 = DIRECTION ( 'NONE',  ( 1.000000000000000000, 0.0000000000000000000, 0.0000000000000000000 ) ) ;
#54 = CARTESIAN_POINT ( 'NONE',  ( 151.7999999999999800, -14.00000000000000000, 0.0000000000000000000 ) ) ;
#55 = DIRECTION ( 'NONE',  ( 1.000000000000000000, 0.0000000000000000000, 0.0000000000000000000 ) ) ;
#56 = DIRECTION ( 'NONE',  ( 0.0000000000000000000, 0.0000000000000000000, 1.000000000000000000 ) ) ;
#57 = DIRECTION ( 'NONE',  ( -0.0000000000000000000, -1.000000000000000000, -0.0000000000000000000 ) ) ;
#58 = DIRECTION ( 'NONE',  ( 0.0000000000000000000, -0.0000000000000000000, 1.000000000000000000 ) ) ;
#59 = CARTESIAN_POINT ( 'NONE',  ( 1.734723475976807100E-015, 0.0000000000000000000, 14.99999999999999300 ) ) ;
#60 = DIRECTION ( 'NONE',  ( 0.0000000000000000000, -1.000000000000000000, 0.0000000000000000000 ) ) ;
#61 = DIRECTION ( 'NONE',  ( -0.0000000000000000000, 1.000000000000000000, -0.0000000000000000000 ) ) ;
#62 = DIRECTION ( 'NONE',  ( -0.0000000000000000000, -0.0000000000000000000, -1.000000000000000000 ) ) ;
#63 = CARTESIAN_POINT ( 'NONE',  ( -151.0000000000000000, 0.0000000000000000000, 0.0000000000000000000 ) ) ;
#64 = DIRECTION ( 'NONE',  ( 0.0000000000000000000, 0.0000000000000000000, 1.000000000000000000 ) ) ;
#65 = CARTESIAN_POINT ( 'NONE',  ( -151.0000000000000000, 0.0000000000000000000, 560.0000000000000000 ) ) ;
#66 = CARTESIAN_POINT ( 'NONE',  ( 151.7999999999999800, -14.00000000000000000, 560.0000000000000000 ) ) ;
#67 = DIRECTION ( 'NONE',  ( -0.0000000000000000000, 1.000000000000000000, -0.0000000000000000000 ) ) ;
#68 = CARTESIAN_POINT ( 'NONE',  ( -151.0000000000000000, 0.0000000000000000000, 0.0000000000000000000 ) ) ;
#69 = DIRECTION ( 'NONE',  ( 0.0000000000000000000, -0.0000000000000000000, -1.000000000000000000 ) ) ;
#70 = DIRECTION ( 'NONE',  ( -1.000000000000000000, 0.0000000000000000000, 0.0000000000000000000 ) ) ;
#71 = DIRECTION ( 'NONE',  ( -0.0000000000000000000, 0.0000000000000000000, -1.000000000000000000 ) ) ;
#72 = DIRECTION ( 'NONE',  ( 1.000000000000000000, 0.0000000000000000000, -0.0000000000000000000 ) ) ;
#73 = DIRECTION ( 'NONE',  ( -1.000000000000000000, 0.0000000000000000000, 0.0000000000000000000 ) ) ;
#74 = PLANE ( 'NONE',  #169 ) ;
#75 = DIRECTION ( 'NONE',  ( -0.0000000000000000000, -0.0000000000000000000, -1.000000000000000000 ) ) ;
#76 = PLANE ( 'NONE',  #175 ) ;
#77 = CARTESIAN_POINT ( 'NONE',  ( 1.734723475976807100E-015, 0.0000000000000000000, 17.49999999999999600 ) ) ;
#78 = DIRECTION ( 'NONE',  ( -0.0000000000000000000, 0.0000000000000000000, -1.000000000000000000 ) ) ;
#79 = DIRECTION ( 'NONE',  ( -0.0000000000000000000, 0.0000000000000000000, -1.000000000000000000 ) ) ;
#80 = CARTESIAN_POINT ( 'NONE',  ( -151.0000000000000000, -14.00000000000000000, 560.0000000000000000 ) ) ;
#81 = CARTESIAN_POINT ( 'NONE',  ( 0.0000000000000000000, 0.0000000000000000000, 0.0000000000000000000 ) ) ;
#82 = CARTESIAN_POINT ( 'NONE',  ( 0.0000000000000000000, 0.0000000000000000000, 560.0000000000000000 ) ) ;
#83 = CARTESIAN_POINT ( 'NONE',  ( 151.7999999999999800, 0.0000000000000000000, 560.0000000000000000 ) ) ;
#84 = CARTESIAN_POINT ( 'NONE',  ( -151.0000000000000000, 0.0000000000000000000, 0.0000000000000000000 ) ) ;
#85 = DIRECTION ( 'NONE',  ( -1.000000000000000000, 0.0000000000000000000, 0.0000000000000000000 ) ) ;
#86 = DIRECTION ( 'NONE',  ( 0.0000000000000000000, 0.0000000000000000000, 1.000000000000000000 ) ) ;
#87 = CARTESIAN_POINT ( 'NONE',  ( 151.7999999999999800, 0.8000000000000000400, 560.0000000000000000 ) ) ;
#88 = DIRECTION ( 'NONE',  ( -1.000000000000000000, 0.0000000000000000000, 0.0000000000000000000 ) ) ;
#89 = CARTESIAN_POINT ( 'NONE',  ( 151.0000000000000000, 0.0000000000000000000, 0.0000000000000000000 ) ) ;
#90 = DIRECTION ( 'NONE',  ( -0.0000000000000000000, -0.0000000000000000000, -1.000000000000000000 ) ) ;
#91 = CARTESIAN_POINT ( 'NONE',  ( 0.0000000000000000000, 0.0000000000000000000, 0.0000000000000000000 ) ) ;
#92 = PLANE ( 'NONE',  #178 ) ;
#93 = DIRECTION ( 'NONE',  ( -1.000000000000000000, 0.0000000000000000000, 0.0000000000000000000 ) ) ;
#94 = CARTESIAN_POINT ( 'NONE',  ( -151.0000000000000000, 0.0000000000000000000, 560.0000000000000000 ) ) ;
#95 = DIRECTION ( 'NONE',  ( -0.0000000000000000000, -1.000000000000000000, -0.0000000000000000000 ) ) ;
#96 = CARTESIAN_POINT ( 'NONE',  ( 2.653208575337321100E-015, 0.0000000000000000000, 545.0000000000000000 ) ) ;
#97 = CARTESIAN_POINT ( 'NONE',  ( 151.7999999999999800, -14.00000000000000000, 560.0000000000000000 ) ) ;
#98 = DIRECTION ( 'NONE',  ( 0.0000000000000000000, 0.0000000000000000000, 1.000000000000000000 ) ) ;
#99 = CARTESIAN_POINT ( 'NONE',  ( 151.7999999999999800, -14.00000000000000000, 560.0000000000000000 ) ) ;
#100 = DIRECTION ( 'NONE',  ( 1.000000000000000000, 0.0000000000000000000, 0.0000000000000000000 ) ) ;
#101 = DIRECTION ( 'NONE',  ( 0.0000000000000000000, 0.0000000000000000000, 1.000000000000000000 ) ) ;
#102 = DIRECTION ( 'NONE',  ( 0.0000000000000000000, 0.0000000000000000000, -1.000000000000000000 ) ) ;
#103 = CARTESIAN_POINT ( 'NONE',  ( -151.0000000000000000, 0.8000000000000000400, 560.0000000000000000 ) ) ;
#104 = DIRECTION ( 'NONE',  ( -0.0000000000000000000, -0.0000000000000000000, -1.000000000000000000 ) ) ;
#105 = CARTESIAN_POINT ( 'NONE',  ( 151.0000000000000000, 0.0000000000000000000, 560.0000000000000000 ) ) ;
#106 = DIRECTION ( 'NONE',  ( 0.0000000000000000000, -1.000000000000000000, 0.0000000000000000000 ) ) ;
#107 = CARTESIAN_POINT ( 'NONE',  ( -151.7999999999999800, 0.0000000000000000000, 0.0000000000000000000 ) ) ;
#108 = DIRECTION ( 'NONE',  ( -0.0000000000000000000, -0.0000000000000000000, -1.000000000000000000 ) ) ;
#109 = CARTESIAN_POINT ( 'NONE',  ( -151.0000000000000000, 0.8000000000000000400, 560.0000000000000000 ) ) ;
#110 = DIRECTION ( 'NONE',  ( 1.000000000000000000, 0.0000000000000000000, 0.0000000000000000000 ) ) ;
#111 = CARTESIAN_POINT ( 'NONE',  ( -151.7999999999999800, 0.0000000000000000000, 560.0000000000000000 ) ) ;
#112 =( NAMED_UNIT ( * ) SI_UNIT ( $, .STERADIAN. ) SOLID_ANGLE_UNIT ( ) );
#113 = CARTESIAN_POINT ( 'NONE',  ( -151.7999999999999800, -14.00000000000000000, 560.0000000000000000 ) ) ;
#114 = DIRECTION ( 'NONE',  ( 0.0000000000000000000, 1.000000000000000000, 0.0000000000000000000 ) ) ;
#115 = DIRECTION ( 'NONE',  ( -0.0000000000000000000, -0.0000000000000000000, -1.000000000000000000 ) ) ;
#116 = CARTESIAN_POINT ( 'NONE',  ( -151.0000000000000000, 0.0000000000000000000, 560.0000000000000000 ) ) ;
#117 = CARTESIAN_POINT ( 'NONE',  ( -151.7999999999999800, 0.8000000000000000400, 560.0000000000000000 ) ) ;
#118 = DIRECTION ( 'NONE',  ( -1.000000000000000000, 0.0000000000000000000, 0.0000000000000000000 ) ) ;
#119 = DIRECTION ( 'NONE',  ( -0.0000000000000000000, -0.0000000000000000000, -1.000000000000000000 ) ) ;
#120 =( NAMED_UNIT ( * ) PLANE_ANGLE_UNIT ( ) SI_UNIT ( $, .RADIAN. ) );
#121 = CARTESIAN_POINT ( 'NONE',  ( 151.0000000000000000, 0.0000000000000000000, 560.0000000000000000 ) ) ;
#122 = CARTESIAN_POINT ( 'NONE',  ( -151.0000000000000000, 0.8000000000000000400, 0.0000000000000000000 ) ) ;
#123 = DIRECTION ( 'NONE',  ( -0.0000000000000000000, 1.000000000000000000, -0.0000000000000000000 ) ) ;
#124 = APPROVAL_ROLE ( '' ) ;
#125 = CARTESIAN_POINT ( 'NONE',  ( 2.653208575337321100E-015, 0.8000000000000000400, 545.0000000000000000 ) ) ;
#126 = APPLICATION_CONTEXT ( 'configuration controlled 3d designs of mechanical parts and assemblies' ) ;
#127 = DIRECTION ( 'NONE',  ( 1.000000000000000000, 0.0000000000000000000, 0.0000000000000000000 ) ) ;
#128 = MECHANICAL_CONTEXT ( 'NONE', #131, 'mechanical' ) ;
#129 = PERSON_AND_ORGANIZATION_ROLE ( 'design_owner' ) ;
#130 = DIRECTION ( 'NONE',  ( -0.0000000000000000000, -1.000000000000000000, 0.0000000000000000000 ) ) ;
#131 = APPLICATION_CONTEXT ( 'configuration controlled 3d designs of mechanical parts and assemblies' ) ;
#132 = CARTESIAN_POINT ( 'NONE',  ( 151.0000000000000000, -14.00000000000000000, 560.0000000000000000 ) ) ;
#133 = DIRECTION ( 'NONE',  ( -0.0000000000000000000, -0.0000000000000000000, -1.000000000000000000 ) ) ;
#134 = CARTESIAN_POINT ( 'NONE',  ( 2.653208575337321100E-015, 0.8000000000000000400, 542.5000000000000000 ) ) ;
#135 = CARTESIAN_POINT ( 'NONE',  ( -151.0000000000000000, -14.00000000000000000, 560.0000000000000000 ) ) ;
#136 = DIRECTION ( 'NONE',  ( 0.0000000000000000000, 1.000000000000000000, 0.0000000000000000000 ) ) ;
#137 = DIRECTION ( 'NONE',  ( 0.0000000000000000000, 0.0000000000000000000, 1.000000000000000000 ) ) ;
#138 = DIRECTION ( 'NONE',  ( 0.0000000000000000000, 0.0000000000000000000, 1.000000000000000000 ) ) ;
#139 = CARTESIAN_POINT ( 'NONE',  ( 151.0000000000000000, -14.00000000000000000, 0.0000000000000000000 ) ) ;
#140 = CARTESIAN_POINT ( 'NONE',  ( 151.7999999999999800, -14.00000000000000000, 0.0000000000000000000 ) ) ;
#141 = CARTESIAN_POINT ( 'NONE',  ( 151.7999999999999800, 0.0000000000000000000, 0.0000000000000000000 ) ) ;
#142 = CARTESIAN_POINT ( 'NONE',  ( 2.653208575337321100E-015, -14.00099999999999900, 545.0000000000000000 ) ) ;
#143 = PERSON_AND_ORGANIZATION_ROLE ( 'creator' ) ;
#144 = DATE_TIME_ROLE ( 'creation_date' ) ;
#145 = DIRECTION ( 'NONE',  ( -0.0000000000000000000, -1.000000000000000000, 0.0000000000000000000 ) ) ;
#146 = EDGE_LOOP ( 'NONE', ( #273 ) ) ;
#147 = EDGE_LOOP ( 'NONE', ( #344 ) ) ;
#148 = EDGE_LOOP ( 'NONE', ( #264 ) ) ;
#149 = EDGE_LOOP ( 'NONE', ( #359, #369, #304, #263, #255, #243, #259, #260 ) ) ;
#150 = EDGE_LOOP ( 'NONE', ( #371, #353, #352, #350 ) ) ;
#151 = EDGE_LOOP ( 'NONE', ( #310 ) ) ;
#152 = EDGE_LOOP ( 'NONE', ( #262 ) ) ;
#153 = EDGE_LOOP ( 'NONE', ( #354 ) ) ;
#154 = EDGE_LOOP ( 'NONE', ( #370, #357, #300, #302 ) ) ;
#155 = EDGE_LOOP ( 'NONE', ( #298, #299, #296, #297 ) ) ;
#156 = EDGE_LOOP ( 'NONE', ( #270 ) ) ;
#157 = EDGE_LOOP ( 'NONE', ( #294, #295, #292, #293 ) ) ;
#158 = EDGE_LOOP ( 'NONE', ( #363, #368, #361, #351 ) ) ;
#159 = EDGE_LOOP ( 'NONE', ( #288, #291, #279, #287 ) ) ;
#160 = EDGE_LOOP ( 'NONE', ( #266 ) ) ;
#161 = EDGE_LOOP ( 'NONE', ( #249, #244, #240, #245 ) ) ;
#162 = AXIS2_PLACEMENT_3D ( 'NONE', #40, #50, #101 ) ;
#163 = SECURITY_CLASSIFICATION ( '', '', #418 ) ;
#164 = AXIS2_PLACEMENT_3D ( 'NONE', #66, #47, #43 ) ;
#165 = CC_DESIGN_DATE_AND_TIME_ASSIGNMENT ( #271, #422, ( #163 ) ) ;
#166 =( GEOMETRIC_REPRESENTATION_CONTEXT ( 3 ) GLOBAL_UNCERTAINTY_ASSIGNED_CONTEXT ( ( #415 ) ) GLOBAL_UNIT_ASSIGNED_CONTEXT ( ( #28, #120, #112 ) ) REPRESENTATION_CONTEXT ( 'NONE', 'WORKASPACE' ) );
#167 = AXIS2_PLACEMENT_3D ( 'NONE', #8, #21, #19 ) ;
#168 = CC_DESIGN_PERSON_AND_ORGANIZATION_ASSIGNMENT ( #306, #44, ( #174 ) ) ;
#169 = AXIS2_PLACEMENT_3D ( 'NONE', #103, #10, #58 ) ;
#170 = AXIS2_PLACEMENT_3D ( 'NONE', #142, #16, #64 ) ;
#171 = AXIS2_PLACEMENT_3D ( 'NONE', #83, #72, #71 ) ;
#172 = CC_DESIGN_APPROVAL ( #179, ( #174 ) ) ;
#173 = CC_DESIGN_PERSON_AND_ORGANIZATION_ASSIGNMENT ( #289, #423, ( #174 ) ) ;
#174 = PRODUCT_DEFINITION_FORMATION_WITH_SPECIFIED_SOURCE ( 'ANY', '', #227, .NOT_KNOWN. ) ;
#175 = AXIS2_PLACEMENT_3D ( 'NONE', #12, #25, #52 ) ;
#176 = AXIS2_PLACEMENT_3D ( 'NONE', #91, #78, #70 ) ;
#177 = AXIS2_PLACEMENT_3D ( 'NONE', #15, #60, #69 ) ;
#178 = AXIS2_PLACEMENT_3D ( 'NONE', #82, #79, #118 ) ;
#179 = APPROVAL ( #3, 'UNSPECIFIED' ) ;
#180 = AXIS2_PLACEMENT_3D ( 'NONE', #37, #36, #86 ) ;
#181 = AXIS2_PLACEMENT_3D ( 'NONE', #59, #57, #56 ) ;
#182 = AXIS2_PLACEMENT_3D ( 'NONE', #96, #95, #98 ) ;
#183 = AXIS2_PLACEMENT_3D ( 'NONE', #125, #123, #102 ) ;
#184 = EDGE_CURVE ( 'NONE', #315, #315, #235, .T. ) ;
#185 = EDGE_CURVE ( 'NONE', #384, #375, #234, .T. ) ;
#186 = AXIS2_PLACEMENT_3D ( 'NONE', #31, #1, #137 ) ;
#187 = EDGE_CURVE ( 'NONE', #383, #372, #233, .T. ) ;
#188 = EDGE_CURVE ( 'NONE', #377, #384, #400, .T. ) ;
#189 = EDGE_CURVE ( 'NONE', #413, #410, #394, .T. ) ;
#190 = EDGE_CURVE ( 'NONE', #385, #414, #399, .T. ) ;
#191 = EDGE_CURVE ( 'NONE', #413, #385, #403, .T. ) ;
#192 = CC_DESIGN_PERSON_AND_ORGANIZATION_ASSIGNMENT ( #237, #421, ( #163 ) ) ;
#193 = EDGE_CURVE ( 'NONE', #377, #380, #402, .T. ) ;
#194 = EDGE_CURVE ( 'NONE', #376, #384, #397, .T. ) ;
#195 = EDGE_CURVE ( 'NONE', #381, #376, #285, .T. ) ;
#196 = CC_DESIGN_DATE_AND_TIME_ASSIGNMENT ( #265, #144, ( #200 ) ) ;
#197 = APPROVAL ( #41, 'UNSPECIFIED' ) ;
#198 = CC_DESIGN_APPROVAL ( #197, ( #200 ) ) ;
#199 = CC_DESIGN_PERSON_AND_ORGANIZATION_ASSIGNMENT ( #283, #143, ( #200 ) ) ;
#200 = PRODUCT_DEFINITION ( 'UNKNOWN', '', #174, #437 ) ;
#201 = CC_DESIGN_PERSON_AND_ORGANIZATION_ASSIGNMENT ( #269, #129, ( #227 ) ) ;
#202 = AXIS2_PLACEMENT_3D ( 'NONE', #81, #138, #127 ) ;
#203 = EDGE_CURVE ( 'NONE', #381, #377, #405, .T. ) ;
#204 = AXIS2_PLACEMENT_3D ( 'NONE', #2, #14, #13 ) ;
#205 = EDGE_CURVE ( 'NONE', #379, #376, #388, .T. ) ;
#206 = EDGE_CURVE ( 'NONE', #374, #379, #252, .T. ) ;
#207 = EDGE_CURVE ( 'NONE', #374, #381, #229, .T. ) ;
#208 = EDGE_CURVE ( 'NONE', #379, #378, #253, .T. ) ;
#209 = EDGE_CURVE ( 'NONE', #382, #378, #373, .T. ) ;
#210 = EDGE_CURVE ( 'NONE', #374, #382, #228, .T. ) ;
#211 = EDGE_CURVE ( 'NONE', #307, #307, #356, .T. ) ;
#212 = EDGE_CURVE ( 'NONE', #308, #308, #348, .T. ) ;
#213 = EDGE_CURVE ( 'NONE', #378, #410, #256, .T. ) ;
#214 = EDGE_CURVE ( 'NONE', #382, #413, #355, .T. ) ;
#215 = EDGE_CURVE ( 'NONE', #380, #383, #347, .T. ) ;
#216 = EDGE_CURVE ( 'NONE', #375, #372, #345, .T. ) ;
#217 = EDGE_CURVE ( 'NONE', #309, #309, #247, .T. ) ;
#218 = EDGE_CURVE ( 'NONE', #372, #414, #340, .T. ) ;
#219 = EDGE_CURVE ( 'NONE', #383, #385, #338, .T. ) ;
#220 = EDGE_CURVE ( 'NONE', #380, #375, #335, .T. ) ;
#221 = EDGE_CURVE ( 'NONE', #410, #414, #334, .T. ) ;
#222 = APPROVAL ( #420, 'UNSPECIFIED' ) ;
#223 = CC_DESIGN_APPROVAL ( #222, ( #163 ) ) ;
#224 = PRODUCT_RELATED_PRODUCT_CATEGORY ( 'detail', '', ( #227 ) ) ;
#225 = CC_DESIGN_SECURITY_CLASSIFICATION ( #163, ( #174 ) ) ;
#226 = PERSON ( 'UNSPECIFIED', 'UNSPECIFIED', 'UNSPECIFIED', ('UNSPECIFIED'), ('UNSPECIFIED'), ('UNSPECIFIED') ) ;
#227 = PRODUCT ( 'Êðûøêà íà îòâåòâèòåëü Ò-îáðàçíûé âåðòèêàëüíûé áîêîâîé TDS_38325', 'Êðûøêà íà îòâåòâèòåëü Ò-îáðàçíûé âåðòèêàëüíûé áîêîâîé TDS_38325', '', ( #128 ) ) ;
#228 = LINE ( 'NONE', #116, #358 ) ;
#229 = LINE ( 'NONE', #135, #232 ) ;
#230 = APPROVAL_DATE_TIME ( #390, #222 ) ;
#231 = VECTOR ( 'NONE', #100, 1000.000000000000000 ) ;
#232 = VECTOR ( 'NONE', #73, 1000.000000000000000 ) ;
#233 = LINE ( 'NONE', #99, #395 ) ;
#234 = LINE ( 'NONE', #122, #231 ) ;
#235 = CIRCLE ( 'NONE', #183, 2.500000000000057700 ) ;
#236 = VECTOR ( 'NONE', #115, 1000.000000000000000 ) ;
#237 = PERSON_AND_ORGANIZATION ( #226, #272 ) ;
#238 = ORIENTED_EDGE ( 'NONE', *, *, #190, .F. ) ;
#239 = APPROVAL_PERSON_ORGANIZATION ( #241, #222, #419 ) ;
#240 = ORIENTED_EDGE ( 'NONE', *, *, #219, .T. ) ;
#241 = PERSON_AND_ORGANIZATION ( #226, #272 ) ;
#242 = ORIENTED_EDGE ( 'NONE', *, *, #189, .T. ) ;
#243 = ORIENTED_EDGE ( 'NONE', *, *, #207, .F. ) ;
#244 = ORIENTED_EDGE ( 'NONE', *, *, #187, .F. ) ;
#245 = ORIENTED_EDGE ( 'NONE', *, *, #190, .T. ) ;
#246 = VECTOR ( 'NONE', #55, 1000.000000000000000 ) ;
#247 = CIRCLE ( 'NONE', #180, 2.500000000000002200 ) ;
#248 = VECTOR ( 'NONE', #88, 1000.000000000000000 ) ;
#249 = ORIENTED_EDGE ( 'NONE', *, *, #218, .F. ) ;
#250 = LOCAL_TIME ( 12, 44, 37.00000000000000000, #337 ) ;
#251 = VECTOR ( 'NONE', #110, 1000.000000000000000 ) ;
#252 = LINE ( 'NONE', #80, #367 ) ;
#253 = LINE ( 'NONE', #68, #342 ) ;
#254 = FACE_OUTER_BOUND ( 'NONE', #411, .T. ) ;
#255 = ORIENTED_EDGE ( 'NONE', *, *, #203, .F. ) ;
#256 = LINE ( 'NONE', #63, #246 ) ;
#257 = ORIENTED_EDGE ( 'NONE', *, *, #221, .F. ) ;
#258 = CALENDAR_DATE ( 2012, 9, 11 ) ;
#259 = ORIENTED_EDGE ( 'NONE', *, *, #210, .T. ) ;
#260 = ORIENTED_EDGE ( 'NONE', *, *, #214, .T. ) ;
#261 = ORIENTED_EDGE ( 'NONE', *, *, #213, .F. ) ;
#262 = ORIENTED_EDGE ( 'NONE', *, *, #184, .F. ) ;
#263 = ORIENTED_EDGE ( 'NONE', *, *, #193, .F. ) ;
#264 = ORIENTED_EDGE ( 'NONE', *, *, #217, .F. ) ;
#265 = DATE_AND_TIME ( #258, #281 ) ;
#266 = ORIENTED_EDGE ( 'NONE', *, *, #217, .T. ) ;
#267 = ORIENTED_EDGE ( 'NONE', *, *, #218, .T. ) ;
#268 = PERSON_AND_ORGANIZATION ( #226, #272 ) ;
#269 = PERSON_AND_ORGANIZATION ( #226, #272 ) ;
#270 = ORIENTED_EDGE ( 'NONE', *, *, #212, .T. ) ;
#271 = DATE_AND_TIME ( #408, #250 ) ;
#272 = ORGANIZATION ( 'UNSPECIFIED', 'UNSPECIFIED', '' ) ;
#273 = ORIENTED_EDGE ( 'NONE', *, *, #212, .F. ) ;
#274 = DATE_AND_TIME ( #275, #276 ) ;
#275 = CALENDAR_DATE ( 2012, 9, 11 ) ;
#276 = LOCAL_TIME ( 12, 44, 37.00000000000000000, #277 ) ;
#277 = COORDINATED_UNIVERSAL_TIME_OFFSET ( 4, 0, .AHEAD. ) ;
#278 = APPROVAL_PERSON_ORGANIZATION ( #268, #197, #124 ) ;
#279 = ORIENTED_EDGE ( 'NONE', *, *, #210, .F. ) ;
#280 = COORDINATED_UNIVERSAL_TIME_OFFSET ( 4, 0, .AHEAD. ) ;
#281 = LOCAL_TIME ( 12, 44, 37.00000000000000000, #280 ) ;
#282 = APPROVAL_DATE_TIME ( #407, #179 ) ;
#283 = PERSON_AND_ORGANIZATION ( #226, #272 ) ;
#284 = APPROVAL_DATE_TIME ( #274, #197 ) ;
#285 = LINE ( 'NONE', #113, #236 ) ;
#286 = ORIENTED_EDGE ( 'NONE', *, *, #185, .T. ) ;
#287 = ORIENTED_EDGE ( 'NONE', *, *, #206, .T. ) ;
#288 = ORIENTED_EDGE ( 'NONE', *, *, #208, .T. ) ;
#289 = PERSON_AND_ORGANIZATION ( #226, #272 ) ;
#290 = CALENDAR_DATE ( 2012, 9, 11 ) ;
#291 = ORIENTED_EDGE ( 'NONE', *, *, #209, .F. ) ;
#292 = ORIENTED_EDGE ( 'NONE', *, *, #207, .T. ) ;
#293 = ORIENTED_EDGE ( 'NONE', *, *, #195, .T. ) ;
#294 = ORIENTED_EDGE ( 'NONE', *, *, #205, .F. ) ;
#295 = ORIENTED_EDGE ( 'NONE', *, *, #206, .F. ) ;
#296 = ORIENTED_EDGE ( 'NONE', *, *, #203, .T. ) ;
#297 = ORIENTED_EDGE ( 'NONE', *, *, #188, .T. ) ;
#298 = ORIENTED_EDGE ( 'NONE', *, *, #194, .F. ) ;
#299 = ORIENTED_EDGE ( 'NONE', *, *, #195, .F. ) ;
#300 = ORIENTED_EDGE ( 'NONE', *, *, #193, .T. ) ;
#301 = COORDINATED_UNIVERSAL_TIME_OFFSET ( 4, 0, .AHEAD. ) ;
#302 = ORIENTED_EDGE ( 'NONE', *, *, #220, .T. ) ;
#303 = ORIENTED_EDGE ( 'NONE', *, *, #194, .T. ) ;
#304 = ORIENTED_EDGE ( 'NONE', *, *, #215, .F. ) ;
#305 = ORIENTED_EDGE ( 'NONE', *, *, #208, .F. ) ;
#306 = PERSON_AND_ORGANIZATION ( #226, #272 ) ;
#307 = VERTEX_POINT ( 'NONE', #39 ) ;
#308 = VERTEX_POINT ( 'NONE', #77 ) ;
#309 = VERTEX_POINT ( 'NONE', #6 ) ;
#310 = ORIENTED_EDGE ( 'NONE', *, *, #211, .T. ) ;
#311 = FACE_OUTER_BOUND ( 'NONE', #150, .T. ) ;
#312 = FACE_OUTER_BOUND ( 'NONE', #157, .T. ) ;
#313 = FACE_BOUND ( 'NONE', #146, .T. ) ;
#314 = SHAPE_DEFINITION_REPRESENTATION ( #436, #416 ) ;
#315 = VERTEX_POINT ( 'NONE', #134 ) ;
#316 = FACE_OUTER_BOUND ( 'NONE', #409, .T. ) ;
#317 = FACE_OUTER_BOUND ( 'NONE', #156, .T. ) ;
#318 = CYLINDRICAL_SURFACE ( 'NONE', #162, 2.500000000000002200 ) ;
#319 = FACE_BOUND ( 'NONE', #153, .T. ) ;
#320 = FACE_OUTER_BOUND ( 'NONE', #159, .T. ) ;
#321 = FACE_OUTER_BOUND ( 'NONE', #155, .T. ) ;
#322 = FACE_BOUND ( 'NONE', #148, .T. ) ;
#323 = FACE_OUTER_BOUND ( 'NONE', #151, .T. ) ;
#324 = FACE_OUTER_BOUND ( 'NONE', #149, .T. ) ;
#325 = FACE_OUTER_BOUND ( 'NONE', #160, .T. ) ;
#326 = CYLINDRICAL_SURFACE ( 'NONE', #170, 2.500000000000057700 ) ;
#327 = FACE_OUTER_BOUND ( 'NONE', #158, .T. ) ;
#328 = FACE_BOUND ( 'NONE', #152, .T. ) ;
#329 = FACE_OUTER_BOUND ( 'NONE', #147, .T. ) ;
#330 = FACE_OUTER_BOUND ( 'NONE', #161, .T. ) ;
#331 = VECTOR ( 'NONE', #34, 1000.000000000000000 ) ;
#332 = FACE_OUTER_BOUND ( 'NONE', #154, .T. ) ;
#333 = VECTOR ( 'NONE', #90, 1000.000000000000000 ) ;
#334 = LINE ( 'NONE', #89, #331 ) ;
#335 = LINE ( 'NONE', #87, #333 ) ;
#336 = VECTOR ( 'NONE', #85, 1000.000000000000000 ) ;
#337 = COORDINATED_UNIVERSAL_TIME_OFFSET ( 4, 0, .AHEAD. ) ;
#338 = LINE ( 'NONE', #97, #248 ) ;
#339 = CLOSED_SHELL ( 'NONE', ( #433, #429, #426, #428, #431, #435, #432, #434, #424, #425, #430, #427 ) ) ;
#340 = LINE ( 'NONE', #54, #336 ) ;
#341 = VECTOR ( 'NONE', #130, 1000.000000000000000 ) ;
#342 = VECTOR ( 'NONE', #67, 1000.000000000000000 ) ;
#343 = VECTOR ( 'NONE', #136, 1000.000000000000000 ) ;
#344 = ORIENTED_EDGE ( 'NONE', *, *, #184, .T. ) ;
#345 = LINE ( 'NONE', #141, #341 ) ;
#346 = VECTOR ( 'NONE', #145, 1000.000000000000000 ) ;
#347 = LINE ( 'NONE', #49, #346 ) ;
#348 = CIRCLE ( 'NONE', #181, 2.500000000000002200 ) ;
#349 = VECTOR ( 'NONE', #53, 1000.000000000000000 ) ;
#350 = ORIENTED_EDGE ( 'NONE', *, *, #209, .T. ) ;
#351 = ORIENTED_EDGE ( 'NONE', *, *, #187, .T. ) ;
#352 = ORIENTED_EDGE ( 'NONE', *, *, #214, .F. ) ;
#353 = ORIENTED_EDGE ( 'NONE', *, *, #189, .F. ) ;
#354 = ORIENTED_EDGE ( 'NONE', *, *, #211, .F. ) ;
#355 = LINE ( 'NONE', #94, #349 ) ;
#356 = CIRCLE ( 'NONE', #182, 2.500000000000057700 ) ;
#357 = ORIENTED_EDGE ( 'NONE', *, *, #188, .F. ) ;
#358 = VECTOR ( 'NONE', #61, 1000.000000000000000 ) ;
#359 = ORIENTED_EDGE ( 'NONE', *, *, #191, .T. ) ;
#360 = ORIENTED_EDGE ( 'NONE', *, *, #221, .T. ) ;
#361 = ORIENTED_EDGE ( 'NONE', *, *, #215, .T. ) ;
#362 = ORIENTED_EDGE ( 'NONE', *, *, #216, .T. ) ;
#363 = ORIENTED_EDGE ( 'NONE', *, *, #216, .F. ) ;
#364 = ORIENTED_EDGE ( 'NONE', *, *, #205, .T. ) ;
#365 = VECTOR ( 'NONE', #62, 1000.000000000000000 ) ;
#366 = ORIENTED_EDGE ( 'NONE', *, *, #191, .F. ) ;
#367 = VECTOR ( 'NONE', #75, 1000.000000000000000 ) ;
#368 = ORIENTED_EDGE ( 'NONE', *, *, #220, .F. ) ;
#369 = ORIENTED_EDGE ( 'NONE', *, *, #219, .F. ) ;
#370 = ORIENTED_EDGE ( 'NONE', *, *, #185, .F. ) ;
#371 = ORIENTED_EDGE ( 'NONE', *, *, #213, .T. ) ;
#372 = VERTEX_POINT ( 'NONE', #140 ) ;
#373 = LINE ( 'NONE', #65, #365 ) ;
#374 = VERTEX_POINT ( 'NONE', #32 ) ;
#375 = VERTEX_POINT ( 'NONE', #30 ) ;
#376 = VERTEX_POINT ( 'NONE', #33 ) ;
#377 = VERTEX_POINT ( 'NONE', #29 ) ;
#378 = VERTEX_POINT ( 'NONE', #84 ) ;
#379 = VERTEX_POINT ( 'NONE', #27 ) ;
#380 = VERTEX_POINT ( 'NONE', #45 ) ;
#381 = VERTEX_POINT ( 'NONE', #26 ) ;
#382 = VERTEX_POINT ( 'NONE', #24 ) ;
#383 = VERTEX_POINT ( 'NONE', #20 ) ;
#384 = VERTEX_POINT ( 'NONE', #11 ) ;
#385 = VERTEX_POINT ( 'NONE', #9 ) ;
#386 = VECTOR ( 'NONE', #114, 1000.000000000000000 ) ;
#387 = PERSON_AND_ORGANIZATION ( #226, #272 ) ;
#388 = LINE ( 'NONE', #35, #389 ) ;
#389 = VECTOR ( 'NONE', #93, 1000.000000000000000 ) ;
#390 = DATE_AND_TIME ( #290, #412 ) ;
#391 = APPROVAL_PERSON_ORGANIZATION ( #387, #179, #5 ) ;
#392 = COORDINATED_UNIVERSAL_TIME_OFFSET ( 4, 0, .AHEAD. ) ;
#393 = LOCAL_TIME ( 12, 44, 37.00000000000000000, #392 ) ;
#394 = LINE ( 'NONE', #121, #404 ) ;
#395 = VECTOR ( 'NONE', #119, 1000.000000000000000 ) ;
#396 = VECTOR ( 'NONE', #108, 1000.000000000000000 ) ;
#397 = LINE ( 'NONE', #107, #343 ) ;
#398 = VECTOR ( 'NONE', #106, 1000.000000000000000 ) ;
#399 = LINE ( 'NONE', #132, #396 ) ;
#400 = LINE ( 'NONE', #117, #401 ) ;
#401 = VECTOR ( 'NONE', #133, 1000.000000000000000 ) ;
#402 = LINE ( 'NONE', #109, #251 ) ;
#403 = LINE ( 'NONE', #105, #398 ) ;
#404 = VECTOR ( 'NONE', #104, 1000.000000000000000 ) ;
#405 = LINE ( 'NONE', #111, #386 ) ;
#406 = CALENDAR_DATE ( 2012, 9, 11 ) ;
#407 = DATE_AND_TIME ( #406, #393 ) ;
#408 = CALENDAR_DATE ( 2012, 9, 11 ) ;
#409 = EDGE_LOOP ( 'NONE', ( #360, #238, #366, #242 ) ) ;
#410 = VERTEX_POINT ( 'NONE', #7 ) ;
#411 = EDGE_LOOP ( 'NONE', ( #257, #261, #305, #364, #303, #286, #362, #267 ) ) ;
#412 = LOCAL_TIME ( 12, 44, 37.00000000000000000, #301 ) ;
#413 = VERTEX_POINT ( 'NONE', #4 ) ;
#414 = VERTEX_POINT ( 'NONE', #139 ) ;
#415 = UNCERTAINTY_MEASURE_WITH_UNIT (LENGTH_MEASURE( 1.000000000000000100E-005 ), #28, 'distance_accuracy_value', 'NONE');
#416 = ADVANCED_BREP_SHAPE_REPRESENTATION ( '¦¨v°úð ýð þªòõªòøªõû¹ T-þñ¨ð÷ývù òõ¨ªøúðû¹ývù ñþúþòþù TDS_38325', ( #417, #202 ), #166 ) ;
#417 = MANIFOLD_SOLID_BREP ( 'Âûðåç-Âûòÿíóòü1', #339 ) ;
#418 = SECURITY_CLASSIFICATION_LEVEL ( 'unclassified' ) ;
#419 = APPROVAL_ROLE ( '' ) ;
#420 = APPROVAL_STATUS ( 'not_yet_approved' ) ;
#421 = PERSON_AND_ORGANIZATION_ROLE ( 'classification_officer' ) ;
#422 = DATE_TIME_ROLE ( 'classification_date' ) ;
#423 = PERSON_AND_ORGANIZATION_ROLE ( 'design_supplier' ) ;
#424 = ADVANCED_FACE ( 'NONE', ( #324 ), #92, .F. ) ;
#425 = ADVANCED_FACE ( 'NONE', ( #254 ), #48, .T. ) ;
#426 = ADVANCED_FACE ( 'NONE', ( #327 ), #22, .T. ) ;
#427 = ADVANCED_FACE ( 'NONE', ( #329, #323 ), #326, .F. ) ;
#428 = ADVANCED_FACE ( 'NONE', ( #328, #322, #332 ), #74, .T. ) ;
#429 = ADVANCED_FACE ( 'NONE', ( #330 ), #51, .T. ) ;
#430 = ADVANCED_FACE ( 'NONE', ( #325, #317 ), #318, .F. ) ;
#431 = ADVANCED_FACE ( 'NONE', ( #321 ), #23, .T. ) ;
#432 = ADVANCED_FACE ( 'NONE', ( #320 ), #46, .F. ) ;
#433 = ADVANCED_FACE ( 'NONE', ( #316 ), #17, .F. ) ;
#434 = ADVANCED_FACE ( 'NONE', ( #319, #313, #311 ), #76, .F. ) ;
#435 = ADVANCED_FACE ( 'NONE', ( #312 ), #18, .T. ) ;
#436 = PRODUCT_DEFINITION_SHAPE ( 'NONE', 'NONE',  #200 ) ;
#437 = DESIGN_CONTEXT ( 'detailed design', #126, 'design' ) ;
ENDSEC;
END-ISO-10303-21;
