ISO-10303-21;
HEADER;
FILE_DESCRIPTION (( 'STEP AP203' ),
    '1' );
FILE_NAME ('Êðûøêà íà îòâåòâèòåëü Ò-îáðàçíûé âåðòèêàëüíûé TDSR_38400.STEP',
    '2012-11-09T08:44:27',
    ( 'Àñååâ' ),
    ( '' ),
    'SwSTEP 2.0',
    'SolidWorks 2012',
    '' );
FILE_SCHEMA (( 'CONFIG_CONTROL_DESIGN' ));
ENDSEC;

DATA;
#1 = CARTESIAN_POINT ( 'NONE',  ( 1.734723475976807100E-015, 0.5999999999999999800, 17.49999999999999600 ) ) ;
#2 = CARTESIAN_POINT ( 'NONE',  ( 1.734723475976807100E-015, 0.0000000000000000000, 17.49999999999999600 ) ) ;
#3 = CARTESIAN_POINT ( 'NONE',  ( 2.653208575337321500E-015, -14.00099999999999900, 345.0000000000000600 ) ) ;
#4 = DIRECTION ( 'NONE',  ( 0.0000000000000000000, -0.0000000000000000000, -1.000000000000000000 ) ) ;
#5 = DIRECTION ( 'NONE',  ( 0.0000000000000000000, -1.000000000000000000, 0.0000000000000000000 ) ) ;
#6 = DIRECTION ( 'NONE',  ( -0.0000000000000000000, 1.000000000000000000, -0.0000000000000000000 ) ) ;
#7 = DIRECTION ( 'NONE',  ( -1.000000000000000000, 0.0000000000000000000, 0.0000000000000000000 ) ) ;
#8 = PLANE ( 'NONE',  #170 ) ;
#9 = DIRECTION ( 'NONE',  ( -0.0000000000000000000, 0.0000000000000000000, -1.000000000000000000 ) ) ;
#10 = DIRECTION ( 'NONE',  ( 1.000000000000000000, 0.0000000000000000000, -0.0000000000000000000 ) ) ;
#11 = DIRECTION ( 'NONE',  ( -0.0000000000000000000, -0.0000000000000000000, -1.000000000000000000 ) ) ;
#12 = DIRECTION ( 'NONE',  ( 0.0000000000000000000, 0.0000000000000000000, 1.000000000000000000 ) ) ;
#13 = PLANE ( 'NONE',  #165 ) ;
#14 = DIRECTION ( 'NONE',  ( 0.0000000000000000000, -0.0000000000000000000, 1.000000000000000000 ) ) ;
#15 = CARTESIAN_POINT ( 'NONE',  ( 76.59999999999999400, 0.0000000000000000000, 360.0000000000000000 ) ) ;
#16 = PLANE ( 'NONE',  #168 ) ;
#17 = CARTESIAN_POINT ( 'NONE',  ( 76.59999999999999400, -14.00000000000000000, 360.0000000000000000 ) ) ;
#18 = CARTESIAN_POINT ( 'NONE',  ( -76.00000000000000000, 0.5999999999999999800, 360.0000000000000000 ) ) ;
#19 = DIRECTION ( 'NONE',  ( 0.0000000000000000000, 0.0000000000000000000, 1.000000000000000000 ) ) ;
#20 = DIRECTION ( 'NONE',  ( -1.000000000000000000, 0.0000000000000000000, 0.0000000000000000000 ) ) ;
#21 = CARTESIAN_POINT ( 'NONE',  ( -76.00000000000000000, -14.00000000000000000, 360.0000000000000000 ) ) ;
#22 = PLANE ( 'NONE',  #169 ) ;
#23 = DIRECTION ( 'NONE',  ( 0.0000000000000000000, -0.0000000000000000000, -1.000000000000000000 ) ) ;
#24 = DIRECTION ( 'NONE',  ( 0.0000000000000000000, -1.000000000000000000, 0.0000000000000000000 ) ) ;
#25 = DIRECTION ( 'NONE',  ( 0.0000000000000000000, 1.000000000000000000, 0.0000000000000000000 ) ) ;
#26 = PLANE ( 'NONE',  #183 ) ;
#27 = DIRECTION ( 'NONE',  ( -1.000000000000000000, 0.0000000000000000000, 0.0000000000000000000 ) ) ;
#28 = DIRECTION ( 'NONE',  ( 0.0000000000000000000, 0.0000000000000000000, 1.000000000000000000 ) ) ;
#29 = DIRECTION ( 'NONE',  ( -1.000000000000000000, 0.0000000000000000000, 0.0000000000000000000 ) ) ;
#30 = CARTESIAN_POINT ( 'NONE',  ( -76.59999999999999400, 0.0000000000000000000, 360.0000000000000000 ) ) ;
#31 = CARTESIAN_POINT ( 'NONE',  ( -76.00000000000000000, -14.00000000000000000, 360.0000000000000000 ) ) ;
#32 = CARTESIAN_POINT ( 'NONE',  ( -76.00000000000000000, -14.00000000000000000, 0.0000000000000000000 ) ) ;
#33 = PLANE ( 'NONE',  #137 ) ;
#34 = CARTESIAN_POINT ( 'NONE',  ( -76.00000000000000000, 0.0000000000000000000, 360.0000000000000000 ) ) ;
#35 = CARTESIAN_POINT ( 'NONE',  ( 1.734723475976807100E-015, -14.00099999999999900, 14.99999999999999300 ) ) ;
#36 = DIRECTION ( 'NONE',  ( -0.0000000000000000000, 0.0000000000000000000, -1.000000000000000000 ) ) ;
#37 = DIRECTION ( 'NONE',  ( 1.000000000000000000, 0.0000000000000000000, -0.0000000000000000000 ) ) ;
#38 = DIRECTION ( 'NONE',  ( -0.0000000000000000000, 1.000000000000000000, -0.0000000000000000000 ) ) ;
#39 = PLANE ( 'NONE',  #127 ) ;
#40 = DIRECTION ( 'NONE',  ( -1.000000000000000000, 0.0000000000000000000, 0.0000000000000000000 ) ) ;
#41 = DIRECTION ( 'NONE',  ( 0.0000000000000000000, 1.000000000000000000, 0.0000000000000000000 ) ) ;
#42 = DIRECTION ( 'NONE',  ( -0.0000000000000000000, 0.0000000000000000000, -1.000000000000000000 ) ) ;
#43 = DIRECTION ( 'NONE',  ( 0.0000000000000000000, 0.0000000000000000000, 1.000000000000000000 ) ) ;
#44 = PLANE ( 'NONE',  #128 ) ;
#45 = DIRECTION ( 'NONE',  ( -1.000000000000000000, 0.0000000000000000000, 0.0000000000000000000 ) ) ;
#46 = DIRECTION ( 'NONE',  ( -0.0000000000000000000, 0.0000000000000000000, -1.000000000000000000 ) ) ;
#47 = CARTESIAN_POINT ( 'NONE',  ( 76.00000000000000000, 0.0000000000000000000, 360.0000000000000000 ) ) ;
#48 = CARTESIAN_POINT ( 'NONE',  ( 0.0000000000000000000, 0.0000000000000000000, 0.0000000000000000000 ) ) ;
#49 = CARTESIAN_POINT ( 'NONE',  ( 0.0000000000000000000, 0.0000000000000000000, 360.0000000000000000 ) ) ;
#50 = PLANE ( 'NONE',  #130 ) ;
#51 = DIRECTION ( 'NONE',  ( -0.0000000000000000000, -0.0000000000000000000, -1.000000000000000000 ) ) ;
#52 = CARTESIAN_POINT ( 'NONE',  ( -76.00000000000000000, 0.0000000000000000000, 360.0000000000000000 ) ) ;
#53 = CARTESIAN_POINT ( 'NONE',  ( -76.59999999999999400, -14.00000000000000000, 360.0000000000000000 ) ) ;
#54 = DIRECTION ( 'NONE',  ( 0.0000000000000000000, 1.000000000000000000, 0.0000000000000000000 ) ) ;
#55 = CARTESIAN_POINT ( 'NONE',  ( 76.00000000000000000, -14.00000000000000000, 360.0000000000000000 ) ) ;
#56 = CARTESIAN_POINT ( 'NONE',  ( -76.59999999999999400, 0.5999999999999999800, 0.0000000000000000000 ) ) ;
#57 = CARTESIAN_POINT ( 'NONE',  ( 76.59999999999999400, 0.5999999999999999800, 0.0000000000000000000 ) ) ;
#58 = CARTESIAN_POINT ( 'NONE',  ( 76.59999999999999400, -14.00000000000000000, 360.0000000000000000 ) ) ;
#59 = CARTESIAN_POINT ( 'NONE',  ( -76.59999999999999400, 0.0000000000000000000, 0.0000000000000000000 ) ) ;
#60 = CARTESIAN_POINT ( 'NONE',  ( -76.00000000000000000, 0.0000000000000000000, 0.0000000000000000000 ) ) ;
#61 = CARTESIAN_POINT ( 'NONE',  ( 76.59999999999999400, 0.5999999999999999800, 360.0000000000000000 ) ) ;
#62 = CARTESIAN_POINT ( 'NONE',  ( -76.59999999999999400, -14.00000000000000000, 360.0000000000000000 ) ) ;
#63 = CARTESIAN_POINT ( 'NONE',  ( -76.59999999999999400, 0.5999999999999999800, 360.0000000000000000 ) ) ;
#64 = CARTESIAN_POINT ( 'NONE',  ( 76.59999999999999400, -14.00000000000000000, 0.0000000000000000000 ) ) ;
#65 = CARTESIAN_POINT ( 'NONE',  ( 76.00000000000000000, 0.0000000000000000000, 0.0000000000000000000 ) ) ;
#66 = DIRECTION ( 'NONE',  ( 1.000000000000000000, 0.0000000000000000000, 0.0000000000000000000 ) ) ;
#67 = CARTESIAN_POINT ( 'NONE',  ( 76.00000000000000000, -14.00000000000000000, 0.0000000000000000000 ) ) ;
#68 = CARTESIAN_POINT ( 'NONE',  ( -76.00000000000000000, 0.0000000000000000000, 360.0000000000000000 ) ) ;
#69 = CARTESIAN_POINT ( 'NONE',  ( -76.00000000000000000, -14.00000000000000000, 360.0000000000000000 ) ) ;
#70 = CARTESIAN_POINT ( 'NONE',  ( 76.00000000000000000, 0.0000000000000000000, 360.0000000000000000 ) ) ;
#71 = DIRECTION ( 'NONE',  ( 0.0000000000000000000, -0.0000000000000000000, 1.000000000000000000 ) ) ;
#72 = DIRECTION ( 'NONE',  ( -0.0000000000000000000, -0.0000000000000000000, -1.000000000000000000 ) ) ;
#73 = DIRECTION ( 'NONE',  ( 1.000000000000000000, 0.0000000000000000000, 0.0000000000000000000 ) ) ;
#74 = DIRECTION ( 'NONE',  ( 0.0000000000000000000, 1.000000000000000000, 0.0000000000000000000 ) ) ;
#75 = PLANE ( 'NONE',  #131 ) ;
#76 = DIRECTION ( 'NONE',  ( 0.0000000000000000000, -1.000000000000000000, 0.0000000000000000000 ) ) ;
#77 = CARTESIAN_POINT ( 'NONE',  ( -76.00000000000000000, -14.00000000000000000, 0.0000000000000000000 ) ) ;
#78 = CARTESIAN_POINT ( 'NONE',  ( 76.00000000000000000, 0.0000000000000000000, 0.0000000000000000000 ) ) ;
#79 = CARTESIAN_POINT ( 'NONE',  ( -76.00000000000000000, 0.5999999999999999800, 360.0000000000000000 ) ) ;
#80 = DIRECTION ( 'NONE',  ( 0.0000000000000000000, 0.0000000000000000000, 1.000000000000000000 ) ) ;
#81 = DIRECTION ( 'NONE',  ( 0.0000000000000000000, 1.000000000000000000, 0.0000000000000000000 ) ) ;
#82 = DIRECTION ( 'NONE',  ( -1.000000000000000000, 0.0000000000000000000, 0.0000000000000000000 ) ) ;
#83 = CARTESIAN_POINT ( 'NONE',  ( 1.734723475976807100E-015, 0.5999999999999999800, 14.99999999999999300 ) ) ;
#84 = DIRECTION ( 'NONE',  ( -0.0000000000000000000, -0.0000000000000000000, -1.000000000000000000 ) ) ;
#85 = CARTESIAN_POINT ( 'NONE',  ( -76.00000000000000000, 0.0000000000000000000, 360.0000000000000000 ) ) ;
#86 = CARTESIAN_POINT ( 'NONE',  ( 76.00000000000000000, 0.0000000000000000000, 360.0000000000000000 ) ) ;
#87 = DIRECTION ( 'NONE',  ( 0.0000000000000000000, 0.0000000000000000000, -1.000000000000000000 ) ) ;
#88 = DIRECTION ( 'NONE',  ( -0.0000000000000000000, 1.000000000000000000, -0.0000000000000000000 ) ) ;
#89 = DIRECTION ( 'NONE',  ( 0.0000000000000000000, -1.000000000000000000, 0.0000000000000000000 ) ) ;
#90 = CARTESIAN_POINT ( 'NONE',  ( 76.00000000000000000, 0.0000000000000000000, 360.0000000000000000 ) ) ;
#91 = CARTESIAN_POINT ( 'NONE',  ( -76.00000000000000000, -14.00000000000000000, 360.0000000000000000 ) ) ;
#92 = DIRECTION ( 'NONE',  ( -0.0000000000000000000, -0.0000000000000000000, -1.000000000000000000 ) ) ;
#93 = CARTESIAN_POINT ( 'NONE',  ( 2.653208575337321500E-015, 0.5999999999999999800, 345.0000000000000600 ) ) ;
#94 = CARTESIAN_POINT ( 'NONE',  ( 76.59999999999999400, -14.00000000000000000, 360.0000000000000000 ) ) ;
#95 = DIRECTION ( 'NONE',  ( -0.0000000000000000000, -0.0000000000000000000, -1.000000000000000000 ) ) ;
#96 = CARTESIAN_POINT ( 'NONE',  ( -76.59999999999999400, 0.0000000000000000000, 360.0000000000000000 ) ) ;
#97 = CARTESIAN_POINT ( 'NONE',  ( -76.59999999999999400, 0.5999999999999999800, 360.0000000000000000 ) ) ;
#98 = CARTESIAN_POINT ( 'NONE',  ( 76.00000000000000000, -14.00000000000000000, 360.0000000000000000 ) ) ;
#99 = DIRECTION ( 'NONE',  ( 1.000000000000000000, 0.0000000000000000000, 0.0000000000000000000 ) ) ;
#100 = DIRECTION ( 'NONE',  ( -1.000000000000000000, 0.0000000000000000000, 0.0000000000000000000 ) ) ;
#101 = CARTESIAN_POINT ( 'NONE',  ( -76.59999999999999400, -14.00000000000000000, 0.0000000000000000000 ) ) ;
#102 = CARTESIAN_POINT ( 'NONE',  ( -76.00000000000000000, 0.0000000000000000000, 360.0000000000000000 ) ) ;
#103 = CARTESIAN_POINT ( 'NONE',  ( -76.00000000000000000, 0.5999999999999999800, 0.0000000000000000000 ) ) ;
#104 = DIRECTION ( 'NONE',  ( 1.000000000000000000, 0.0000000000000000000, 0.0000000000000000000 ) ) ;
#105 = DIRECTION ( 'NONE',  ( 0.0000000000000000000, 0.0000000000000000000, 1.000000000000000000 ) ) ;
#106 = DIRECTION ( 'NONE',  ( -0.0000000000000000000, -1.000000000000000000, -0.0000000000000000000 ) ) ;
#107 = CARTESIAN_POINT ( 'NONE',  ( 1.734723475976807100E-015, 0.0000000000000000000, 14.99999999999999300 ) ) ;
#108 = DIRECTION ( 'NONE',  ( 0.0000000000000000000, 0.0000000000000000000, 1.000000000000000000 ) ) ;
#109 = DIRECTION ( 'NONE',  ( -0.0000000000000000000, -1.000000000000000000, -0.0000000000000000000 ) ) ;
#110 = CARTESIAN_POINT ( 'NONE',  ( 2.653208575337321500E-015, 0.0000000000000000000, 345.0000000000000600 ) ) ;
#111 = DIRECTION ( 'NONE',  ( -0.0000000000000000000, -1.000000000000000000, 0.0000000000000000000 ) ) ;
#112 = CARTESIAN_POINT ( 'NONE',  ( 76.59999999999999400, 0.5999999999999999800, 360.0000000000000000 ) ) ;
#113 = CARTESIAN_POINT ( 'NONE',  ( 76.59999999999999400, -14.00000000000000000, 0.0000000000000000000 ) ) ;
#114 = CARTESIAN_POINT ( 'NONE',  ( 76.59999999999999400, -14.00000000000000000, 360.0000000000000000 ) ) ;
#115 = CARTESIAN_POINT ( 'NONE',  ( -76.00000000000000000, 0.0000000000000000000, 0.0000000000000000000 ) ) ;
#116 = CARTESIAN_POINT ( 'NONE',  ( 76.59999999999999400, 0.0000000000000000000, 360.0000000000000000 ) ) ;
#117 = DIRECTION ( 'NONE',  ( -0.0000000000000000000, -0.0000000000000000000, -1.000000000000000000 ) ) ;
#118 = DIRECTION ( 'NONE',  ( -0.0000000000000000000, 1.000000000000000000, -0.0000000000000000000 ) ) ;
#119 = DIRECTION ( 'NONE',  ( -0.0000000000000000000, -0.0000000000000000000, -1.000000000000000000 ) ) ;
#120 = CARTESIAN_POINT ( 'NONE',  ( -76.00000000000000000, 0.0000000000000000000, 360.0000000000000000 ) ) ;
#121 = DIRECTION ( 'NONE',  ( -0.0000000000000000000, 1.000000000000000000, -0.0000000000000000000 ) ) ;
#122 = CARTESIAN_POINT ( 'NONE',  ( 76.59999999999999400, 0.0000000000000000000, 0.0000000000000000000 ) ) ;
#123 = CARTESIAN_POINT ( 'NONE',  ( -76.00000000000000000, 0.0000000000000000000, 0.0000000000000000000 ) ) ;
#124 = DIRECTION ( 'NONE',  ( -0.0000000000000000000, -1.000000000000000000, 0.0000000000000000000 ) ) ;
#125 = PRODUCT_RELATED_PRODUCT_CATEGORY ( 'detail', '', ( #189 ) ) ;
#126 = AXIS2_PLACEMENT_3D ( 'NONE', #35, #38, #43 ) ;
#127 = AXIS2_PLACEMENT_3D ( 'NONE', #47, #37, #36 ) ;
#128 = AXIS2_PLACEMENT_3D ( 'NONE', #49, #42, #40 ) ;
#129 = CC_DESIGN_APPROVAL ( #166, ( #172 ) ) ;
#130 = AXIS2_PLACEMENT_3D ( 'NONE', #48, #46, #45 ) ;
#131 = AXIS2_PLACEMENT_3D ( 'NONE', #85, #74, #71 ) ;
#132 = AXIS2_PLACEMENT_3D ( 'NONE', #107, #106, #105 ) ;
#133 = AXIS2_PLACEMENT_3D ( 'NONE', #110, #109, #108 ) ;
#134 = AXIS2_PLACEMENT_3D ( 'NONE', #83, #81, #80 ) ;
#135 = AXIS2_PLACEMENT_3D ( 'NONE', #93, #88, #87 ) ;
#136 = EDGE_CURVE ( 'NONE', #243, #235, #199, .T. ) ;
#137 = AXIS2_PLACEMENT_3D ( 'NONE', #34, #29, #28 ) ;
#138 = EDGE_CURVE ( 'NONE', #240, #243, #319, .T. ) ;
#139 = EDGE_CURVE ( 'NONE', #240, #242, #314, .T. ) ;
#140 = EDGE_CURVE ( 'NONE', #344, #344, #195, .T. ) ;
#141 = EDGE_CURVE ( 'NONE', #394, #394, #392, .T. ) ;
#142 = EDGE_CURVE ( 'NONE', #244, #243, #393, .T. ) ;
#143 = EDGE_CURVE ( 'NONE', #238, #244, #391, .T. ) ;
#144 = EDGE_CURVE ( 'NONE', #238, #240, #331, .T. ) ;
#145 = EDGE_CURVE ( 'NONE', #236, #244, #389, .T. ) ;
#146 = EDGE_CURVE ( 'NONE', #239, #236, #387, .T. ) ;
#147 = EDGE_CURVE ( 'NONE', #239, #238, #388, .T. ) ;
#148 = EDGE_CURVE ( 'NONE', #222, #236, #384, .T. ) ;
#149 = EDGE_CURVE ( 'NONE', #230, #222, #382, .T. ) ;
#150 = EDGE_CURVE ( 'NONE', #230, #239, #386, .T. ) ;
#151 = EDGE_CURVE ( 'NONE', #222, #241, #378, .T. ) ;
#152 = EDGE_CURVE ( 'NONE', #232, #241, #376, .T. ) ;
#153 = EDGE_CURVE ( 'NONE', #230, #232, #380, .T. ) ;
#154 = EDGE_CURVE ( 'NONE', #396, #396, #374, .T. ) ;
#155 = EDGE_CURVE ( 'NONE', #397, #397, #368, .T. ) ;
#156 = EDGE_CURVE ( 'NONE', #241, #234, #370, .T. ) ;
#157 = EDGE_CURVE ( 'NONE', #242, #245, #369, .T. ) ;
#158 = EDGE_CURVE ( 'NONE', #232, #237, #372, .T. ) ;
#159 = EDGE_CURVE ( 'NONE', #245, #233, #366, .T. ) ;
#160 = EDGE_CURVE ( 'NONE', #242, #235, #358, .T. ) ;
#161 = EDGE_CURVE ( 'NONE', #237, #245, #360, .T. ) ;
#162 = EDGE_CURVE ( 'NONE', #237, #234, #362, .T. ) ;
#163 = EDGE_CURVE ( 'NONE', #235, #233, #365, .T. ) ;
#164 = EDGE_CURVE ( 'NONE', #234, #233, #356, .T. ) ;
#165 = AXIS2_PLACEMENT_3D ( 'NONE', #15, #10, #9 ) ;
#166 = APPROVAL ( #423, 'UNSPECIFIED' ) ;
#167 = CC_DESIGN_PERSON_AND_ORGANIZATION_ASSIGNMENT ( #214, #421, ( #172 ) ) ;
#168 = AXIS2_PLACEMENT_3D ( 'NONE', #18, #25, #14 ) ;
#169 = AXIS2_PLACEMENT_3D ( 'NONE', #30, #20, #19 ) ;
#170 = AXIS2_PLACEMENT_3D ( 'NONE', #17, #5, #4 ) ;
#171 = CC_DESIGN_PERSON_AND_ORGANIZATION_ASSIGNMENT ( #213, #420, ( #172 ) ) ;
#172 = PRODUCT_DEFINITION_FORMATION_WITH_SPECIFIED_SOURCE ( 'ANY', '', #189, .NOT_KNOWN. ) ;
#173 = CC_DESIGN_DATE_AND_TIME_ASSIGNMENT ( #223, #424, ( #180 ) ) ;
#174 = CC_DESIGN_APPROVAL ( #177, ( #180 ) ) ;
#175 = CC_DESIGN_SECURITY_CLASSIFICATION ( #184, ( #172 ) ) ;
#176 = CC_DESIGN_PERSON_AND_ORGANIZATION_ASSIGNMENT ( #226, #436, ( #180 ) ) ;
#177 = APPROVAL ( #434, 'UNSPECIFIED' ) ;
#178 = AXIS2_PLACEMENT_3D ( 'NONE', #426, #404, #402 ) ;
#179 = CC_DESIGN_PERSON_AND_ORGANIZATION_ASSIGNMENT ( #200, #403, ( #189 ) ) ;
#180 = PRODUCT_DEFINITION ( 'UNKNOWN', '', #172, #398 ) ;
#181 = AXIS2_PLACEMENT_3D ( 'NONE', #3, #6, #12 ) ;
#182 = CC_DESIGN_APPROVAL ( #187, ( #184 ) ) ;
#183 = AXIS2_PLACEMENT_3D ( 'NONE', #31, #24, #23 ) ;
#184 = SECURITY_CLASSIFICATION ( '', '', #419 ) ;
#185 = CC_DESIGN_PERSON_AND_ORGANIZATION_ASSIGNMENT ( #212, #418, ( #184 ) ) ;
#186 =( GEOMETRIC_REPRESENTATION_CONTEXT ( 3 ) GLOBAL_UNCERTAINTY_ASSIGNED_CONTEXT ( ( #191 ) ) GLOBAL_UNIT_ASSIGNED_CONTEXT ( ( #428, #429, #430 ) ) REPRESENTATION_CONTEXT ( 'NONE', 'WORKASPACE' ) );
#187 = APPROVAL ( #417, 'UNSPECIFIED' ) ;
#188 = CC_DESIGN_DATE_AND_TIME_ASSIGNMENT ( #208, #416, ( #184 ) ) ;
#189 = PRODUCT ( 'Êðûøêà íà îòâåòâèòåëü Ò-îáðàçíûé âåðòèêàëüíûé TDSR_38400', 'Êðûøêà íà îòâåòâèòåëü Ò-îáðàçíûé âåðòèêàëüíûé TDSR_38400', '', ( #437 ) ) ;
#190 = PERSON ( 'UNSPECIFIED', 'UNSPECIFIED', 'UNSPECIFIED', ('UNSPECIFIED'), ('UNSPECIFIED'), ('UNSPECIFIED') ) ;
#191 = UNCERTAINTY_MEASURE_WITH_UNIT (LENGTH_MEASURE( 1.000000000000000100E-005 ), #428, 'distance_accuracy_value', 'NONE');
#192 = ADVANCED_BREP_SHAPE_REPRESENTATION ( '¦¨v°úð ýð þªòõªòøªõû¹ T-þñ¨ð÷ývù òõ¨ªøúðû¹ývù TDSR_38400', ( #193, #178 ), #186 ) ;
#193 = MANIFOLD_SOLID_BREP ( 'Âûðåç-Âûòÿíóòü1', #253 ) ;
#194 = ADVANCED_FACE ( 'NONE', ( #354, #348, #350 ), #75, .F. ) ;
#195 = CIRCLE ( 'NONE', #135, 2.500000000000002200 ) ;
#196 = APPROVAL_DATE_TIME ( #197, #177 ) ;
#197 = DATE_AND_TIME ( #325, #323 ) ;
#198 = VECTOR ( 'NONE', #124, 1000.000000000000000 ) ;
#199 = LINE ( 'NONE', #122, #198 ) ;
#200 = PERSON_AND_ORGANIZATION ( #190, #229 ) ;
#201 = APPROVAL_DATE_TIME ( #202, #187 ) ;
#202 = DATE_AND_TIME ( #203, #204 ) ;
#203 = CALENDAR_DATE ( 2012, 9, 11 ) ;
#204 = LOCAL_TIME ( 12, 44, 27.00000000000000000, #205 ) ;
#205 = COORDINATED_UNIVERSAL_TIME_OFFSET ( 4, 0, .AHEAD. ) ;
#206 = APPROVAL_PERSON_ORGANIZATION ( #207, #187, #413 ) ;
#207 = PERSON_AND_ORGANIZATION ( #190, #229 ) ;
#208 = DATE_AND_TIME ( #209, #210 ) ;
#209 = CALENDAR_DATE ( 2012, 9, 11 ) ;
#210 = LOCAL_TIME ( 12, 44, 27.00000000000000000, #211 ) ;
#211 = COORDINATED_UNIVERSAL_TIME_OFFSET ( 4, 0, .AHEAD. ) ;
#212 = PERSON_AND_ORGANIZATION ( #190, #229 ) ;
#213 = PERSON_AND_ORGANIZATION ( #190, #229 ) ;
#214 = PERSON_AND_ORGANIZATION ( #190, #229 ) ;
#215 = APPROVAL_DATE_TIME ( #216, #166 ) ;
#216 = DATE_AND_TIME ( #217, #218 ) ;
#217 = CALENDAR_DATE ( 2012, 9, 11 ) ;
#218 = LOCAL_TIME ( 12, 44, 27.00000000000000000, #219 ) ;
#219 = COORDINATED_UNIVERSAL_TIME_OFFSET ( 4, 0, .AHEAD. ) ;
#220 = APPROVAL_PERSON_ORGANIZATION ( #221, #166, #422 ) ;
#221 = PERSON_AND_ORGANIZATION ( #190, #229 ) ;
#222 = VERTEX_POINT ( 'NONE', #77 ) ;
#223 = DATE_AND_TIME ( #225, #224 ) ;
#224 = LOCAL_TIME ( 12, 44, 27.00000000000000000, #228 ) ;
#225 = CALENDAR_DATE ( 2012, 9, 11 ) ;
#226 = PERSON_AND_ORGANIZATION ( #190, #229 ) ;
#227 = APPROVAL_PERSON_ORGANIZATION ( #231, #177, #435 ) ;
#228 = COORDINATED_UNIVERSAL_TIME_OFFSET ( 4, 0, .AHEAD. ) ;
#229 = ORGANIZATION ( 'UNSPECIFIED', 'UNSPECIFIED', '' ) ;
#230 = VERTEX_POINT ( 'NONE', #69 ) ;
#231 = PERSON_AND_ORGANIZATION ( #190, #229 ) ;
#232 = VERTEX_POINT ( 'NONE', #68 ) ;
#233 = VERTEX_POINT ( 'NONE', #67 ) ;
#234 = VERTEX_POINT ( 'NONE', #65 ) ;
#235 = VERTEX_POINT ( 'NONE', #64 ) ;
#236 = VERTEX_POINT ( 'NONE', #101 ) ;
#237 = VERTEX_POINT ( 'NONE', #70 ) ;
#238 = VERTEX_POINT ( 'NONE', #63 ) ;
#239 = VERTEX_POINT ( 'NONE', #62 ) ;
#240 = VERTEX_POINT ( 'NONE', #61 ) ;
#241 = VERTEX_POINT ( 'NONE', #60 ) ;
#242 = VERTEX_POINT ( 'NONE', #58 ) ;
#243 = VERTEX_POINT ( 'NONE', #57 ) ;
#244 = VERTEX_POINT ( 'NONE', #56 ) ;
#245 = VERTEX_POINT ( 'NONE', #55 ) ;
#246 = ORIENTED_EDGE ( 'NONE', *, *, #162, .T. ) ;
#247 = ORIENTED_EDGE ( 'NONE', *, *, #139, .T. ) ;
#248 = ORIENTED_EDGE ( 'NONE', *, *, #147, .T. ) ;
#249 = ORIENTED_EDGE ( 'NONE', *, *, #153, .T. ) ;
#250 = ORIENTED_EDGE ( 'NONE', *, *, #159, .T. ) ;
#251 = ORIENTED_EDGE ( 'NONE', *, *, #164, .T. ) ;
#252 = ORIENTED_EDGE ( 'NONE', *, *, #161, .F. ) ;
#253 = CLOSED_SHELL ( 'NONE', ( #406, #414, #412, #411, #410, #409, #408, #194, #405, #400, #407, #415 ) ) ;
#254 = ORIENTED_EDGE ( 'NONE', *, *, #155, .T. ) ;
#255 = ORIENTED_EDGE ( 'NONE', *, *, #141, .T. ) ;
#256 = ORIENTED_EDGE ( 'NONE', *, *, #142, .T. ) ;
#257 = ORIENTED_EDGE ( 'NONE', *, *, #145, .T. ) ;
#258 = ORIENTED_EDGE ( 'NONE', *, *, #148, .T. ) ;
#259 = ORIENTED_EDGE ( 'NONE', *, *, #164, .F. ) ;
#260 = ORIENTED_EDGE ( 'NONE', *, *, #163, .F. ) ;
#261 = ORIENTED_EDGE ( 'NONE', *, *, #140, .T. ) ;
#262 = ORIENTED_EDGE ( 'NONE', *, *, #156, .F. ) ;
#263 = ORIENTED_EDGE ( 'NONE', *, *, #157, .F. ) ;
#264 = ORIENTED_EDGE ( 'NONE', *, *, #158, .T. ) ;
#265 = ORIENTED_EDGE ( 'NONE', *, *, #154, .F. ) ;
#266 = ORIENTED_EDGE ( 'NONE', *, *, #161, .T. ) ;
#267 = ORIENTED_EDGE ( 'NONE', *, *, #155, .F. ) ;
#268 = ORIENTED_EDGE ( 'NONE', *, *, #156, .T. ) ;
#269 = ORIENTED_EDGE ( 'NONE', *, *, #153, .F. ) ;
#270 = ORIENTED_EDGE ( 'NONE', *, *, #152, .T. ) ;
#271 = ORIENTED_EDGE ( 'NONE', *, *, #151, .F. ) ;
#272 = ORIENTED_EDGE ( 'NONE', *, *, #144, .F. ) ;
#273 = ORIENTED_EDGE ( 'NONE', *, *, #139, .F. ) ;
#274 = ORIENTED_EDGE ( 'NONE', *, *, #150, .F. ) ;
#275 = ORIENTED_EDGE ( 'NONE', *, *, #154, .T. ) ;
#276 = ORIENTED_EDGE ( 'NONE', *, *, #158, .F. ) ;
#277 = ORIENTED_EDGE ( 'NONE', *, *, #145, .F. ) ;
#278 = ORIENTED_EDGE ( 'NONE', *, *, #138, .T. ) ;
#279 = ORIENTED_EDGE ( 'NONE', *, *, #149, .T. ) ;
#280 = ORIENTED_EDGE ( 'NONE', *, *, #157, .T. ) ;
#281 = ORIENTED_EDGE ( 'NONE', *, *, #146, .F. ) ;
#282 = ORIENTED_EDGE ( 'NONE', *, *, #144, .T. ) ;
#283 = ORIENTED_EDGE ( 'NONE', *, *, #142, .F. ) ;
#284 = ORIENTED_EDGE ( 'NONE', *, *, #143, .F. ) ;
#285 = ORIENTED_EDGE ( 'NONE', *, *, #141, .F. ) ;
#286 = ORIENTED_EDGE ( 'NONE', *, *, #147, .F. ) ;
#287 = ORIENTED_EDGE ( 'NONE', *, *, #163, .T. ) ;
#288 = ORIENTED_EDGE ( 'NONE', *, *, #160, .F. ) ;
#289 = ORIENTED_EDGE ( 'NONE', *, *, #162, .F. ) ;
#290 = ORIENTED_EDGE ( 'NONE', *, *, #159, .F. ) ;
#291 = ORIENTED_EDGE ( 'NONE', *, *, #138, .F. ) ;
#292 = ORIENTED_EDGE ( 'NONE', *, *, #150, .T. ) ;
#293 = ORIENTED_EDGE ( 'NONE', *, *, #149, .F. ) ;
#294 = ORIENTED_EDGE ( 'NONE', *, *, #146, .T. ) ;
#295 = ORIENTED_EDGE ( 'NONE', *, *, #160, .T. ) ;
#296 = ORIENTED_EDGE ( 'NONE', *, *, #151, .T. ) ;
#297 = ORIENTED_EDGE ( 'NONE', *, *, #136, .T. ) ;
#298 = ORIENTED_EDGE ( 'NONE', *, *, #148, .F. ) ;
#299 = ORIENTED_EDGE ( 'NONE', *, *, #152, .F. ) ;
#300 = ORIENTED_EDGE ( 'NONE', *, *, #136, .F. ) ;
#301 = ORIENTED_EDGE ( 'NONE', *, *, #143, .T. ) ;
#302 = ORIENTED_EDGE ( 'NONE', *, *, #140, .F. ) ;
#303 = EDGE_LOOP ( 'NONE', ( #300, #291, #247, #295 ) ) ;
#304 = EDGE_LOOP ( 'NONE', ( #302 ) ) ;
#305 = EDGE_LOOP ( 'NONE', ( #260, #288, #280, #250 ) ) ;
#306 = EDGE_LOOP ( 'NONE', ( #277, #281, #248, #301 ) ) ;
#307 = EDGE_LOOP ( 'NONE', ( #285 ) ) ;
#308 = EDGE_LOOP ( 'NONE', ( #296, #299, #269, #279 ) ) ;
#309 = EDGE_LOOP ( 'NONE', ( #265 ) ) ;
#310 = EDGE_LOOP ( 'NONE', ( #283, #284, #282, #278 ) ) ;
#311 = EDGE_LOOP ( 'NONE', ( #255 ) ) ;
#312 = EDGE_LOOP ( 'NONE', ( #261 ) ) ;
#313 = EDGE_LOOP ( 'NONE', ( #254 ) ) ;
#314 = LINE ( 'NONE', #116, #326 ) ;
#315 = EDGE_LOOP ( 'NONE', ( #275 ) ) ;
#316 = EDGE_LOOP ( 'NONE', ( #267 ) ) ;
#317 = EDGE_LOOP ( 'NONE', ( #266, #263, #273, #272, #286, #274, #249, #264 ) ) ;
#318 = EDGE_LOOP ( 'NONE', ( #259, #262, #271, #258, #257, #256, #297, #287 ) ) ;
#319 = LINE ( 'NONE', #112, #342 ) ;
#320 = EDGE_LOOP ( 'NONE', ( #298, #293, #292, #294 ) ) ;
#321 = EDGE_LOOP ( 'NONE', ( #268, #289, #276, #270 ) ) ;
#322 = COORDINATED_UNIVERSAL_TIME_OFFSET ( 4, 0, .AHEAD. ) ;
#323 = LOCAL_TIME ( 12, 44, 27.00000000000000000, #322 ) ;
#324 = EDGE_LOOP ( 'NONE', ( #251, #290, #252, #246 ) ) ;
#325 = CALENDAR_DATE ( 2012, 9, 11 ) ;
#326 = VECTOR ( 'NONE', #111, 1000.000000000000000 ) ;
#327 = VECTOR ( 'NONE', #72, 1000.000000000000000 ) ;
#328 = VECTOR ( 'NONE', #66, 1000.000000000000000 ) ;
#329 = VECTOR ( 'NONE', #51, 1000.000000000000000 ) ;
#330 = SHAPE_DEFINITION_REPRESENTATION ( #399, #192 ) ;
#331 = LINE ( 'NONE', #79, #328 ) ;
#332 = FACE_OUTER_BOUND ( 'NONE', #311, .T. ) ;
#333 = FACE_OUTER_BOUND ( 'NONE', #306, .T. ) ;
#334 = FACE_OUTER_BOUND ( 'NONE', #313, .T. ) ;
#335 = FACE_OUTER_BOUND ( 'NONE', #305, .T. ) ;
#336 = FACE_OUTER_BOUND ( 'NONE', #317, .T. ) ;
#337 = FACE_OUTER_BOUND ( 'NONE', #308, .T. ) ;
#338 = FACE_BOUND ( 'NONE', #307, .T. ) ;
#339 = FACE_OUTER_BOUND ( 'NONE', #303, .T. ) ;
#340 = FACE_OUTER_BOUND ( 'NONE', #310, .T. ) ;
#341 = FACE_BOUND ( 'NONE', #304, .T. ) ;
#342 = VECTOR ( 'NONE', #117, 1000.000000000000000 ) ;
#343 = FACE_OUTER_BOUND ( 'NONE', #315, .T. ) ;
#344 = VERTEX_POINT ( 'NONE', #427 ) ;
#345 = FACE_OUTER_BOUND ( 'NONE', #312, .T. ) ;
#346 = CYLINDRICAL_SURFACE ( 'NONE', #126, 2.500000000000002200 ) ;
#347 = FACE_OUTER_BOUND ( 'NONE', #318, .T. ) ;
#348 = FACE_BOUND ( 'NONE', #316, .T. ) ;
#349 = VECTOR ( 'NONE', #76, 1000.000000000000000 ) ;
#350 = FACE_OUTER_BOUND ( 'NONE', #321, .T. ) ;
#351 = FACE_OUTER_BOUND ( 'NONE', #320, .T. ) ;
#352 = FACE_OUTER_BOUND ( 'NONE', #324, .T. ) ;
#353 = VECTOR ( 'NONE', #89, 1000.000000000000000 ) ;
#354 = FACE_BOUND ( 'NONE', #309, .T. ) ;
#355 = VECTOR ( 'NONE', #84, 1000.000000000000000 ) ;
#356 = LINE ( 'NONE', #78, #349 ) ;
#357 = VECTOR ( 'NONE', #82, 1000.000000000000000 ) ;
#358 = LINE ( 'NONE', #94, #361 ) ;
#359 = VECTOR ( 'NONE', #95, 1000.000000000000000 ) ;
#360 = LINE ( 'NONE', #90, #353 ) ;
#361 = VECTOR ( 'NONE', #92, 1000.000000000000000 ) ;
#362 = LINE ( 'NONE', #86, #355 ) ;
#363 = VECTOR ( 'NONE', #100, 1000.000000000000000 ) ;
#364 = VECTOR ( 'NONE', #104, 1000.000000000000000 ) ;
#365 = LINE ( 'NONE', #113, #357 ) ;
#366 = LINE ( 'NONE', #98, #359 ) ;
#367 = VECTOR ( 'NONE', #99, 1000.000000000000000 ) ;
#368 = CIRCLE ( 'NONE', #132, 2.500000000000002200 ) ;
#369 = LINE ( 'NONE', #114, #363 ) ;
#370 = LINE ( 'NONE', #115, #364 ) ;
#371 = VECTOR ( 'NONE', #118, 1000.000000000000000 ) ;
#372 = LINE ( 'NONE', #102, #367 ) ;
#373 = VECTOR ( 'NONE', #119, 1000.000000000000000 ) ;
#374 = CIRCLE ( 'NONE', #133, 2.500000000000002200 ) ;
#375 = VECTOR ( 'NONE', #121, 1000.000000000000000 ) ;
#376 = LINE ( 'NONE', #120, #373 ) ;
#377 = VECTOR ( 'NONE', #7, 1000.000000000000000 ) ;
#378 = LINE ( 'NONE', #123, #375 ) ;
#379 = VECTOR ( 'NONE', #11, 1000.000000000000000 ) ;
#380 = LINE ( 'NONE', #52, #371 ) ;
#381 = VECTOR ( 'NONE', #27, 1000.000000000000000 ) ;
#382 = LINE ( 'NONE', #21, #379 ) ;
#383 = VECTOR ( 'NONE', #41, 1000.000000000000000 ) ;
#384 = LINE ( 'NONE', #32, #381 ) ;
#385 = VECTOR ( 'NONE', #54, 1000.000000000000000 ) ;
#386 = LINE ( 'NONE', #91, #377 ) ;
#387 = LINE ( 'NONE', #53, #329 ) ;
#388 = LINE ( 'NONE', #96, #383 ) ;
#389 = LINE ( 'NONE', #59, #385 ) ;
#390 = VECTOR ( 'NONE', #73, 1000.000000000000000 ) ;
#391 = LINE ( 'NONE', #97, #327 ) ;
#392 = CIRCLE ( 'NONE', #134, 2.500000000000002200 ) ;
#393 = LINE ( 'NONE', #103, #390 ) ;
#394 = VERTEX_POINT ( 'NONE', #1 ) ;
#395 = CYLINDRICAL_SURFACE ( 'NONE', #181, 2.500000000000002200 ) ;
#396 = VERTEX_POINT ( 'NONE', #425 ) ;
#397 = VERTEX_POINT ( 'NONE', #2 ) ;
#398 = DESIGN_CONTEXT ( 'detailed design', #432, 'design' ) ;
#399 = PRODUCT_DEFINITION_SHAPE ( 'NONE', 'NONE',  #180 ) ;
#400 = ADVANCED_FACE ( 'NONE', ( #347 ), #50, .T. ) ;
#401 = APPLICATION_CONTEXT ( 'configuration controlled 3d designs of mechanical parts and assemblies' ) ;
#402 = DIRECTION ( 'NONE',  ( 1.000000000000000000, 0.0000000000000000000, 0.0000000000000000000 ) ) ;
#403 = PERSON_AND_ORGANIZATION_ROLE ( 'design_owner' ) ;
#404 = DIRECTION ( 'NONE',  ( 0.0000000000000000000, 0.0000000000000000000, 1.000000000000000000 ) ) ;
#405 = ADVANCED_FACE ( 'NONE', ( #336 ), #44, .F. ) ;
#406 = ADVANCED_FACE ( 'NONE', ( #352 ), #39, .F. ) ;
#407 = ADVANCED_FACE ( 'NONE', ( #332, #334 ), #346, .F. ) ;
#408 = ADVANCED_FACE ( 'NONE', ( #337 ), #33, .F. ) ;
#409 = ADVANCED_FACE ( 'NONE', ( #351 ), #26, .T. ) ;
#410 = ADVANCED_FACE ( 'NONE', ( #333 ), #22, .T. ) ;
#411 = ADVANCED_FACE ( 'NONE', ( #341, #338, #340 ), #16, .T. ) ;
#412 = ADVANCED_FACE ( 'NONE', ( #339 ), #13, .T. ) ;
#413 = APPROVAL_ROLE ( '' ) ;
#414 = ADVANCED_FACE ( 'NONE', ( #335 ), #8, .T. ) ;
#415 = ADVANCED_FACE ( 'NONE', ( #345, #343 ), #395, .F. ) ;
#416 = DATE_TIME_ROLE ( 'classification_date' ) ;
#417 = APPROVAL_STATUS ( 'not_yet_approved' ) ;
#418 = PERSON_AND_ORGANIZATION_ROLE ( 'classification_officer' ) ;
#419 = SECURITY_CLASSIFICATION_LEVEL ( 'unclassified' ) ;
#420 = PERSON_AND_ORGANIZATION_ROLE ( 'design_supplier' ) ;
#421 = PERSON_AND_ORGANIZATION_ROLE ( 'creator' ) ;
#422 = APPROVAL_ROLE ( '' ) ;
#423 = APPROVAL_STATUS ( 'not_yet_approved' ) ;
#424 = DATE_TIME_ROLE ( 'creation_date' ) ;
#425 = CARTESIAN_POINT ( 'NONE',  ( 2.653208575337321500E-015, 0.0000000000000000000, 347.5000000000000600 ) ) ;
#426 = CARTESIAN_POINT ( 'NONE',  ( 0.0000000000000000000, 0.0000000000000000000, 0.0000000000000000000 ) ) ;
#427 = CARTESIAN_POINT ( 'NONE',  ( 2.653208575337321500E-015, 0.5999999999999999800, 342.5000000000000000 ) ) ;
#428 =( LENGTH_UNIT ( ) NAMED_UNIT ( * ) SI_UNIT ( .MILLI., .METRE. ) );
#429 =( NAMED_UNIT ( * ) PLANE_ANGLE_UNIT ( ) SI_UNIT ( $, .RADIAN. ) );
#430 =( NAMED_UNIT ( * ) SI_UNIT ( $, .STERADIAN. ) SOLID_ANGLE_UNIT ( ) );
#431 = APPLICATION_PROTOCOL_DEFINITION ( 'international standard', 'config_control_design', 1994, #401 ) ;
#432 = APPLICATION_CONTEXT ( 'configuration controlled 3d designs of mechanical parts and assemblies' ) ;
#433 = APPLICATION_PROTOCOL_DEFINITION ( 'international standard', 'config_control_design', 1994, #432 ) ;
#434 = APPROVAL_STATUS ( 'not_yet_approved' ) ;
#435 = APPROVAL_ROLE ( '' ) ;
#436 = PERSON_AND_ORGANIZATION_ROLE ( 'creator' ) ;
#437 = MECHANICAL_CONTEXT ( 'NONE', #401, 'mechanical' ) ;
ENDSEC;
END-ISO-10303-21;
