ISO-10303-21;
HEADER;
FILE_DESCRIPTION (( 'STEP AP203' ),
    '1' );
FILE_NAME ('Ïëàñòèíà ñîåäèíèòåëüíàÿ ñ 2 îòâ._BMD1011HDZ.STEP',
    '2012-11-16T13:57:10',
    ( 'Àñååâ' ),
    ( '' ),
    'SwSTEP 2.0',
    'SolidWorks 2012',
    '' );
FILE_SCHEMA (( 'CONFIG_CONTROL_DESIGN' ));
ENDSEC;

DATA;
#1 = AXIS2_PLACEMENT_3D ( 'NONE', #55, #62, #51 ) ;
#2 = AXIS2_PLACEMENT_3D ( 'NONE', #124, #123, #122 ) ;
#3 = AXIS2_PLACEMENT_3D ( 'NONE', #135, #134, #133 ) ;
#4 = AXIS2_PLACEMENT_3D ( 'NONE', #142, #141, #140 ) ;
#5 =( GEOMETRIC_REPRESENTATION_CONTEXT ( 3 ) GLOBAL_UNCERTAINTY_ASSIGNED_CONTEXT ( ( #239 ) ) GLOBAL_UNIT_ASSIGNED_CONTEXT ( ( #106, #104, #103 ) ) REPRESENTATION_CONTEXT ( 'NONE', 'WORKASPACE' ) );
#6 = ORIENTED_EDGE ( 'NONE', *, *, #184, .T. ) ;
#7 = ORIENTED_EDGE ( 'NONE', *, *, #165, .T. ) ;
#8 = VERTEX_POINT ( 'NONE', #116 ) ;
#9 = VERTEX_POINT ( 'NONE', #120 ) ;
#10 = DESIGN_CONTEXT ( 'detailed design', #97, 'design' ) ;
#11 = PRODUCT_DEFINITION_SHAPE ( 'NONE', 'NONE',  #289 ) ;
#12 = ORIENTED_EDGE ( 'NONE', *, *, #180, .T. ) ;
#13 = ORIENTED_EDGE ( 'NONE', *, *, #180, .F. ) ;
#14 = ORIENTED_EDGE ( 'NONE', *, *, #182, .F. ) ;
#15 = PRODUCT ( 'Ïëàñòèíà ñîåäèíèòåëüíàÿ ñ 2 îòâ._BMD1011HDZ', 'Ïëàñòèíà ñîåäèíèòåëüíàÿ ñ 2 îòâ._BMD1011HDZ', '', ( #99 ) ) ;
#16 = PERSON ( 'UNSPECIFIED', 'UNSPECIFIED', 'UNSPECIFIED', ('UNSPECIFIED'), ('UNSPECIFIED'), ('UNSPECIFIED') ) ;
#17 = LINE ( 'NONE', #131, #20 ) ;
#18 = VECTOR ( 'NONE', #132, 1000.000000000000000 ) ;
#19 = LINE ( 'NONE', #136, #24 ) ;
#20 = VECTOR ( 'NONE', #65, 1000.000000000000000 ) ;
#21 = LINE ( 'NONE', #137, #22 ) ;
#22 = VECTOR ( 'NONE', #129, 1000.000000000000000 ) ;
#23 = LINE ( 'NONE', #126, #26 ) ;
#24 = VECTOR ( 'NONE', #127, 1000.000000000000000 ) ;
#25 = CIRCLE ( 'NONE', #2, 6.499999999999950300 ) ;
#26 = VECTOR ( 'NONE', #125, 1000.000000000000000 ) ;
#27 = LINE ( 'NONE', #128, #29 ) ;
#28 = LINE ( 'NONE', #130, #30 ) ;
#29 = VECTOR ( 'NONE', #118, 1000.000000000000000 ) ;
#30 = VECTOR ( 'NONE', #121, 1000.000000000000000 ) ;
#31 = LINE ( 'NONE', #117, #32 ) ;
#32 = VECTOR ( 'NONE', #114, 1000.000000000000000 ) ;
#33 = VERTEX_POINT ( 'NONE', #112 ) ;
#34 = SHAPE_DEFINITION_REPRESENTATION ( #11, #240 ) ;
#35 = VERTEX_POINT ( 'NONE', #110 ) ;
#36 = VERTEX_POINT ( 'NONE', #115 ) ;
#37 = VERTEX_POINT ( 'NONE', #108 ) ;
#38 = ORGANIZATION ( 'UNSPECIFIED', 'UNSPECIFIED', '' ) ;
#39 = PERSON_AND_ORGANIZATION ( #16, #38 ) ;
#40 = CARTESIAN_POINT ( 'NONE',  ( -45.00000000000000000, 20.00000000000005000, 0.0000000000000000000 ) ) ;
#41 = DIRECTION ( 'NONE',  ( 1.000000000000000000, 0.0000000000000000000, 0.0000000000000000000 ) ) ;
#42 = DIRECTION ( 'NONE',  ( 1.000000000000000000, 0.0000000000000000000, 0.0000000000000000000 ) ) ;
#43 = DIRECTION ( 'NONE',  ( 0.0000000000000000000, 0.0000000000000000000, 1.000000000000000000 ) ) ;
#44 = CARTESIAN_POINT ( 'NONE',  ( 25.00000000000000000, 0.0000000000000000000, 0.0000000000000000000 ) ) ;
#45 = CARTESIAN_POINT ( 'NONE',  ( -45.00000000000000000, 20.00000000000005000, -5.000000000000000000 ) ) ;
#46 = DIRECTION ( 'NONE',  ( 1.734723475976802700E-016, -1.000000000000000000, 0.0000000000000000000 ) ) ;
#47 = CARTESIAN_POINT ( 'NONE',  ( -44.99999999999999300, -20.00000000000006000, 0.0000000000000000000 ) ) ;
#48 = DIRECTION ( 'NONE',  ( -1.000000000000000000, -1.156482317317871500E-016, 0.0000000000000000000 ) ) ;
#49 = CARTESIAN_POINT ( 'NONE',  ( 45.00000000000000000, -20.00000000000006000, 0.0000000000000000000 ) ) ;
#50 = CARTESIAN_POINT ( 'NONE',  ( -45.00000000000000000, 20.00000000000005000, 0.0000000000000000000 ) ) ;
#51 = DIRECTION ( 'NONE',  ( 1.000000000000000000, 0.0000000000000000000, -0.0000000000000000000 ) ) ;
#52 = CARTESIAN_POINT ( 'NONE',  ( 45.00000000000000000, 20.00000000000006000, -5.000000000000000000 ) ) ;
#53 = PLANE ( 'NONE',  #1 ) ;
#54 = CARTESIAN_POINT ( 'NONE',  ( -44.99999999999999300, -20.00000000000006000, -5.000000000000000000 ) ) ;
#55 = CARTESIAN_POINT ( 'NONE',  ( 45.00000000000000000, 20.00000000000006000, -5.000000000000000000 ) ) ;
#56 = DIRECTION ( 'NONE',  ( -1.000000000000000000, -1.156482317317871500E-016, 0.0000000000000000000 ) ) ;
#57 = DIRECTION ( 'NONE',  ( -1.156482317317871500E-016, 1.000000000000000000, 0.0000000000000000000 ) ) ;
#58 = PLANE ( 'NONE',  #164 ) ;
#59 = DIRECTION ( 'NONE',  ( 1.000000000000000000, 0.0000000000000000000, -0.0000000000000000000 ) ) ;
#60 = CARTESIAN_POINT ( 'NONE',  ( 45.00000000000000000, 20.00000000000006000, -5.000000000000000000 ) ) ;
#61 = PLANE ( 'NONE',  #169 ) ;
#62 = DIRECTION ( 'NONE',  ( 0.0000000000000000000, -0.0000000000000000000, 1.000000000000000000 ) ) ;
#63 = CARTESIAN_POINT ( 'NONE',  ( 45.00000000000000000, 20.00000000000006000, 0.0000000000000000000 ) ) ;
#64 = DIRECTION ( 'NONE',  ( 0.0000000000000000000, -0.0000000000000000000, 1.000000000000000000 ) ) ;
#65 = DIRECTION ( 'NONE',  ( 1.734723475976802700E-016, -1.000000000000000000, 0.0000000000000000000 ) ) ;
#66 = DIRECTION ( 'NONE',  ( 0.0000000000000000000, 0.0000000000000000000, 1.000000000000000000 ) ) ;
#67 = CARTESIAN_POINT ( 'NONE',  ( 25.00000000000000000, 0.0000000000000000000, -5.000000000000000000 ) ) ;
#68 = DIRECTION ( 'NONE',  ( 1.000000000000000000, 0.0000000000000000000, 0.0000000000000000000 ) ) ;
#69 = DIRECTION ( 'NONE',  ( 1.000000000000000000, 0.0000000000000000000, 0.0000000000000000000 ) ) ;
#70 = CARTESIAN_POINT ( 'NONE',  ( -25.00000000000000000, -3.061616997868382300E-015, -5.000000000000000000 ) ) ;
#71 = DIRECTION ( 'NONE',  ( 1.734723475976802700E-016, -1.000000000000000000, 0.0000000000000000000 ) ) ;
#72 = DIRECTION ( 'NONE',  ( -1.000000000000000000, -1.734723475976802700E-016, 0.0000000000000000000 ) ) ;
#73 = CARTESIAN_POINT ( 'NONE',  ( -45.00000000000000000, 20.00000000000005000, -5.000000000000000000 ) ) ;
#74 = DIRECTION ( 'NONE',  ( 0.0000000000000000000, 0.0000000000000000000, 1.000000000000000000 ) ) ;
#75 = PLANE ( 'NONE',  #176 ) ;
#76 = DIRECTION ( 'NONE',  ( 0.0000000000000000000, 0.0000000000000000000, -1.000000000000000000 ) ) ;
#77 = DIRECTION ( 'NONE',  ( 1.000000000000000000, 0.0000000000000000000, 0.0000000000000000000 ) ) ;
#78 = PLANE ( 'NONE',  #178 ) ;
#79 = APPROVAL_ROLE ( '' ) ;
#80 = APPROVAL_STATUS ( 'not_yet_approved' ) ;
#81 = PLANE ( 'NONE',  #177 ) ;
#82 = CARTESIAN_POINT ( 'NONE',  ( 45.00000000000000000, -20.00000000000006000, -5.000000000000000000 ) ) ;
#83 = DATE_TIME_ROLE ( 'classification_date' ) ;
#84 = PERSON_AND_ORGANIZATION_ROLE ( 'classification_officer' ) ;
#85 = SECURITY_CLASSIFICATION_LEVEL ( 'unclassified' ) ;
#86 = PERSON_AND_ORGANIZATION_ROLE ( 'design_supplier' ) ;
#87 = DIRECTION ( 'NONE',  ( 0.0000000000000000000, -1.000000000000000000, 0.0000000000000000000 ) ) ;
#88 = PERSON_AND_ORGANIZATION_ROLE ( 'creator' ) ;
#89 = APPROVAL_ROLE ( '' ) ;
#90 = APPROVAL_STATUS ( 'not_yet_approved' ) ;
#91 = DATE_TIME_ROLE ( 'creation_date' ) ;
#92 = CARTESIAN_POINT ( 'NONE',  ( -44.99999999999999300, -20.00000000000006000, -5.000000000000000000 ) ) ;
#93 = PERSON_AND_ORGANIZATION_ROLE ( 'creator' ) ;
#94 = APPROVAL_ROLE ( '' ) ;
#95 = APPROVAL_STATUS ( 'not_yet_approved' ) ;
#96 = APPLICATION_PROTOCOL_DEFINITION ( 'international standard', 'config_control_design', 1994, #97 ) ;
#97 = APPLICATION_CONTEXT ( 'configuration controlled 3d designs of mechanical parts and assemblies' ) ;
#98 = PERSON_AND_ORGANIZATION_ROLE ( 'design_owner' ) ;
#99 = MECHANICAL_CONTEXT ( 'NONE', #101, 'mechanical' ) ;
#100 = DIRECTION ( 'NONE',  ( 1.000000000000000000, 0.0000000000000000000, 0.0000000000000000000 ) ) ;
#101 = APPLICATION_CONTEXT ( 'configuration controlled 3d designs of mechanical parts and assemblies' ) ;
#102 = APPLICATION_PROTOCOL_DEFINITION ( 'international standard', 'config_control_design', 1994, #101 ) ;
#103 =( NAMED_UNIT ( * ) SI_UNIT ( $, .STERADIAN. ) SOLID_ANGLE_UNIT ( ) );
#104 =( NAMED_UNIT ( * ) PLANE_ANGLE_UNIT ( ) SI_UNIT ( $, .RADIAN. ) );
#105 = DIRECTION ( 'NONE',  ( 0.0000000000000000000, -0.0000000000000000000, -1.000000000000000000 ) ) ;
#106 =( LENGTH_UNIT ( ) NAMED_UNIT ( * ) SI_UNIT ( .MILLI., .METRE. ) );
#107 = DIRECTION ( 'NONE',  ( 0.0000000000000000000, 0.0000000000000000000, 1.000000000000000000 ) ) ;
#108 = CARTESIAN_POINT ( 'NONE',  ( -18.50000000000005000, -3.061616997868382300E-015, -5.000000000000000000 ) ) ;
#109 = CARTESIAN_POINT ( 'NONE',  ( 0.0000000000000000000, 0.0000000000000000000, 0.0000000000000000000 ) ) ;
#110 = CARTESIAN_POINT ( 'NONE',  ( 31.49999999999995000, 0.0000000000000000000, -5.000000000000000000 ) ) ;
#111 = CARTESIAN_POINT ( 'NONE',  ( 45.00000000000000000, 20.00000000000006000, 0.0000000000000000000 ) ) ;
#112 = CARTESIAN_POINT ( 'NONE',  ( 31.49999999999995000, 0.0000000000000000000, 0.0000000000000000000 ) ) ;
#113 = CARTESIAN_POINT ( 'NONE',  ( 45.00000000000000000, -20.00000000000006000, -5.000000000000000000 ) ) ;
#114 = DIRECTION ( 'NONE',  ( 0.0000000000000000000, 1.000000000000000000, 0.0000000000000000000 ) ) ;
#115 = CARTESIAN_POINT ( 'NONE',  ( -18.50000000000005000, -3.061616997868382300E-015, 0.0000000000000000000 ) ) ;
#116 = CARTESIAN_POINT ( 'NONE',  ( -45.00000000000000000, 20.00000000000005000, -5.000000000000000000 ) ) ;
#117 = CARTESIAN_POINT ( 'NONE',  ( 45.00000000000000000, -20.00000000000006000, -5.000000000000000000 ) ) ;
#118 = DIRECTION ( 'NONE',  ( 0.0000000000000000000, 1.000000000000000000, 0.0000000000000000000 ) ) ;
#119 = CARTESIAN_POINT ( 'NONE',  ( -44.99999999999999300, -20.00000000000006000, 0.0000000000000000000 ) ) ;
#120 = CARTESIAN_POINT ( 'NONE',  ( 45.00000000000000000, 20.00000000000006000, -5.000000000000000000 ) ) ;
#121 = DIRECTION ( 'NONE',  ( -1.000000000000000000, -1.156482317317871500E-016, 0.0000000000000000000 ) ) ;
#122 = DIRECTION ( 'NONE',  ( 1.000000000000000000, 0.0000000000000000000, 0.0000000000000000000 ) ) ;
#123 = DIRECTION ( 'NONE',  ( 0.0000000000000000000, 0.0000000000000000000, 1.000000000000000000 ) ) ;
#124 = CARTESIAN_POINT ( 'NONE',  ( -25.00000000000000000, -3.061616997868382300E-015, -5.000000000000000000 ) ) ;
#125 = DIRECTION ( 'NONE',  ( 0.0000000000000000000, 0.0000000000000000000, 1.000000000000000000 ) ) ;
#126 = CARTESIAN_POINT ( 'NONE',  ( 45.00000000000000000, -20.00000000000006000, -5.000000000000000000 ) ) ;
#127 = DIRECTION ( 'NONE',  ( 0.0000000000000000000, 0.0000000000000000000, 1.000000000000000000 ) ) ;
#128 = CARTESIAN_POINT ( 'NONE',  ( 45.00000000000000000, -20.00000000000006000, 0.0000000000000000000 ) ) ;
#129 = DIRECTION ( 'NONE',  ( 0.0000000000000000000, 0.0000000000000000000, 1.000000000000000000 ) ) ;
#130 = CARTESIAN_POINT ( 'NONE',  ( 45.00000000000000000, 20.00000000000006000, 0.0000000000000000000 ) ) ;
#131 = CARTESIAN_POINT ( 'NONE',  ( -45.00000000000000000, 20.00000000000005000, -5.000000000000000000 ) ) ;
#132 = DIRECTION ( 'NONE',  ( 1.000000000000000000, 0.0000000000000000000, 0.0000000000000000000 ) ) ;
#133 = DIRECTION ( 'NONE',  ( 1.000000000000000000, 0.0000000000000000000, 0.0000000000000000000 ) ) ;
#134 = DIRECTION ( 'NONE',  ( 0.0000000000000000000, 0.0000000000000000000, 1.000000000000000000 ) ) ;
#135 = CARTESIAN_POINT ( 'NONE',  ( -25.00000000000000000, -3.061616997868382300E-015, 0.0000000000000000000 ) ) ;
#136 = CARTESIAN_POINT ( 'NONE',  ( -44.99999999999999300, -20.00000000000006000, -5.000000000000000000 ) ) ;
#137 = CARTESIAN_POINT ( 'NONE',  ( 45.00000000000000000, 20.00000000000006000, -5.000000000000000000 ) ) ;
#138 = CARTESIAN_POINT ( 'NONE',  ( -44.99999999999999300, -20.00000000000006000, -5.000000000000000000 ) ) ;
#139 = DIRECTION ( 'NONE',  ( 0.0000000000000000000, 0.0000000000000000000, 1.000000000000000000 ) ) ;
#140 = DIRECTION ( 'NONE',  ( 1.000000000000000000, 0.0000000000000000000, 0.0000000000000000000 ) ) ;
#141 = DIRECTION ( 'NONE',  ( 0.0000000000000000000, 0.0000000000000000000, 1.000000000000000000 ) ) ;
#142 = CARTESIAN_POINT ( 'NONE',  ( 25.00000000000000000, 0.0000000000000000000, -5.000000000000000000 ) ) ;
#143 = ADVANCED_FACE ( 'NONE', ( #195 ), #81, .T. ) ;
#144 = ADVANCED_FACE ( 'NONE', ( #194 ), #78, .T. ) ;
#145 = ADVANCED_FACE ( 'NONE', ( #196 ), #75, .T. ) ;
#146 = ADVANCED_FACE ( 'NONE', ( #198, #201 ), #203, .F. ) ;
#147 = ADVANCED_FACE ( 'NONE', ( #197, #204 ), #206, .F. ) ;
#148 = ADVANCED_FACE ( 'NONE', ( #202, #207, #199 ), #61, .T. ) ;
#149 = ADVANCED_FACE ( 'NONE', ( #200 ), #58, .T. ) ;
#150 = ADVANCED_FACE ( 'NONE', ( #205, #211, #209 ), #53, .F. ) ;
#151 = VERTEX_POINT ( 'NONE', #54 ) ;
#152 = VERTEX_POINT ( 'NONE', #50 ) ;
#153 = VERTEX_POINT ( 'NONE', #49 ) ;
#154 = ORIENTED_EDGE ( 'NONE', *, *, #185, .F. ) ;
#155 = ORIENTED_EDGE ( 'NONE', *, *, #186, .T. ) ;
#156 = EDGE_LOOP ( 'NONE', ( #191, #189, #190, #192 ) ) ;
#157 = EDGE_LOOP ( 'NONE', ( #224 ) ) ;
#158 = CLOSED_SHELL ( 'NONE', ( #144, #143, #145, #149, #150, #148, #147, #146 ) ) ;
#159 = EDGE_LOOP ( 'NONE', ( #249 ) ) ;
#160 = APPROVAL_PERSON_ORGANIZATION ( #212, #290, #94 ) ;
#161 = ORIENTED_EDGE ( 'NONE', *, *, #181, .F. ) ;
#162 = ORIENTED_EDGE ( 'NONE', *, *, #167, .F. ) ;
#163 = AXIS2_PLACEMENT_3D ( 'NONE', #44, #43, #42 ) ;
#164 = AXIS2_PLACEMENT_3D ( 'NONE', #60, #57, #56 ) ;
#165 = EDGE_CURVE ( 'NONE', #9, #8, #210, .T. ) ;
#166 = EDGE_CURVE ( 'NONE', #33, #33, #215, .T. ) ;
#167 = EDGE_CURVE ( 'NONE', #243, #153, #208, .T. ) ;
#168 = EDGE_CURVE ( 'NONE', #152, #243, #214, .T. ) ;
#169 = AXIS2_PLACEMENT_3D ( 'NONE', #63, #64, #59 ) ;
#170 = AXIS2_PLACEMENT_3D ( 'NONE', #67, #66, #69 ) ;
#171 = AXIS2_PLACEMENT_3D ( 'NONE', #70, #74, #77 ) ;
#172 = EDGE_CURVE ( 'NONE', #35, #35, #218, .T. ) ;
#173 = EDGE_CURVE ( 'NONE', #8, #152, #220, .T. ) ;
#174 = EDGE_CURVE ( 'NONE', #36, #36, #219, .T. ) ;
#175 = EDGE_CURVE ( 'NONE', #151, #242, #221, .T. ) ;
#176 = AXIS2_PLACEMENT_3D ( 'NONE', #73, #72, #71 ) ;
#177 = AXIS2_PLACEMENT_3D ( 'NONE', #92, #87, #105 ) ;
#178 = AXIS2_PLACEMENT_3D ( 'NONE', #82, #68, #76 ) ;
#179 = EDGE_CURVE ( 'NONE', #8, #151, #17, .T. ) ;
#180 = EDGE_CURVE ( 'NONE', #9, #244, #21, .T. ) ;
#181 = EDGE_CURVE ( 'NONE', #151, #243, #19, .T. ) ;
#182 = EDGE_CURVE ( 'NONE', #242, #153, #23, .T. ) ;
#183 = EDGE_CURVE ( 'NONE', #37, #37, #25, .T. ) ;
#184 = EDGE_CURVE ( 'NONE', #244, #152, #28, .T. ) ;
#185 = EDGE_CURVE ( 'NONE', #153, #244, #27, .T. ) ;
#186 = EDGE_CURVE ( 'NONE', #242, #9, #31, .T. ) ;
#187 = ORIENTED_EDGE ( 'NONE', *, *, #182, .T. ) ;
#188 = ORIENTED_EDGE ( 'NONE', *, *, #175, .T. ) ;
#189 = ORIENTED_EDGE ( 'NONE', *, *, #173, .F. ) ;
#190 = ORIENTED_EDGE ( 'NONE', *, *, #179, .T. ) ;
#191 = ORIENTED_EDGE ( 'NONE', *, *, #168, .F. ) ;
#192 = ORIENTED_EDGE ( 'NONE', *, *, #181, .T. ) ;
#193 = ORIENTED_EDGE ( 'NONE', *, *, #184, .F. ) ;
#194 = FACE_OUTER_BOUND ( 'NONE', #233, .T. ) ;
#195 = FACE_OUTER_BOUND ( 'NONE', #236, .T. ) ;
#196 = FACE_OUTER_BOUND ( 'NONE', #156, .T. ) ;
#197 = FACE_OUTER_BOUND ( 'NONE', #235, .T. ) ;
#198 = FACE_OUTER_BOUND ( 'NONE', #228, .T. ) ;
#199 = FACE_OUTER_BOUND ( 'NONE', #227, .T. ) ;
#200 = FACE_OUTER_BOUND ( 'NONE', #223, .T. ) ;
#201 = FACE_OUTER_BOUND ( 'NONE', #159, .T. ) ;
#202 = FACE_BOUND ( 'NONE', #157, .T. ) ;
#203 = CYLINDRICAL_SURFACE ( 'NONE', #171, 6.499999999999950300 ) ;
#204 = FACE_OUTER_BOUND ( 'NONE', #230, .T. ) ;
#205 = FACE_BOUND ( 'NONE', #238, .T. ) ;
#206 = CYLINDRICAL_SURFACE ( 'NONE', #170, 6.499999999999950300 ) ;
#207 = FACE_BOUND ( 'NONE', #225, .T. ) ;
#208 = LINE ( 'NONE', #47, #217 ) ;
#209 = FACE_OUTER_BOUND ( 'NONE', #231, .T. ) ;
#210 = LINE ( 'NONE', #52, #213 ) ;
#211 = FACE_BOUND ( 'NONE', #229, .T. ) ;
#212 = PERSON_AND_ORGANIZATION ( #16, #38 ) ;
#213 = VECTOR ( 'NONE', #48, 1000.000000000000000 ) ;
#214 = LINE ( 'NONE', #40, #216 ) ;
#215 = CIRCLE ( 'NONE', #163, 6.499999999999950300 ) ;
#216 = VECTOR ( 'NONE', #46, 1000.000000000000000 ) ;
#217 = VECTOR ( 'NONE', #41, 1000.000000000000000 ) ;
#218 = CIRCLE ( 'NONE', #4, 6.499999999999950300 ) ;
#219 = CIRCLE ( 'NONE', #3, 6.499999999999950300 ) ;
#220 = LINE ( 'NONE', #45, #222 ) ;
#221 = LINE ( 'NONE', #138, #18 ) ;
#222 = VECTOR ( 'NONE', #139, 1000.000000000000000 ) ;
#223 = EDGE_LOOP ( 'NONE', ( #193, #13, #7, #248 ) ) ;
#224 = ORIENTED_EDGE ( 'NONE', *, *, #174, .F. ) ;
#225 = EDGE_LOOP ( 'NONE', ( #234 ) ) ;
#226 = ORIENTED_EDGE ( 'NONE', *, *, #175, .F. ) ;
#227 = EDGE_LOOP ( 'NONE', ( #251, #6, #252, #253 ) ) ;
#228 = EDGE_LOOP ( 'NONE', ( #250 ) ) ;
#229 = EDGE_LOOP ( 'NONE', ( #232 ) ) ;
#230 = EDGE_LOOP ( 'NONE', ( #255 ) ) ;
#231 = EDGE_LOOP ( 'NONE', ( #237, #226, #246, #247 ) ) ;
#232 = ORIENTED_EDGE ( 'NONE', *, *, #172, .T. ) ;
#233 = EDGE_LOOP ( 'NONE', ( #154, #14, #155, #12 ) ) ;
#234 = ORIENTED_EDGE ( 'NONE', *, *, #166, .F. ) ;
#235 = EDGE_LOOP ( 'NONE', ( #254 ) ) ;
#236 = EDGE_LOOP ( 'NONE', ( #162, #161, #188, #187 ) ) ;
#237 = ORIENTED_EDGE ( 'NONE', *, *, #186, .F. ) ;
#238 = EDGE_LOOP ( 'NONE', ( #245 ) ) ;
#239 = UNCERTAINTY_MEASURE_WITH_UNIT (LENGTH_MEASURE( 1.000000000000000100E-005 ), #106, 'distance_accuracy_value', 'NONE');
#240 = ADVANCED_BREP_SHAPE_REPRESENTATION ( '¦ûð¸ªøýð ¸þõôøýøªõû¹ýð  ¸ 2 þªò._BMD1011HDZ', ( #241, #287 ), #5 ) ;
#241 = MANIFOLD_SOLID_BREP ( 'Base-Flange1', #158 ) ;
#242 = VERTEX_POINT ( 'NONE', #113 ) ;
#243 = VERTEX_POINT ( 'NONE', #119 ) ;
#244 = VERTEX_POINT ( 'NONE', #111 ) ;
#245 = ORIENTED_EDGE ( 'NONE', *, *, #183, .T. ) ;
#246 = ORIENTED_EDGE ( 'NONE', *, *, #179, .F. ) ;
#247 = ORIENTED_EDGE ( 'NONE', *, *, #165, .F. ) ;
#248 = ORIENTED_EDGE ( 'NONE', *, *, #173, .T. ) ;
#249 = ORIENTED_EDGE ( 'NONE', *, *, #174, .T. ) ;
#250 = ORIENTED_EDGE ( 'NONE', *, *, #183, .F. ) ;
#251 = ORIENTED_EDGE ( 'NONE', *, *, #185, .T. ) ;
#252 = ORIENTED_EDGE ( 'NONE', *, *, #168, .T. ) ;
#253 = ORIENTED_EDGE ( 'NONE', *, *, #167, .T. ) ;
#254 = ORIENTED_EDGE ( 'NONE', *, *, #172, .F. ) ;
#255 = ORIENTED_EDGE ( 'NONE', *, *, #166, .T. ) ;
#256 = COORDINATED_UNIVERSAL_TIME_OFFSET ( 4, 0, .AHEAD. ) ;
#257 = LOCAL_TIME ( 17, 57, 10.00000000000000000, #256 ) ;
#258 = CALENDAR_DATE ( 2012, 16, 11 ) ;
#259 = DATE_AND_TIME ( #258, #257 ) ;
#260 = APPROVAL_DATE_TIME ( #259, #290 ) ;
#261 = PERSON_AND_ORGANIZATION ( #16, #38 ) ;
#262 = COORDINATED_UNIVERSAL_TIME_OFFSET ( 4, 0, .AHEAD. ) ;
#263 = LOCAL_TIME ( 17, 57, 10.00000000000000000, #262 ) ;
#264 = CALENDAR_DATE ( 2012, 16, 11 ) ;
#265 = DATE_AND_TIME ( #264, #263 ) ;
#266 = PERSON_AND_ORGANIZATION ( #16, #38 ) ;
#267 = APPROVAL_PERSON_ORGANIZATION ( #266, #295, #89 ) ;
#268 = COORDINATED_UNIVERSAL_TIME_OFFSET ( 4, 0, .AHEAD. ) ;
#269 = LOCAL_TIME ( 17, 57, 10.00000000000000000, #268 ) ;
#270 = CALENDAR_DATE ( 2012, 16, 11 ) ;
#271 = DATE_AND_TIME ( #270, #269 ) ;
#272 = APPROVAL_DATE_TIME ( #271, #295 ) ;
#273 = PERSON_AND_ORGANIZATION ( #16, #38 ) ;
#274 = PERSON_AND_ORGANIZATION ( #16, #38 ) ;
#275 = PERSON_AND_ORGANIZATION ( #16, #38 ) ;
#276 = COORDINATED_UNIVERSAL_TIME_OFFSET ( 4, 0, .AHEAD. ) ;
#277 = LOCAL_TIME ( 17, 57, 10.00000000000000000, #276 ) ;
#278 = CALENDAR_DATE ( 2012, 16, 11 ) ;
#279 = DATE_AND_TIME ( #278, #277 ) ;
#280 = PERSON_AND_ORGANIZATION ( #16, #38 ) ;
#281 = APPROVAL_PERSON_ORGANIZATION ( #280, #302, #79 ) ;
#282 = COORDINATED_UNIVERSAL_TIME_OFFSET ( 4, 0, .AHEAD. ) ;
#283 = LOCAL_TIME ( 17, 57, 10.00000000000000000, #282 ) ;
#284 = CALENDAR_DATE ( 2012, 16, 11 ) ;
#285 = DATE_AND_TIME ( #284, #283 ) ;
#286 = APPROVAL_DATE_TIME ( #285, #302 ) ;
#287 = AXIS2_PLACEMENT_3D ( 'NONE', #109, #107, #100 ) ;
#288 = CC_DESIGN_PERSON_AND_ORGANIZATION_ASSIGNMENT ( #39, #98, ( #15 ) ) ;
#289 = PRODUCT_DEFINITION ( 'UNKNOWN', '', #294, #10 ) ;
#290 = APPROVAL ( #95, 'UNSPECIFIED' ) ;
#291 = CC_DESIGN_APPROVAL ( #290, ( #289 ) ) ;
#292 = CC_DESIGN_PERSON_AND_ORGANIZATION_ASSIGNMENT ( #261, #93, ( #289 ) ) ;
#293 = CC_DESIGN_DATE_AND_TIME_ASSIGNMENT ( #265, #91, ( #289 ) ) ;
#294 = PRODUCT_DEFINITION_FORMATION_WITH_SPECIFIED_SOURCE ( 'ANY', '', #15, .NOT_KNOWN. ) ;
#295 = APPROVAL ( #90, 'UNSPECIFIED' ) ;
#296 = CC_DESIGN_APPROVAL ( #295, ( #294 ) ) ;
#297 = CC_DESIGN_PERSON_AND_ORGANIZATION_ASSIGNMENT ( #273, #88, ( #294 ) ) ;
#298 = CC_DESIGN_PERSON_AND_ORGANIZATION_ASSIGNMENT ( #274, #86, ( #294 ) ) ;
#299 = SECURITY_CLASSIFICATION ( '', '', #85 ) ;
#300 = CC_DESIGN_PERSON_AND_ORGANIZATION_ASSIGNMENT ( #275, #84, ( #299 ) ) ;
#301 = CC_DESIGN_DATE_AND_TIME_ASSIGNMENT ( #279, #83, ( #299 ) ) ;
#302 = APPROVAL ( #80, 'UNSPECIFIED' ) ;
#303 = CC_DESIGN_APPROVAL ( #302, ( #299 ) ) ;
#304 = CC_DESIGN_SECURITY_CLASSIFICATION ( #299, ( #294 ) ) ;
#305 = PRODUCT_RELATED_PRODUCT_CATEGORY ( 'detail', '', ( #15 ) ) ;
ENDSEC;
END-ISO-10303-21;
