  0
SECTION
  2
HEADER
  9
$ACADVER
  1
AC1015
  9
$ACADMAINTVER
 70
     6
  9
$DWGCODEPAGE
  3
ANSI_1252
  9
$INSBASE
 10
0.0
 20
0.0
 30
0.0
  9
$EXTMIN
 10
69.395417
 20
287.976483
 30
-1.0
  9
$EXTMAX
 10
1026.514554
 20
492.804657
 30
0.7
  9
$LIMMIN
 10
0.0
 20
0.0
  9
$LIMMAX
 10
12.0
 20
9.0
  9
$ORTHOMODE
 70
     0
  9
$REGENMODE
 70
     1
  9
$FILLMODE
 70
     1
  9
$QTEXTMODE
 70
     0
  9
$MIRRTEXT
 70
     0
  9
$LTSCALE
 40
5.0
  9
$ATTMODE
 70
     1
  9
$TEXTSIZE
 40
0.2
  9
$TRACEWID
 40
0.05
  9
$TEXTSTYLE
  7
STANDARD
  9
$CLAYER
  8
0
  9
$CELTYPE
  6
ByLayer
  9
$CECOLOR
 62
   256
  9
$CELTSCALE
 40
1.0
  9
$DISPSILH
 70
     0
  9
$DIMSCALE
 40
1.0
  9
$DIMASZ
 40
0.18
  9
$DIMEXO
 40
0.0625
  9
$DIMDLI
 40
0.38
  9
$DIMRND
 40
0.0
  9
$DIMDLE
 40
0.0
  9
$DIMEXE
 40
0.18
  9
$DIMTP
 40
0.0
  9
$DIMTM
 40
0.0
  9
$DIMTXT
 40
0.18
  9
$DIMCEN
 40
0.09
  9
$DIMTSZ
 40
0.0
  9
$DIMTOL
 70
     0
  9
$DIMLIM
 70
     0
  9
$DIMTIH
 70
     1
  9
$DIMTOH
 70
     1
  9
$DIMSE1
 70
     0
  9
$DIMSE2
 70
     0
  9
$DIMTAD
 70
     0
  9
$DIMZIN
 70
     0
  9
$DIMBLK
  1

  9
$DIMASO
 70
     1
  9
$DIMSHO
 70
     1
  9
$DIMPOST
  1

  9
$DIMAPOST
  1

  9
$DIMALT
 70
     0
  9
$DIMALTD
 70
     2
  9
$DIMALTF
 40
25.4
  9
$DIMLFAC
 40
1.0
  9
$DIMTOFL
 70
     0
  9
$DIMTVP
 40
0.0
  9
$DIMTIX
 70
     0
  9
$DIMSOXD
 70
     0
  9
$DIMSAH
 70
     0
  9
$DIMBLK1
  1

  9
$DIMBLK2
  1

  9
$DIMSTYLE
  2
STANDARD
  9
$DIMCLRD
 70
     0
  9
$DIMCLRE
 70
     0
  9
$DIMCLRT
 70
     0
  9
$DIMTFAC
 40
1.0
  9
$DIMGAP
 40
0.09
  9
$DIMJUST
 70
     0
  9
$DIMSD1
 70
     0
  9
$DIMSD2
 70
     0
  9
$DIMTOLJ
 70
     1
  9
$DIMTZIN
 70
     0
  9
$DIMALTZ
 70
     0
  9
$DIMALTTZ
 70
     0
  9
$DIMUPT
 70
     0
  9
$DIMDEC
 70
     4
  9
$DIMTDEC
 70
     4
  9
$DIMALTU
 70
     2
  9
$DIMALTTD
 70
     2
  9
$DIMTXSTY
  7
STANDARD
  9
$DIMAUNIT
 70
     0
  9
$DIMADEC
 70
     0
  9
$DIMALTRND
 40
0.0
  9
$DIMAZIN
 70
     0
  9
$DIMDSEP
 70
     0
  9
$DIMATFIT
 70
     3
  9
$DIMFRAC
 70
     0
  9
$DIMLDRBLK
  1

  9
$DIMLUNIT
 70
     2
  9
$DIMLWD
 70
     0
  9
$DIMLWE
 70
     0
  9
$DIMTMOVE
 70
     0
  9
$LUNITS
 70
     2
  9
$LUPREC
 70
     4
  9
$SKETCHINC
 40
0.1
  9
$FILLETRAD
 40
0.0
  9
$AUNITS
 70
     0
  9
$AUPREC
 70
     0
  9
$MENU
  1
.
  9
$ELEVATION
 40
0.0
  9
$PELEVATION
 40
0.0
  9
$THICKNESS
 40
0.0
  9
$LIMCHECK
 70
     0
  9
$CHAMFERA
 40
0.0
  9
$CHAMFERB
 40
0.0
  9
$CHAMFERC
 40
0.0
  9
$CHAMFERD
 40
0.0
  9
$SKPOLY
 70
     0
  9
$TDCREATE
 40
2453353.758792454
  9
$TDUCREATE
 40
0.000000000
  9
$TDUPDATE
 40
0.000000000
  9
$TDUUPDATE
 40
2447892.958333334
  9
$TDINDWG
 40
78332576.0667047050
  9
$TDUSRTIMER
 40
0.0000000000
  9
$USRTIMER
 70
     1
  9
$ANGBASE
 50
0.0
  9
$ANGDIR
 70
     0
  9
$PDMODE
 70
     0
  9
$PDSIZE
 40
0.0
  9
$PLINEWID
 40
0.0
  9
$SPLFRAME
 70
     0
  9
$SPLINETYPE
 70
     6
  9
$SPLINESEGS
 70
     8
  9
$HANDSEED
  5
128F
  9
$SURFTAB1
 70
     6
  9
$SURFTAB2
 70
     6
  9
$SURFTYPE
 70
     6
  9
$SURFU
 70
     6
  9
$SURFV
 70
     6
  9
$UCSBASE
  2

  9
$UCSNAME
  2

  9
$UCSORG
 10
0.0
 20
0.0
 30
0.0
  9
$UCSXDIR
 10
1.0
 20
0.0
 30
0.0
  9
$UCSYDIR
 10
0.0
 20
1.0
 30
0.0
  9
$UCSORTHOREF
  2

  9
$UCSORTHOVIEW
 70
     0
  9
$UCSORGTOP
 10
0.0
 20
0.0
 30
0.0
  9
$UCSORGBOTTOM
 10
0.0
 20
0.0
 30
0.0
  9
$UCSORGLEFT
 10
0.0
 20
0.0
 30
0.0
  9
$UCSORGRIGHT
 10
0.0
 20
0.0
 30
0.0
  9
$UCSORGFRONT
 10
0.0
 20
0.0
 30
0.0
  9
$UCSORGBACK
 10
0.0
 20
0.0
 30
0.0
  9
$PUCSBASE
  2

  9
$PUCSNAME
  2

  9
$PUCSORG
 10
0.0
 20
0.0
 30
0.0
  9
$PUCSXDIR
 10
1.0
 20
0.0
 30
0.0
  9
$PUCSYDIR
 10
0.0
 20
1.0
 30
0.0
  9
$PUCSORTHOREF
  2

  9
$PUCSORTHOVIEW
 70
     0
  9
$PUCSORGTOP
 10
0.0
 20
0.0
 30
0.0
  9
$PUCSORGBOTTOM
 10
0.0
 20
0.0
 30
0.0
  9
$PUCSORGLEFT
 10
0.0
 20
0.0
 30
0.0
  9
$PUCSORGRIGHT
 10
0.0
 20
0.0
 30
0.0
  9
$PUCSORGFRONT
 10
0.0
 20
0.0
 30
0.0
  9
$PUCSORGBACK
 10
0.0
 20
0.0
 30
0.0
  9
$USERI1
 70
     0
  9
$USERI2
 70
     0
  9
$USERI3
 70
     0
  9
$USERI4
 70
     0
  9
$USERI5
 70
     0
  9
$USERR1
 40
0.0
  9
$USERR2
 40
0.0
  9
$USERR3
 40
0.0
  9
$USERR4
 40
0.0
  9
$USERR5
 40
0.0
  9
$WORLDVIEW
 70
     1
  9
$SHADEDGE
 70
     3
  9
$SHADEDIF
 70
    70
  9
$TILEMODE
 70
     1
  9
$MAXACTVP
 70
    64
  9
$PINSBASE
 10
0.0
 20
0.0
 30
0.0
  9
$PLIMCHECK
 70
     0
  9
$PEXTMIN
 10
0.0
 20
0.0
 30
0.0
  9
$PEXTMAX
 10
0.0
 20
0.0
 30
0.0
  9
$PLIMMIN
 10
0.0
 20
0.0
  9
$PLIMMAX
 10
0.0
 20
0.0
  9
$UNITMODE
 70
     0
  9
$VISRETAIN
 70
     1
  9
$PLINEGEN
 70
     0
  9
$PSLTSCALE
 70
     1
  9
$TREEDEPTH
 70
  3020
  9
$CMLSTYLE
  2
Standard
  9
$CMLJUST
 70
     0
  9
$CMLSCALE
 40
1.0
  9
$PROXYGRAPHICS
 70
     0
  9
$MEASUREMENT
 70
     0
  9
$CELWEIGHT
370
     0
  9
$ENDCAPS
280
     0
  9
$JOINSTYLE
280
     0
  9
$LWDISPLAY
290
     0
  9
$INSUNITS
 70
     0
  9
$HYPERLINKBASE
  1

  9
$STYLESHEET
  1

  9
$XEDIT
290
     1
  9
$CEPSNTYPE
380
     0
  9
$PSTYLEMODE
290
     1
  9
$FINGERPRINTGUID
  2

  9
$VERSIONGUID
  2

  9
$EXTNAMES
290
     1
  9
$PSVPSCALE
 40
0.0
  0
ENDSEC
  0
SECTION
  2
CLASSES
  0
CLASS
  1
LWPOLYLINE
  2
AcDbPolyline
  3
AutoCAD 2000
 90
        0
280
     0
281
     1
  0
CLASS
  1
IMAGE
  2
AcDbRasterImage
  3
ISM
 90
      127
280
     0
281
     1
  0
CLASS
  1
OLE2FRAME
  2
AcDbOle2Frame
  3
AutoCAD 2000
 90
        0
280
     0
281
     1
  0
CLASS
  1
HATCH
  2
AcDbHatch
  3
AutoCAD 2000
 90
        0
280
     0
281
     1
  0
CLASS
  1
DICTIONARYVAR
  2
AcDbDictionaryVar
  3
AutoCAD 2000
 90
        0
280
     0
281
     0
  0
CLASS
  1
RASTERVARIABLES
  2
AcDbRasterVariables
  3
ISM
 90
        0
280
     0
281
     0
  0
CLASS
  1
IMAGEDEF
  2
AcDbRasterImageDef
  3
ISM
 90
        0
280
     0
281
     0
  0
CLASS
  1
IMAGEDEF_REACTOR
  2
AcDbRasterImageDefReactor
  3
ISM
 90
        1
280
     0
281
     0
  0
CLASS
  1
IDBUFFER
  2
AcDbIdBuffer
  3
AutoCAD 2000
 90
        0
280
     0
281
     0
  0
CLASS
  1
SPATIAL_FILTER
  2
AcDbSpatialFilter
  3
AutoCAD 2000
 90
        0
280
     0
281
     0
  0
CLASS
  1
XRECORD
  2
AcDbXrecord
  3
AutoCAD 2000
 90
        0
280
     0
281
     0
  0
CLASS
  1
SORTENTSTABLE
  2
AcDbSortentsTable
  3
AutoCAD 2000
 90
        0
280
     0
281
     0
  0
CLASS
  1
LAYER_INDEX
  2
AcDbLayerIndex
  3
AutoCAD 2000
 90
        0
280
     0
281
     0
  0
CLASS
  1
SPATIAL_INDEX
  2
AcDbSpatialIndex
  3
AutoCAD 2000
 90
        0
280
     0
281
     0
  0
CLASS
  1
OBJECT_PTR
  2
CAseDLPNTableRecord
  3
"ASE-LPNTableRecord"
 90
        1
280
     0
281
     0
  0
CLASS
  1
LAYOUT
  2
AcDbLayout
  3
AutoCAD 2000
 90
        0
280
     0
281
     0
  0
CLASS
  1
PLOTSETTINGS
  2
AcDbPlotSettings
  3
AutoCAD 2000
 90
        0
280
     0
281
     0
  0
CLASS
  1
ACDBDICTIONARYWDFLT
  2
AcDbDictionaryWithDefault
  3
AutoCAD 2000
 90
        0
280
     0
281
     0
  0
CLASS
  1
ACDBPLACEHOLDER
  2
AcDbPlaceHolder
  3
AutoCAD 2000
 90
        0
280
     0
281
     0
  0
CLASS
  1
VBA_PROJECT
  2
AcDbVbaProject
  3
acadvba
 90
        0
280
     0
281
     0
  0
CLASS
  1
WIPEOUT
  2
AcDbWipeout
  3
WipeOut|AutoCAD Express Tool|expresstools@autodesk.com
 90
      127
280
     0
281
     1
  0
CLASS
  1
WIPEOUTVARIABLES
  2
AcDbWipeoutVariables
  3
WipeOut|AutoCAD Express Tool|expresstools@autodesk.com
 90
        0
280
     0
281
     0
  0
CLASS
  1
RTEXT
  2
RText
  3
RText|AutoCAD Express Tool|expresstools@autodesk.com
 90
        0
280
     0
281
     1
  0
CLASS
  1
ARCALIGNEDTEXT
  2
AcDbArcAlignedText
  3
ATEXT|AutoCAD Express Tool|expresstools@autodesk.com
 90
        0
280
     0
281
     1
  0
ENDSEC
  0
SECTION
  2
TABLES
  0
TABLE
  2
VPORT
  5
1094
100
AcDbSymbolTable
 70
     1
  0
VPORT
  5
10BB
100
AcDbSymbolTableRecord
100
AcDbViewportTableRecord
  2
*ACTIVE
 70
     0
 10
0.0
 20
0.0
 11
1.0
 21
1.0
 12
450.328833
 22
266.374849
 13
0.0
 23
0.0
 14
0.5
 24
0.5
 15
0.5
 25
0.5
 16
0.0
 26
0.0
 36
1.0
 17
0.0
 27
0.0
 37
0.0
 40
620.078606
 41
1.701534
 42
50.0
 43
0.0
 44
0.0
 50
0.0
 51
0.0
 71
    16
 72
  1000
 73
     1
 74
     3
 75
     0
 76
     0
 77
     0
 78
     0
281
     0
 65
     0
110
0.0
120
0.0
130
0.0
111
1.0
121
0.0
131
0.0
112
0.0
122
1.0
132
0.0
345
0
346
0
 79
     0
146
0.0
  0
ENDTAB
  0
TABLE
  2
LTYPE
  5
1091
100
AcDbSymbolTable
 70
     6
  0
LTYPE
  5
109A
100
AcDbSymbolTableRecord
100
AcDbLinetypeTableRecord
  2
ByBlock
 70
    64
  3

 72
    65
 73
     0
 40
0.0
  0
LTYPE
  5
109B
100
AcDbSymbolTableRecord
100
AcDbLinetypeTableRecord
  2
ByLayer
 70
    64
  3

 72
    65
 73
     0
 40
0.0
  0
LTYPE
  5
109C
100
AcDbSymbolTableRecord
100
AcDbLinetypeTableRecord
  2
CONTINUOUS
 70
     0
  3
Solid line
 72
    65
 73
     0
 40
0.0
  0
LTYPE
  5
109D
100
AcDbSymbolTableRecord
100
AcDbLinetypeTableRecord
  2
CENTER
 70
     0
  3
____ _ ____ _ ____ _ ____ _ ____ _ ____ _ ____
 72
    65
 73
     4
 40
0.6
 49
0.375
 74
     0
 49
-0.075
 74
     0
 49
0.075
 74
     0
 49
-0.075
 74
     0
  0
LTYPE
  5
109E
100
AcDbSymbolTableRecord
100
AcDbLinetypeTableRecord
  2
ACAD_ISO02W100
 70
     0
  3
ISO Strichlinie __ __ __ __ __ __ __ __ __ __ _
 72
    65
 73
     2
 40
15.0
 49
12.0
 74
     0
 49
-3.0
 74
     0
  0
LTYPE
  5
109F
100
AcDbSymbolTableRecord
100
AcDbLinetypeTableRecord
  2
DASHED
 70
     0
  3
_ _ _ _ _ _ _ _ _ _ _ _ _ _ _ _ _ _ _ _ _ _ _ _
 72
    65
 73
     2
 40
0.375
 49
0.25
 74
     0
 49
-0.125
 74
     0
  0
ENDTAB
  0
TABLE
  2
LAYER
  5
108F
100
AcDbSymbolTable
 70
     4
  0
LAYER
  5
10A0
100
AcDbSymbolTableRecord
100
AcDbLayerTableRecord
  2
0
 70
     0
 62
     7
  6
CONTINUOUS
290
     1
370
    -3
390
0
  0
LAYER
  5
10A1
100
AcDbSymbolTableRecord
100
AcDbLayerTableRecord
  2
90000_FRAME
 70
     0
 62
     7
  6
CONTINUOUS
290
     1
370
    -3
390
0
  0
LAYER
  5
10A2
100
AcDbSymbolTableRecord
100
AcDbLayerTableRecord
  2
91000_TIP
 70
     0
 62
     7
  6
CONTINUOUS
290
     1
370
    -3
390
0
  0
LAYER
  5
10A7
100
AcDbSymbolTableRecord
100
AcDbLayerTableRecord
  2
DEFPOINTS
 70
     0
 62
     7
  6
CONTINUOUS
290
     0
370
    -3
390
0
  0
ENDTAB
  0
TABLE
  2
STYLE
  5
1090
100
AcDbSymbolTable
 70
     2
  0
STYLE
  5
10C0
100
AcDbSymbolTableRecord
100
AcDbTextStyleTableRecord
  2
STANDARD
 70
     0
 40
0.0
 41
1.0
 50
0.0
 71
     0
 42
0.2
  3
txt.shx
  4

  0
STYLE
  5
10D4
100
AcDbSymbolTableRecord
100
AcDbTextStyleTableRecord
  2
SEACAD_TXT_SHX
 70
     0
 40
0.2
 41
1.0
 50
0.0
 71
     0
 42
0.2
  3
txt.shx
  4

  0
ENDTAB
  0
TABLE
  2
VIEW
  5
1092
100
AcDbSymbolTable
 70
     0
  0
ENDTAB
  0
TABLE
  2
UCS
  5
1093
100
AcDbSymbolTable
 70
     0
  0
ENDTAB
  0
TABLE
  2
APPID
  5
1095
100
AcDbSymbolTable
 70
     4
  0
APPID
  5
10BC
100
AcDbSymbolTableRecord
100
AcDbRegAppTableRecord
  2
ACAD
 70
     0
  0
APPID
  5
10BD
100
AcDbSymbolTableRecord
100
AcDbRegAppTableRecord
  2
AUSTER_ANSICHT
 70
     0
  0
APPID
  5
10BE
100
AcDbSymbolTableRecord
100
AcDbRegAppTableRecord
  2
AUSTER_FOLIE
 70
     0
  0
APPID
  5
10BF
100
AcDbSymbolTableRecord
100
AcDbRegAppTableRecord
  2
ACAECLAYERSTANDARD
 70
     0
  0
ENDTAB
  0
TABLE
  2
DIMSTYLE
  5
1096
100
AcDbSymbolTable
 70
     3
100
AcDbDimStyleTable
 71
     0
  0
DIMSTYLE
105
10CA
100
AcDbSymbolTableRecord
100
AcDbDimStyleTableRecord
  2
STANDARD
 70
     0
  3

  4

 40
1.0
 41
0.18
 42
0.0625
 43
0.38
 44
0.18
 45
0.0
 46
0.0
 47
0.0
 48
0.0
 71
     0
 72
     0
 73
     1
 74
     1
 75
     0
 76
     0
 77
     0
 78
     0
 79
     0
140
0.18
141
0.09
142
0.0
143
25.4
144
1.0
145
0.0
146
1.0
147
0.09
148
0.0
170
     0
171
     2
172
     0
173
     0
174
     0
175
     0
176
     0
177
     0
178
     0
179
     0
271
     4
272
     4
273
     2
274
     2
275
     0
276
     0
277
     2
278
    46
279
     0
280
     0
281
     0
282
     0
283
     1
284
     0
285
     0
286
     0
288
     0
289
     3
340
10C0
341
0
342
0
343
0
344
0
371
    -2
372
    -2
  0
DIMSTYLE
105
10CB
100
AcDbSymbolTableRecord
100
AcDbDimStyleTableRecord
  2
DSTYLE1
 70
     0
  3

  4

 40
1.0
 41
3.0
 42
0.0
 43
0.38
 44
1.0
 45
0.0
 46
0.0
 47
0.0
 48
0.0
 71
     0
 72
     0
 73
     0
 74
     0
 75
     0
 76
     0
 77
     1
 78
     3
 79
     0
140
2.5
141
0.09
142
0.0
143
0.03937
144
1.0
145
0.0
146
1.0
147
1.0
148
0.0
170
     0
171
     2
172
     0
173
     0
174
     0
175
     0
176
     0
177
     0
178
     0
179
     0
271
     4
272
     4
273
     2
274
     2
275
     0
276
     0
277
     2
278
    46
279
     0
280
     0
281
     0
282
     0
283
     1
284
     0
285
     0
286
     0
288
     0
289
     3
340
10C0
341
0
342
0
343
0
344
0
371
    -2
372
    -2
  0
DIMSTYLE
105
10CC
100
AcDbSymbolTableRecord
100
AcDbDimStyleTableRecord
  2
H035
 70
     0
  3

  4

 40
0.0
 41
3.5
 42
0.0
 43
3.75
 44
2.0
 45
0.0
 46
0.0
 47
0.0
 48
0.0
 71
     0
 72
     0
 73
     0
 74
     0
 75
     0
 76
     0
 77
     1
 78
     8
 79
     0
140
3.5
141
2.5
142
0.0
143
0.039
144
1.0
145
0.0
146
1.0
147
0.5
148
0.0
170
     0
171
     4
172
     1
173
     0
174
     0
175
     0
176
   256
177
     7
178
     7
179
     0
271
     4
272
     4
273
     2
274
     2
275
     0
276
     0
277
     2
278
    46
279
     0
280
     0
281
     0
282
     0
283
     1
284
     0
285
     0
286
     0
288
     0
289
     3
340
10C0
341
0
342
0
343
0
344
0
371
    -2
372
    -2
  0
ENDTAB
  0
TABLE
  2
BLOCK_RECORD
  5
10C5
100
AcDbSymbolTable
 70
     2
  0
BLOCK_RECORD
  5
10C3
100
AcDbSymbolTableRecord
100
AcDbBlockTableRecord
  2
*Model_Space
340
0
  0
BLOCK_RECORD
  5
10C4
100
AcDbSymbolTableRecord
100
AcDbBlockTableRecord
  2
*Paper_Space
340
0
  0
BLOCK_RECORD
  5
10C1
100
AcDbSymbolTableRecord
100
AcDbBlockTableRecord
  2
$MODEL_SPACE
340
0
  0
BLOCK_RECORD
  5
10C2
100
AcDbSymbolTableRecord
100
AcDbBlockTableRecord
  2
$PAPER_SPACE
340
0
  0
ENDTAB
  0
ENDSEC
  0
SECTION
  2
BLOCKS
  0
BLOCK
  5
10C6
100
AcDbEntity
  8
0
390
0
100
AcDbBlockBegin
  2
*Model_Space
 70
     0
 10
0.0
 20
0.0
 30
0.0
  3
*Model_Space
  1

  0
ENDBLK
  5
10C7
100
AcDbEntity
  8
0
390
0
100
AcDbBlockEnd
  0
BLOCK
  5
10C8
100
AcDbEntity
 67
     1
  8
0
390
0
100
AcDbBlockBegin
  2
*Paper_Space
 70
     0
 10
0.0
 20
0.0
 30
0.0
  3
*Paper_Space
  1

  0
ENDBLK
  5
10C9
100
AcDbEntity
 67
     1
  8
0
390
0
100
AcDbBlockEnd
  0
BLOCK
  5
10CD
100
AcDbEntity
  8
0
100
AcDbBlockBegin
  2
$MODEL_SPACE
 70
     0
 10
0.0
 20
0.0
 30
0.0
  3
$MODEL_SPACE
  1

  0
ENDBLK
  5
21
100
AcDbEntity
  8
0
100
AcDbBlockEnd
  0
BLOCK
  5
10CE
100
AcDbEntity
  8
0
100
AcDbBlockBegin
  2
$PAPER_SPACE
 70
     0
 10
0.0
 20
0.0
 30
0.0
  3
$PAPER_SPACE
  1

  0
ENDBLK
  5
76
100
AcDbEntity
  8
0
100
AcDbBlockEnd
  0
ENDSEC
  0
SECTION
  2
ENTITIES
  0
TEXT
  5
10D5
100
AcDbEntity
  8
90000_FRAME
370
    13
  6
CONTINUOUS
 62
     7
100
AcDbText
 10
291.281847
 20
13.095396
 30
0.0
 40
2.0
  1

  7
SEACAD_TXT_SHX
 11
291.281847
 21
15.095396
 31
0.0
100
AcDbText
 73
     3
  0
TEXT
  5
10D6
100
AcDbEntity
  8
90000_FRAME
370
    13
  6
CONTINUOUS
 62
     7
100
AcDbText
 10
291.341758
 20
16.323373
 30
0.0
 40
2.0
  1

  7
SEACAD_TXT_SHX
 11
291.341758
 21
18.323373
 31
0.0
100
AcDbText
 73
     3
  0
LINE
  5
10D7
100
AcDbEntity
  8
90000_FRAME
370
    13
  6
CONTINUOUS
 62
     7
100
AcDbLine
 10
230.0
 20
5.0
 30
0.0
 11
230.0
 21
0.46
 31
0.0
  0
LINE
  5
10D8
100
AcDbEntity
  8
90000_FRAME
370
    13
  6
CONTINUOUS
 62
     7
100
AcDbLine
 10
410.0
 20
287.0
 30
0.0
 11
410.0
 21
49.731822
 31
0.0
  0
LINE
  5
10D9
100
AcDbEntity
  8
90000_FRAME
370
    13
  6
CONTINUOUS
 62
     7
100
AcDbLine
 10
20.0
 20
292.0
 30
0.0
 11
20.0
 21
5.0
 31
0.0
  0
LINE
  5
10DA
100
AcDbEntity
  8
90000_FRAME
370
    13
  6
CONTINUOUS
 62
     7
100
AcDbLine
 10
415.0
 20
5.0
 30
0.0
 11
415.0
 21
292.0
 31
0.0
  0
LINE
  5
10DB
100
AcDbEntity
  8
90000_FRAME
370
    13
  6
CONTINUOUS
 62
     7
100
AcDbLine
 10
20.0
 20
5.0
 30
0.0
 11
415.0
 21
5.0
 31
0.0
  0
LINE
  5
10DC
100
AcDbEntity
  8
90000_FRAME
370
    13
  6
CONTINUOUS
 62
     7
100
AcDbLine
 10
0.0
 20
0.0
 30
0.0
 11
420.0
 21
0.0
 31
0.0
  0
LINE
  5
10DD
100
AcDbEntity
  8
90000_FRAME
370
    13
  6
CONTINUOUS
 62
     7
100
AcDbLine
 10
0.0
 20
297.0
 30
0.0
 11
0.0
 21
0.0
 31
0.0
  0
LINE
  5
10DE
100
AcDbEntity
  8
90000_FRAME
370
    13
  6
CONTINUOUS
 62
     7
100
AcDbLine
 10
283.28854
 20
30.470004
 30
0.0
 11
324.34
 21
30.470004
 31
0.0
  0
LINE
  5
10DF
100
AcDbEntity
  8
90000_FRAME
370
    13
  6
CONTINUOUS
 62
     7
100
AcDbLine
 10
283.28854
 20
34.700004
 30
0.0
 11
324.34
 21
34.700004
 31
0.0
  0
LINE
  5
10E0
100
AcDbEntity
  8
90000_FRAME
370
    13
  6
CONTINUOUS
 62
     7
100
AcDbLine
 10
283.28854
 20
26.240004
 30
0.0
 11
324.34
 21
26.240004
 31
0.0
  0
LINE
  5
10E1
100
AcDbEntity
  8
90000_FRAME
370
    13
  6
CONTINUOUS
 62
     7
100
AcDbLine
 10
283.28854
 20
9.320004
 30
0.0
 11
415.0
 21
9.320004
 31
0.0
  0
LINE
  5
10E2
100
AcDbEntity
  8
90000_FRAME
370
    13
  6
CONTINUOUS
 62
     7
100
AcDbLine
 10
300.596988
 20
49.731822
 30
0.0
 11
300.596988
 21
26.240004
 31
0.0
  0
LINE
  5
10E3
100
AcDbEntity
  8
91000_TIP
370
    13
  6
CONTINUOUS
 62
     7
100
AcDbLine
 10
284.791145
 20
41.454783
 30
0.0
 11
299.533645
 21
41.454783
 31
0.0
  0
LINE
  5
10E4
100
AcDbEntity
  8
91000_TIP
370
    13
  6
CONTINUOUS
 62
     7
100
AcDbLine
 10
295.664535
 20
45.537043
 30
0.0
 11
295.664535
 21
37.120693
 31
0.0
  0
LINE
  5
10E5
100
AcDbEntity
  8
90000_FRAME
370
    13
  6
CONTINUOUS
 62
     7
100
AcDbLine
 10
25.0
 20
10.0
 30
0.0
 11
283.28854
 21
10.0
 31
0.0
  0
LINE
  5
10E6
100
AcDbEntity
  8
90000_FRAME
370
    13
  6
CONTINUOUS
 62
     7
100
AcDbLine
 10
217.52
 20
5.0
 30
0.0
 11
217.52
 21
10.0
 31
0.0
  0
TEXT
  5
10E7
100
AcDbEntity
  8
90000_FRAME
370
    13
  6
CONTINUOUS
 62
     7
100
AcDbText
 10
20.927902
 20
76.487024
 30
0.0
 40
3.5
  1
E
  7
SEACAD_TXT_SHX
 11
20.927902
 21
79.987024
 31
0.0
100
AcDbText
 73
     3
  0
TEXT
  5
10E8
100
AcDbEntity
  8
90000_FRAME
370
    13
  6
CONTINUOUS
 62
     7
100
AcDbText
 10
20.957463
 20
122.657024
 30
0.0
 40
3.5
  1
D
  7
SEACAD_TXT_SHX
 11
20.957463
 21
126.157024
 31
0.0
100
AcDbText
 73
     3
  0
TEXT
  5
10E9
100
AcDbEntity
  8
90000_FRAME
370
    13
  6
CONTINUOUS
 62
     7
100
AcDbText
 10
20.987049
 20
168.827024
 30
0.0
 40
3.5
  1
C
  7
SEACAD_TXT_SHX
 11
20.987049
 21
172.327024
 31
0.0
100
AcDbText
 73
     3
  0
TEXT
  5
10EA
100
AcDbEntity
  8
90000_FRAME
370
    13
  6
CONTINUOUS
 62
     7
100
AcDbText
 10
20.957497
 20
214.997024
 30
0.0
 40
3.5
  1
B
  7
SEACAD_TXT_SHX
 11
20.957497
 21
218.497024
 31
0.0
100
AcDbText
 73
     3
  0
TEXT
  5
10EB
100
AcDbEntity
  8
90000_FRAME
370
    13
  6
CONTINUOUS
 62
     7
100
AcDbText
 10
21.01661
 20
261.167024
 30
0.0
 40
3.5
  1
A
  7
SEACAD_TXT_SHX
 11
21.01661
 21
264.667024
 31
0.0
100
AcDbText
 73
     3
  0
TEXT
  5
10EC
100
AcDbEntity
  8
90000_FRAME
370
    13
  6
CONTINUOUS
 62
     7
100
AcDbText
 10
48.273095
 20
287.700042
 30
0.0
 40
3.5
  1
1
  7
SEACAD_TXT_SHX
 11
48.273095
 21
291.200042
 31
0.0
100
AcDbText
 73
     3
  0
TEXT
  5
10ED
100
AcDbEntity
  8
90000_FRAME
370
    13
  6
CONTINUOUS
 62
     7
100
AcDbText
 10
96.669615
 20
287.700042
 30
0.0
 40
3.5
  1
2
  7
SEACAD_TXT_SHX
 11
96.669615
 21
291.200042
 31
0.0
100
AcDbText
 73
     3
  0
TEXT
  5
10EE
100
AcDbEntity
  8
90000_FRAME
370
    13
  6
CONTINUOUS
 62
     7
100
AcDbText
 10
144.799798
 20
287.700042
 30
0.0
 40
3.5
  1
3
  7
SEACAD_TXT_SHX
 11
144.799798
 21
291.200042
 31
0.0
100
AcDbText
 73
     3
  0
TEXT
  5
10EF
100
AcDbEntity
  8
90000_FRAME
370
    13
  6
CONTINUOUS
 62
     7
100
AcDbText
 10
192.959444
 20
287.700042
 30
0.0
 40
3.5
  1
4
  7
SEACAD_TXT_SHX
 11
192.959444
 21
291.200042
 31
0.0
100
AcDbText
 73
     3
  0
TEXT
  5
10F0
100
AcDbEntity
  8
90000_FRAME
370
    13
  6
CONTINUOUS
 62
     7
100
AcDbText
 10
241.059815
 20
287.700042
 30
0.0
 40
3.5
  1
5
  7
SEACAD_TXT_SHX
 11
241.059815
 21
291.200042
 31
0.0
100
AcDbText
 73
     3
  0
TEXT
  5
10F1
100
AcDbEntity
  8
90000_FRAME
370
    13
  6
CONTINUOUS
 62
     7
100
AcDbText
 10
289.157237
 20
287.700042
 30
0.0
 40
3.5
  1
6
  7
SEACAD_TXT_SHX
 11
289.157237
 21
291.200042
 31
0.0
100
AcDbText
 73
     3
  0
TEXT
  5
10F2
100
AcDbEntity
  8
90000_FRAME
370
    13
  6
CONTINUOUS
 62
     7
100
AcDbText
 10
337.316815
 20
287.700042
 30
0.0
 40
3.5
  1
7
  7
SEACAD_TXT_SHX
 11
337.316815
 21
291.200042
 31
0.0
100
AcDbText
 73
     3
  0
TEXT
  5
10F3
100
AcDbEntity
  8
90000_FRAME
370
    13
  6
CONTINUOUS
 62
     7
100
AcDbText
 10
385.445841
 20
287.700042
 30
0.0
 40
3.5
  1
8
  7
SEACAD_TXT_SHX
 11
385.445841
 21
291.200042
 31
0.0
100
AcDbText
 73
     3
  0
TEXT
  5
10F4
100
AcDbEntity
  8
90000_FRAME
370
    13
  6
CONTINUOUS
 62
     7
100
AcDbText
 10
411.01381
 20
261.547779
 30
0.0
 40
3.5
  1
A
  7
SEACAD_TXT_SHX
 11
411.01381
 21
265.047779
 31
0.0
100
AcDbText
 73
     3
  0
TEXT
  5
10F5
100
AcDbEntity
  8
90000_FRAME
370
    13
  6
CONTINUOUS
 62
     7
100
AcDbText
 10
410.954697
 20
215.377779
 30
0.0
 40
3.5
  1
B
  7
SEACAD_TXT_SHX
 11
410.954697
 21
218.877779
 31
0.0
100
AcDbText
 73
     3
  0
TEXT
  5
10F6
100
AcDbEntity
  8
90000_FRAME
370
    13
  6
CONTINUOUS
 62
     7
100
AcDbText
 10
410.984249
 20
169.207779
 30
0.0
 40
3.5
  1
C
  7
SEACAD_TXT_SHX
 11
410.984249
 21
172.707779
 31
0.0
100
AcDbText
 73
     3
  0
TEXT
  5
10F7
100
AcDbEntity
  8
90000_FRAME
370
    13
  6
CONTINUOUS
 62
     7
100
AcDbText
 10
410.954663
 20
123.037779
 30
0.0
 40
3.5
  1
D
  7
SEACAD_TXT_SHX
 11
410.954663
 21
126.537779
 31
0.0
100
AcDbText
 73
     3
  0
TEXT
  5
10F8
100
AcDbEntity
  8
90000_FRAME
370
    13
  6
CONTINUOUS
 62
     7
100
AcDbText
 10
48.273095
 20
5.720042
 30
0.0
 40
3.5
  1
1
  7
SEACAD_TXT_SHX
 11
48.273095
 21
9.220042
 31
0.0
100
AcDbText
 73
     3
  0
TEXT
  5
10F9
100
AcDbEntity
  8
90000_FRAME
370
    13
  6
CONTINUOUS
 62
     7
100
AcDbText
 10
96.669615
 20
5.720042
 30
0.0
 40
3.5
  1
2
  7
SEACAD_TXT_SHX
 11
96.669615
 21
9.220042
 31
0.0
100
AcDbText
 73
     3
  0
TEXT
  5
10FA
100
AcDbEntity
  8
90000_FRAME
370
    13
  6
CONTINUOUS
 62
     7
100
AcDbText
 10
144.799798
 20
5.720042
 30
0.0
 40
3.5
  1
3
  7
SEACAD_TXT_SHX
 11
144.799798
 21
9.220042
 31
0.0
100
AcDbText
 73
     3
  0
TEXT
  5
10FB
100
AcDbEntity
  8
90000_FRAME
370
    13
  6
CONTINUOUS
 62
     7
100
AcDbText
 10
192.959444
 20
5.720042
 30
0.0
 40
3.5
  1
4
  7
SEACAD_TXT_SHX
 11
192.959444
 21
9.220042
 31
0.0
100
AcDbText
 73
     3
  0
TEXT
  5
10FC
100
AcDbEntity
  8
90000_FRAME
370
    13
  6
CONTINUOUS
 62
     7
100
AcDbText
 10
20.927721
 20
30.317024
 30
0.0
 40
3.5
  1
F
  7
SEACAD_TXT_SHX
 11
20.927721
 21
33.817024
 31
0.0
100
AcDbText
 73
     3
  0
TEXT
  5
10FD
100
AcDbEntity
  8
90000_FRAME
370
    13
  6
CONTINUOUS
 62
     7
100
AcDbText
 10
5.644133
 20
209.275945
 30
0.0
 40
1.181102
  1
Confie a titre de secret d'enterprise. Tous droits reserves.
 50
90.000172
  7
SEACAD_TXT_SHX
 11
4.463031
 21
209.275941
 31
0.0
100
AcDbText
 73
     3
  0
TEXT
  5
10FE
100
AcDbEntity
  8
90000_FRAME
370
    13
  6
CONTINUOUS
 62
     7
100
AcDbText
 10
9.273763
 20
209.275956
 30
0.0
 40
1.181102
  1
Confiado como secreto industrial. Nos reservamos todos los derechos
 50
90.000172
  7
SEACAD_TXT_SHX
 11
8.09266
 21
209.275952
 31
0.0
100
AcDbText
 73
     3
  0
TEXT
  5
10FF
100
AcDbEntity
  8
90000_FRAME
370
    13
  6
CONTINUOUS
 62
     7
100
AcDbText
 10
12.903392
 20
209.275966
 30
0.0
 40
1.181102
  1
Comunicado como segredo empresarial. Reservados todos os direitos
 50
90.000172
  7
SEACAD_TXT_SHX
 11
11.72229
 21
209.275963
 31
0.0
100
AcDbText
 73
     3
  0
TEXT
  5
1100
100
AcDbEntity
  8
90000_FRAME
370
    13
  6
CONTINUOUS
 62
     7
100
AcDbText
 10
3.996437
 20
54.2236
 30
0.0
 40
1.181102
  1
The reproduction or use of this document or its
 50
90.000172
  7
SEACAD_TXT_SHX
 11
2.815334
 21
54.223596
 31
0.0
100
AcDbText
 73
     3
  0
TEXT
  5
1101
100
AcDbEntity
  8
90000_FRAME
370
    13
  6
CONTINUOUS
 62
     7
100
AcDbText
 10
7.354927
 20
54.22361
 30
0.0
 40
1.181102
  1
contens is not permitted without express written authority.
 50
90.000172
  7
SEACAD_TXT_SHX
 11
6.173825
 21
54.223606
 31
0.0
100
AcDbText
 73
     3
  0
TEXT
  5
1102
100
AcDbEntity
  8
90000_FRAME
370
    13
  6
CONTINUOUS
 62
     7
100
AcDbText
 10
10.713418
 20
54.22362
 30
0.0
 40
1.181102
  1
Offenders will be liable for damages. All rights, including rights
 50
90.000172
  7
SEACAD_TXT_SHX
 11
9.532315
 21
54.223616
 31
0.0
100
AcDbText
 73
     3
  0
TEXT
  5
1103
100
AcDbEntity
  8
90000_FRAME
370
    13
  6
CONTINUOUS
 62
     7
100
AcDbText
 10
14.071908
 20
54.22363
 30
0.0
 40
1.181102
  1
created by patent grant or registration of a utility model or design,
 50
90.000172
  7
SEACAD_TXT_SHX
 11
12.890806
 21
54.223626
 31
0.0
100
AcDbText
 73
     3
  0
TEXT
  5
1104
100
AcDbEntity
  8
90000_FRAME
370
    13
  6
CONTINUOUS
 62
     7
100
AcDbText
 10
17.430399
 20
54.22364
 30
0.0
 40
1.181102
  1
are reserved.
 50
90.000172
  7
SEACAD_TXT_SHX
 11
16.249297
 21
54.223636
 31
0.0
100
AcDbText
 73
     3
  0
TEXT
  5
1105
100
AcDbEntity
  8
90000_FRAME
370
    13
  6
CONTINUOUS
 62
     7
100
AcDbText
 10
3.467137
 20
135.756119
 30
0.0
 40
1.181102
  1
Weitergabe sowie Vervielfaeltigung dieser Unterlage, Verwer-
 50
90.000172
  7
SEACAD_TXT_SHX
 11
2.286035
 21
135.756116
 31
0.0
100
AcDbText
 73
     3
  0
TEXT
  5
1106
100
AcDbEntity
  8
90000_FRAME
370
    13
  6
CONTINUOUS
 62
     7
100
AcDbText
 10
7.096767
 20
135.75613
 30
0.0
 40
1.181102
  1
tung und Mitteilung ihres Inhalts nicht gestattet, soweit nicht
 50
90.000172
  7
SEACAD_TXT_SHX
 11
5.915665
 21
135.756127
 31
0.0
100
AcDbText
 73
     3
  0
TEXT
  5
1107
100
AcDbEntity
  8
90000_FRAME
370
    13
  6
CONTINUOUS
 62
     7
100
AcDbText
 10
10.726397
 20
135.756141
 30
0.0
 40
1.181102
  1
ausdruecklich zugestanden. Zuwiderhandlungen verpflichten
 50
90.000172
  7
SEACAD_TXT_SHX
 11
9.545294
 21
135.756138
 31
0.0
100
AcDbText
 73
     3
  0
TEXT
  5
1108
100
AcDbEntity
  8
90000_FRAME
370
    13
  6
CONTINUOUS
 62
     7
100
AcDbText
 10
14.356026
 20
135.756152
 30
0.0
 40
1.181102
  1
zu Schadenersatz. Alle Rechte vorbehalten, insbesondere fuer
 50
90.000172
  7
SEACAD_TXT_SHX
 11
13.174924
 21
135.756149
 31
0.0
100
AcDbText
 73
     3
  0
TEXT
  5
1109
100
AcDbEntity
  8
90000_FRAME
370
    13
  6
CONTINUOUS
 62
     7
100
AcDbText
 10
17.985656
 20
135.756163
 30
0.0
 40
1.181102
  1
den Fall der Patenterteilung oder GM-Eintragung.
 50
90.000172
  7
SEACAD_TXT_SHX
 11
16.804553
 21
135.756159
 31
0.0
100
AcDbText
 73
     3
  0
TEXT
  5
110A
100
AcDbEntity
  8
90000_FRAME
370
    13
  6
CONTINUOUS
 62
     7
100
AcDbText
 10
4.579915
 20
9.675893
 30
0.0
 40
1.181102
  1
Copyright(C) Siemens AG 2005
 50
90.000172
  7
SEACAD_TXT_SHX
 11
3.398813
 21
9.675889
 31
0.0
100
AcDbText
 73
     3
  0
TEXT
  5
110B
100
AcDbEntity
  8
90000_FRAME
370
    13
  6
CONTINUOUS
 62
     7
100
AcDbText
 10
11.296896
 20
9.675913
 30
0.0
 40
1.181102
  1
Cad-drawing: do not make any
 50
90.000172
  7
SEACAD_TXT_SHX
 11
10.115794
 21
9.67591
 31
0.0
100
AcDbText
 73
     3
  0
TEXT
  5
110C
100
AcDbEntity
  8
90000_FRAME
370
    13
  6
CONTINUOUS
 62
     7
100
AcDbText
 10
14.655387
 20
9.675923
 30
0.0
 40
1.181102
  1
manual changes
 50
90.000172
  7
SEACAD_TXT_SHX
 11
13.474285
 21
9.67592
 31
0.0
100
AcDbText
 73
     3
  0
LINE
  5
110D
100
AcDbEntity
  8
90000_FRAME
370
    13
  6
CONTINUOUS
 62
     7
100
AcDbLine
 10
20.0
 20
56.17
 30
0.0
 11
25.0
 21
56.17
 31
0.0
  0
LINE
  5
110E
100
AcDbEntity
  8
90000_FRAME
370
    13
  6
CONTINUOUS
 62
     7
100
AcDbLine
 10
20.0
 20
102.34
 30
0.0
 11
25.0
 21
102.34
 31
0.0
  0
LINE
  5
110F
100
AcDbEntity
  8
90000_FRAME
370
    13
  6
CONTINUOUS
 62
     7
100
AcDbLine
 10
20.0
 20
148.51
 30
0.0
 11
25.0
 21
148.51
 31
0.0
  0
LINE
  5
1110
100
AcDbEntity
  8
90000_FRAME
370
    13
  6
CONTINUOUS
 62
     7
100
AcDbLine
 10
20.0
 20
194.68
 30
0.0
 11
25.0
 21
194.68
 31
0.0
  0
LINE
  5
1111
100
AcDbEntity
  8
90000_FRAME
370
    13
  6
CONTINUOUS
 62
     7
100
AcDbLine
 10
20.0
 20
240.85
 30
0.0
 11
25.0
 21
240.85
 31
0.0
  0
LINE
  5
1112
100
AcDbEntity
  8
90000_FRAME
370
    13
  6
CONTINUOUS
 62
     7
100
AcDbLine
 10
73.13
 20
287.0
 30
0.0
 11
73.13
 21
292.0
 31
0.0
  0
LINE
  5
1113
100
AcDbEntity
  8
90000_FRAME
370
    13
  6
CONTINUOUS
 62
     7
100
AcDbLine
 10
121.26
 20
287.0
 30
0.0
 11
121.26
 21
292.0
 31
0.0
  0
LINE
  5
1114
100
AcDbEntity
  8
90000_FRAME
370
    13
  6
CONTINUOUS
 62
     7
100
AcDbLine
 10
169.39
 20
287.0
 30
0.0
 11
169.39
 21
292.0
 31
0.0
  0
LINE
  5
1115
100
AcDbEntity
  8
90000_FRAME
370
    13
  6
CONTINUOUS
 62
     7
100
AcDbLine
 10
217.52
 20
287.0
 30
0.0
 11
217.52
 21
292.0
 31
0.0
  0
LINE
  5
1116
100
AcDbEntity
  8
90000_FRAME
370
    13
  6
CONTINUOUS
 62
     7
100
AcDbLine
 10
265.65
 20
287.0
 30
0.0
 11
265.65
 21
292.0
 31
0.0
  0
LINE
  5
1117
100
AcDbEntity
  8
90000_FRAME
370
    13
  6
CONTINUOUS
 62
     7
100
AcDbLine
 10
313.78
 20
287.0
 30
0.0
 11
313.78
 21
292.0
 31
0.0
  0
LINE
  5
1118
100
AcDbEntity
  8
90000_FRAME
370
    13
  6
CONTINUOUS
 62
     7
100
AcDbLine
 10
361.91
 20
287.0
 30
0.0
 11
361.91
 21
292.0
 31
0.0
  0
LINE
  5
1119
100
AcDbEntity
  8
90000_FRAME
370
    13
  6
CONTINUOUS
 62
     7
100
AcDbLine
 10
410.0
 20
240.83
 30
0.0
 11
415.0
 21
240.83
 31
0.0
  0
LINE
  5
111A
100
AcDbEntity
  8
90000_FRAME
370
    13
  6
CONTINUOUS
 62
     7
100
AcDbLine
 10
410.0
 20
194.66
 30
0.0
 11
415.0
 21
194.66
 31
0.0
  0
LINE
  5
111B
100
AcDbEntity
  8
90000_FRAME
370
    13
  6
CONTINUOUS
 62
     7
100
AcDbLine
 10
410.0
 20
148.49
 30
0.0
 11
415.0
 21
148.49
 31
0.0
  0
LINE
  5
111C
100
AcDbEntity
  8
90000_FRAME
370
    13
  6
CONTINUOUS
 62
     7
100
AcDbLine
 10
410.0
 20
102.32
 30
0.0
 11
415.0
 21
102.32
 31
0.0
  0
LINE
  5
111D
100
AcDbEntity
  8
90000_FRAME
370
    13
  6
CONTINUOUS
 62
     7
100
AcDbLine
 10
121.26
 20
5.0
 30
0.0
 11
121.26
 21
10.0
 31
0.0
  0
LINE
  5
111E
100
AcDbEntity
  8
90000_FRAME
370
    13
  6
CONTINUOUS
 62
     7
100
AcDbLine
 10
169.39
 20
5.0
 30
0.0
 11
169.39
 21
10.0
 31
0.0
  0
LINE
  5
111F
100
AcDbEntity
  8
90000_FRAME
370
    13
  6
CONTINUOUS
 62
     7
100
AcDbLine
 10
211.5
 20
0.5
 30
0.0
 11
215.5
 21
0.5
 31
0.0
  0
LINE
  5
1120
100
AcDbEntity
  8
90000_FRAME
370
    13
  6
CONTINUOUS
 62
     7
100
AcDbLine
 10
208.5
 20
0.5
 30
0.0
 11
208.5
 21
4.5
 31
0.0
  0
LINE
  5
1121
100
AcDbEntity
  8
90000_FRAME
370
    13
  6
CONTINUOUS
 62
     7
100
AcDbLine
 10
419.5
 20
150.0
 30
0.0
 11
419.5
 21
154.0
 31
0.0
  0
LINE
  5
1122
100
AcDbEntity
  8
90000_FRAME
370
    13
  6
CONTINUOUS
 62
     7
100
AcDbLine
 10
419.5
 20
147.0
 30
0.0
 11
415.5
 21
147.0
 31
0.0
  0
LINE
  5
1123
100
AcDbEntity
  8
90000_FRAME
370
    13
  6
CONTINUOUS
 62
     7
100
AcDbLine
 10
230.0
 20
297.0
 30
0.0
 11
230.0
 21
292.0
 31
0.0
  0
LINE
  5
1124
100
AcDbEntity
  8
90000_FRAME
370
    13
  6
CONTINUOUS
 62
     7
100
AcDbLine
 10
20.0
 20
292.0
 30
0.0
 11
415.0
 21
292.0
 31
0.0
  0
LINE
  5
1125
100
AcDbEntity
  8
90000_FRAME
370
    13
  6
CONTINUOUS
 62
     7
100
AcDbLine
 10
25.0
 20
287.0
 30
0.0
 11
410.0
 21
287.0
 31
0.0
  0
LINE
  5
1126
100
AcDbEntity
  8
90000_FRAME
370
    13
  6
CONTINUOUS
 62
     7
100
AcDbLine
 10
25.0
 20
39.0
 30
0.0
 11
25.0
 21
287.0
 31
0.0
  0
LINE
  5
1127
100
AcDbEntity
  8
90000_FRAME
370
    13
  6
CONTINUOUS
 62
     7
100
AcDbLine
 10
25.0
 20
10.0
 30
0.0
 11
25.0
 21
39.0
 31
0.0
  0
LINE
  5
1128
100
AcDbEntity
  8
90000_FRAME
370
    13
  6
CONTINUOUS
 62
     7
100
AcDbLine
 10
73.13
 20
5.0
 30
0.0
 11
73.13
 21
10.0
 31
0.0
  0
LINE
  5
1129
100
AcDbEntity
  8
90000_FRAME
370
    13
  6
CONTINUOUS
 62
     7
100
AcDbLine
 10
208.0
 20
0.5
 30
0.0
 11
208.0
 21
4.0
 31
0.0
  0
LINE
  5
112A
100
AcDbEntity
  8
90000_FRAME
370
    13
  6
CONTINUOUS
 62
     7
100
AcDbLine
 10
207.5
 20
0.5
 30
0.0
 11
207.5
 21
3.5
 31
0.0
  0
LINE
  5
112B
100
AcDbEntity
  8
90000_FRAME
370
    13
  6
CONTINUOUS
 62
     7
100
AcDbLine
 10
207.0
 20
0.5
 30
0.0
 11
207.0
 21
3.0
 31
0.0
  0
LINE
  5
112C
100
AcDbEntity
  8
90000_FRAME
370
    13
  6
CONTINUOUS
 62
     7
100
AcDbLine
 10
206.5
 20
0.5
 30
0.0
 11
206.5
 21
2.5
 31
0.0
  0
LINE
  5
112D
100
AcDbEntity
  8
90000_FRAME
370
    13
  6
CONTINUOUS
 62
     7
100
AcDbLine
 10
206.0
 20
0.5
 30
0.0
 11
206.0
 21
2.0
 31
0.0
  0
LINE
  5
112E
100
AcDbEntity
  8
90000_FRAME
370
    13
  6
CONTINUOUS
 62
     7
100
AcDbLine
 10
208.5
 20
0.5
 30
0.0
 11
204.5
 21
0.5
 31
0.0
  0
LINE
  5
112F
100
AcDbEntity
  8
90000_FRAME
370
    13
  6
CONTINUOUS
 62
     7
100
AcDbLine
 10
208.5
 20
1.0
 30
0.0
 11
205.0
 21
1.0
 31
0.0
  0
LINE
  5
1130
100
AcDbEntity
  8
90000_FRAME
370
    13
  6
CONTINUOUS
 62
     7
100
AcDbLine
 10
208.5
 20
1.5
 30
0.0
 11
205.5
 21
1.5
 31
0.0
  0
LINE
  5
1131
100
AcDbEntity
  8
90000_FRAME
370
    13
  6
CONTINUOUS
 62
     7
100
AcDbLine
 10
208.5
 20
2.0
 30
0.0
 11
206.0
 21
2.0
 31
0.0
  0
LINE
  5
1132
100
AcDbEntity
  8
90000_FRAME
370
    13
  6
CONTINUOUS
 62
     7
100
AcDbLine
 10
208.5
 20
2.5
 30
0.0
 11
206.5
 21
2.5
 31
0.0
  0
LINE
  5
1133
100
AcDbEntity
  8
90000_FRAME
370
    13
  6
CONTINUOUS
 62
     7
100
AcDbLine
 10
208.5
 20
3.0
 30
0.0
 11
207.0
 21
3.0
 31
0.0
  0
LINE
  5
1134
100
AcDbEntity
  8
90000_FRAME
370
    13
  6
CONTINUOUS
 62
     7
100
AcDbLine
 10
208.5
 20
4.5
 30
0.0
 11
204.5
 21
0.5
 31
0.0
  0
LINE
  5
1135
100
AcDbEntity
  8
90000_FRAME
370
    13
  6
CONTINUOUS
 62
     7
100
AcDbLine
 10
208.5
 20
4.0
 30
0.0
 11
205.0
 21
0.5
 31
0.0
  0
LINE
  5
1136
100
AcDbEntity
  8
90000_FRAME
370
    13
  6
CONTINUOUS
 62
     7
100
AcDbLine
 10
208.5
 20
3.5
 30
0.0
 11
205.5
 21
0.5
 31
0.0
  0
LINE
  5
1137
100
AcDbEntity
  8
90000_FRAME
370
    13
  6
CONTINUOUS
 62
     7
100
AcDbLine
 10
208.5
 20
3.0
 30
0.0
 11
206.0
 21
0.5
 31
0.0
  0
LINE
  5
1138
100
AcDbEntity
  8
90000_FRAME
370
    13
  6
CONTINUOUS
 62
     7
100
AcDbLine
 10
208.5
 20
2.5
 30
0.0
 11
206.5
 21
0.5
 31
0.0
  0
LINE
  5
1139
100
AcDbEntity
  8
90000_FRAME
370
    13
  6
CONTINUOUS
 62
     7
100
AcDbLine
 10
208.5
 20
2.0
 30
0.0
 11
207.0
 21
0.5
 31
0.0
  0
LINE
  5
113A
100
AcDbEntity
  8
90000_FRAME
370
    13
  6
CONTINUOUS
 62
     7
100
AcDbLine
 10
211.5
 20
1.0
 30
0.0
 11
215.0
 21
1.0
 31
0.0
  0
LINE
  5
113B
100
AcDbEntity
  8
90000_FRAME
370
    13
  6
CONTINUOUS
 62
     7
100
AcDbLine
 10
211.5
 20
1.5
 30
0.0
 11
214.5
 21
1.5
 31
0.0
  0
LINE
  5
113C
100
AcDbEntity
  8
90000_FRAME
370
    13
  6
CONTINUOUS
 62
     7
100
AcDbLine
 10
211.5
 20
2.0
 30
0.0
 11
214.0
 21
2.0
 31
0.0
  0
LINE
  5
113D
100
AcDbEntity
  8
90000_FRAME
370
    13
  6
CONTINUOUS
 62
     7
100
AcDbLine
 10
211.5
 20
2.5
 30
0.0
 11
213.5
 21
2.5
 31
0.0
  0
LINE
  5
113E
100
AcDbEntity
  8
90000_FRAME
370
    13
  6
CONTINUOUS
 62
     7
100
AcDbLine
 10
211.5
 20
3.0
 30
0.0
 11
213.0
 21
3.0
 31
0.0
  0
LINE
  5
113F
100
AcDbEntity
  8
90000_FRAME
370
    13
  6
CONTINUOUS
 62
     7
100
AcDbLine
 10
211.5
 20
0.5
 30
0.0
 11
211.5
 21
4.5
 31
0.0
  0
LINE
  5
1140
100
AcDbEntity
  8
90000_FRAME
370
    13
  6
CONTINUOUS
 62
     7
100
AcDbLine
 10
212.0
 20
0.5
 30
0.0
 11
212.0
 21
4.0
 31
0.0
  0
LINE
  5
1141
100
AcDbEntity
  8
90000_FRAME
370
    13
  6
CONTINUOUS
 62
     7
100
AcDbLine
 10
212.5
 20
0.5
 30
0.0
 11
212.5
 21
3.5
 31
0.0
  0
LINE
  5
1142
100
AcDbEntity
  8
90000_FRAME
370
    13
  6
CONTINUOUS
 62
     7
100
AcDbLine
 10
213.0
 20
0.5
 30
0.0
 11
213.0
 21
3.0
 31
0.0
  0
LINE
  5
1143
100
AcDbEntity
  8
90000_FRAME
370
    13
  6
CONTINUOUS
 62
     7
100
AcDbLine
 10
213.5
 20
0.5
 30
0.0
 11
213.5
 21
2.5
 31
0.0
  0
LINE
  5
1144
100
AcDbEntity
  8
90000_FRAME
370
    13
  6
CONTINUOUS
 62
     7
100
AcDbLine
 10
214.0
 20
0.5
 30
0.0
 11
214.0
 21
2.0
 31
0.0
  0
LINE
  5
1145
100
AcDbEntity
  8
90000_FRAME
370
    13
  6
CONTINUOUS
 62
     7
100
AcDbLine
 10
215.5
 20
0.5
 30
0.0
 11
211.5
 21
4.5
 31
0.0
  0
LINE
  5
1146
100
AcDbEntity
  8
90000_FRAME
370
    13
  6
CONTINUOUS
 62
     7
100
AcDbLine
 10
215.0
 20
0.5
 30
0.0
 11
211.5
 21
4.0
 31
0.0
  0
LINE
  5
1147
100
AcDbEntity
  8
90000_FRAME
370
    13
  6
CONTINUOUS
 62
     7
100
AcDbLine
 10
214.5
 20
0.5
 30
0.0
 11
211.5
 21
3.5
 31
0.0
  0
LINE
  5
1148
100
AcDbEntity
  8
90000_FRAME
370
    13
  6
CONTINUOUS
 62
     7
100
AcDbLine
 10
214.0
 20
0.5
 30
0.0
 11
211.5
 21
3.0
 31
0.0
  0
LINE
  5
1149
100
AcDbEntity
  8
90000_FRAME
370
    13
  6
CONTINUOUS
 62
     7
100
AcDbLine
 10
213.5
 20
0.5
 30
0.0
 11
211.5
 21
2.5
 31
0.0
  0
LINE
  5
114A
100
AcDbEntity
  8
90000_FRAME
370
    13
  6
CONTINUOUS
 62
     7
100
AcDbLine
 10
213.0
 20
0.5
 30
0.0
 11
211.5
 21
2.0
 31
0.0
  0
LINE
  5
114B
100
AcDbEntity
  8
90000_FRAME
370
    13
  6
CONTINUOUS
 62
     7
100
AcDbLine
 10
419.5
 20
146.5
 30
0.0
 11
416.0
 21
146.5
 31
0.0
  0
LINE
  5
114C
100
AcDbEntity
  8
90000_FRAME
370
    13
  6
CONTINUOUS
 62
     7
100
AcDbLine
 10
419.5
 20
146.0
 30
0.0
 11
416.5
 21
146.0
 31
0.0
  0
LINE
  5
114D
100
AcDbEntity
  8
90000_FRAME
370
    13
  6
CONTINUOUS
 62
     7
100
AcDbLine
 10
419.5
 20
145.5
 30
0.0
 11
417.0
 21
145.5
 31
0.0
  0
LINE
  5
114E
100
AcDbEntity
  8
90000_FRAME
370
    13
  6
CONTINUOUS
 62
     7
100
AcDbLine
 10
419.5
 20
145.0
 30
0.0
 11
417.5
 21
145.0
 31
0.0
  0
LINE
  5
114F
100
AcDbEntity
  8
90000_FRAME
370
    13
  6
CONTINUOUS
 62
     7
100
AcDbLine
 10
419.5
 20
144.5
 30
0.0
 11
418.0
 21
144.5
 31
0.0
  0
LINE
  5
1150
100
AcDbEntity
  8
90000_FRAME
370
    13
  6
CONTINUOUS
 62
     7
100
AcDbLine
 10
419.5
 20
147.0
 30
0.0
 11
419.5
 21
143.0
 31
0.0
  0
LINE
  5
1151
100
AcDbEntity
  8
90000_FRAME
370
    13
  6
CONTINUOUS
 62
     7
100
AcDbLine
 10
419.0
 20
147.0
 30
0.0
 11
419.0
 21
143.5
 31
0.0
  0
LINE
  5
1152
100
AcDbEntity
  8
90000_FRAME
370
    13
  6
CONTINUOUS
 62
     7
100
AcDbLine
 10
418.5
 20
147.0
 30
0.0
 11
418.5
 21
144.0
 31
0.0
  0
LINE
  5
1153
100
AcDbEntity
  8
90000_FRAME
370
    13
  6
CONTINUOUS
 62
     7
100
AcDbLine
 10
418.0
 20
147.0
 30
0.0
 11
418.0
 21
144.5
 31
0.0
  0
LINE
  5
1154
100
AcDbEntity
  8
90000_FRAME
370
    13
  6
CONTINUOUS
 62
     7
100
AcDbLine
 10
417.5
 20
147.0
 30
0.0
 11
417.5
 21
145.0
 31
0.0
  0
LINE
  5
1155
100
AcDbEntity
  8
90000_FRAME
370
    13
  6
CONTINUOUS
 62
     7
100
AcDbLine
 10
417.0
 20
147.0
 30
0.0
 11
417.0
 21
145.5
 31
0.0
  0
LINE
  5
1156
100
AcDbEntity
  8
90000_FRAME
370
    13
  6
CONTINUOUS
 62
     7
100
AcDbLine
 10
415.5
 20
147.0
 30
0.0
 11
419.5
 21
143.0
 31
0.0
  0
LINE
  5
1157
100
AcDbEntity
  8
90000_FRAME
370
    13
  6
CONTINUOUS
 62
     7
100
AcDbLine
 10
416.0
 20
147.0
 30
0.0
 11
419.5
 21
143.5
 31
0.0
  0
LINE
  5
1158
100
AcDbEntity
  8
90000_FRAME
370
    13
  6
CONTINUOUS
 62
     7
100
AcDbLine
 10
416.5
 20
147.0
 30
0.0
 11
419.5
 21
144.0
 31
0.0
  0
LINE
  5
1159
100
AcDbEntity
  8
90000_FRAME
370
    13
  6
CONTINUOUS
 62
     7
100
AcDbLine
 10
417.0
 20
147.0
 30
0.0
 11
419.5
 21
144.5
 31
0.0
  0
LINE
  5
115A
100
AcDbEntity
  8
90000_FRAME
370
    13
  6
CONTINUOUS
 62
     7
100
AcDbLine
 10
417.5
 20
147.0
 30
0.0
 11
419.5
 21
145.0
 31
0.0
  0
LINE
  5
115B
100
AcDbEntity
  8
90000_FRAME
370
    13
  6
CONTINUOUS
 62
     7
100
AcDbLine
 10
418.0
 20
147.0
 30
0.0
 11
419.5
 21
145.5
 31
0.0
  0
LINE
  5
115C
100
AcDbEntity
  8
90000_FRAME
370
    13
  6
CONTINUOUS
 62
     7
100
AcDbLine
 10
419.0
 20
150.0
 30
0.0
 11
419.0
 21
153.5
 31
0.0
  0
LINE
  5
115D
100
AcDbEntity
  8
90000_FRAME
370
    13
  6
CONTINUOUS
 62
     7
100
AcDbLine
 10
418.5
 20
150.0
 30
0.0
 11
418.5
 21
153.0
 31
0.0
  0
LINE
  5
115E
100
AcDbEntity
  8
90000_FRAME
370
    13
  6
CONTINUOUS
 62
     7
100
AcDbLine
 10
418.0
 20
150.0
 30
0.0
 11
418.0
 21
152.5
 31
0.0
  0
LINE
  5
115F
100
AcDbEntity
  8
90000_FRAME
370
    13
  6
CONTINUOUS
 62
     7
100
AcDbLine
 10
417.5
 20
150.0
 30
0.0
 11
417.5
 21
152.0
 31
0.0
  0
LINE
  5
1160
100
AcDbEntity
  8
90000_FRAME
370
    13
  6
CONTINUOUS
 62
     7
100
AcDbLine
 10
417.0
 20
150.0
 30
0.0
 11
417.0
 21
151.5
 31
0.0
  0
LINE
  5
1161
100
AcDbEntity
  8
90000_FRAME
370
    13
  6
CONTINUOUS
 62
     7
100
AcDbLine
 10
419.5
 20
150.0
 30
0.0
 11
415.5
 21
150.0
 31
0.0
  0
LINE
  5
1162
100
AcDbEntity
  8
90000_FRAME
370
    13
  6
CONTINUOUS
 62
     7
100
AcDbLine
 10
419.5
 20
150.5
 30
0.0
 11
416.0
 21
150.5
 31
0.0
  0
LINE
  5
1163
100
AcDbEntity
  8
90000_FRAME
370
    13
  6
CONTINUOUS
 62
     7
100
AcDbLine
 10
419.5
 20
151.0
 30
0.0
 11
416.5
 21
151.0
 31
0.0
  0
LINE
  5
1164
100
AcDbEntity
  8
90000_FRAME
370
    13
  6
CONTINUOUS
 62
     7
100
AcDbLine
 10
419.5
 20
151.5
 30
0.0
 11
417.0
 21
151.5
 31
0.0
  0
LINE
  5
1165
100
AcDbEntity
  8
90000_FRAME
370
    13
  6
CONTINUOUS
 62
     7
100
AcDbLine
 10
419.5
 20
152.0
 30
0.0
 11
417.5
 21
152.0
 31
0.0
  0
LINE
  5
1166
100
AcDbEntity
  8
90000_FRAME
370
    13
  6
CONTINUOUS
 62
     7
100
AcDbLine
 10
419.5
 20
152.5
 30
0.0
 11
418.0
 21
152.5
 31
0.0
  0
LINE
  5
1167
100
AcDbEntity
  8
90000_FRAME
370
    13
  6
CONTINUOUS
 62
     7
100
AcDbLine
 10
419.5
 20
154.0
 30
0.0
 11
415.5
 21
150.0
 31
0.0
  0
LINE
  5
1168
100
AcDbEntity
  8
90000_FRAME
370
    13
  6
CONTINUOUS
 62
     7
100
AcDbLine
 10
419.5
 20
153.5
 30
0.0
 11
416.0
 21
150.0
 31
0.0
  0
LINE
  5
1169
100
AcDbEntity
  8
90000_FRAME
370
    13
  6
CONTINUOUS
 62
     7
100
AcDbLine
 10
419.5
 20
153.0
 30
0.0
 11
416.5
 21
150.0
 31
0.0
  0
LINE
  5
116A
100
AcDbEntity
  8
90000_FRAME
370
    13
  6
CONTINUOUS
 62
     7
100
AcDbLine
 10
419.5
 20
152.5
 30
0.0
 11
417.0
 21
150.0
 31
0.0
  0
LINE
  5
116B
100
AcDbEntity
  8
90000_FRAME
370
    13
  6
CONTINUOUS
 62
     7
100
AcDbLine
 10
419.5
 20
152.0
 30
0.0
 11
417.5
 21
150.0
 31
0.0
  0
LINE
  5
116C
100
AcDbEntity
  8
90000_FRAME
370
    13
  6
CONTINUOUS
 62
     7
100
AcDbLine
 10
419.5
 20
151.5
 30
0.0
 11
418.0
 21
150.0
 31
0.0
  0
LINE
  5
116D
100
AcDbEntity
  8
90000_FRAME
370
    13
  6
CONTINUOUS
 62
     7
100
AcDbLine
 10
211.5
 20
1.5
 30
0.0
 11
212.5
 21
0.5
 31
0.0
  0
LINE
  5
116E
100
AcDbEntity
  8
90000_FRAME
370
    13
  6
CONTINUOUS
 62
     7
100
AcDbLine
 10
211.5
 20
1.0
 30
0.0
 11
212.0
 21
0.5
 31
0.0
  0
LINE
  5
116F
100
AcDbEntity
  8
90000_FRAME
370
    13
  6
CONTINUOUS
 62
     7
100
AcDbLine
 10
208.5
 20
1.5
 30
0.0
 11
207.5
 21
0.5
 31
0.0
  0
LINE
  5
1170
100
AcDbEntity
  8
90000_FRAME
370
    13
  6
CONTINUOUS
 62
     7
100
AcDbLine
 10
208.5
 20
1.0
 30
0.0
 11
208.0
 21
0.5
 31
0.0
  0
LINE
  5
1171
100
AcDbEntity
  8
90000_FRAME
370
    13
  6
CONTINUOUS
 62
     7
100
AcDbLine
 10
208.5
 20
0.5
 30
0.0
 11
206.5
 21
2.5
 31
0.0
  0
LINE
  5
1172
100
AcDbEntity
  8
90000_FRAME
370
    13
  6
CONTINUOUS
 62
     7
100
AcDbLine
 10
208.5
 20
1.0
 30
0.0
 11
206.75
 21
2.75
 31
0.0
  0
LINE
  5
1173
100
AcDbEntity
  8
90000_FRAME
370
    13
  6
CONTINUOUS
 62
     7
100
AcDbLine
 10
208.5
 20
1.5
 30
0.0
 11
207.0
 21
3.0
 31
0.0
  0
LINE
  5
1174
100
AcDbEntity
  8
90000_FRAME
370
    13
  6
CONTINUOUS
 62
     7
100
AcDbLine
 10
208.5
 20
2.5
 30
0.0
 11
207.5
 21
3.5
 31
0.0
  0
LINE
  5
1175
100
AcDbEntity
  8
90000_FRAME
370
    13
  6
CONTINUOUS
 62
     7
100
AcDbLine
 10
208.5
 20
2.0
 30
0.0
 11
207.25
 21
3.25
 31
0.0
  0
LINE
  5
1176
100
AcDbEntity
  8
90000_FRAME
370
    13
  6
CONTINUOUS
 62
     7
100
AcDbLine
 10
208.5
 20
3.0
 30
0.0
 11
207.75
 21
3.75
 31
0.0
  0
LINE
  5
1177
100
AcDbEntity
  8
90000_FRAME
370
    13
  6
CONTINUOUS
 62
     7
100
AcDbLine
 10
208.5
 20
3.5
 30
0.0
 11
208.0
 21
4.0
 31
0.0
  0
LINE
  5
1178
100
AcDbEntity
  8
90000_FRAME
370
    13
  6
CONTINUOUS
 62
     7
100
AcDbLine
 10
208.5
 20
4.0
 30
0.0
 11
208.25
 21
4.25
 31
0.0
  0
LINE
  5
1179
100
AcDbEntity
  8
90000_FRAME
370
    13
  6
CONTINUOUS
 62
     7
100
AcDbLine
 10
208.5
 20
3.5
 30
0.0
 11
207.5
 21
3.5
 31
0.0
  0
LINE
  5
117A
100
AcDbEntity
  8
90000_FRAME
370
    13
  6
CONTINUOUS
 62
     7
100
AcDbLine
 10
208.5
 20
4.0
 30
0.0
 11
208.0
 21
4.0
 31
0.0
  0
LINE
  5
117B
100
AcDbEntity
  8
90000_FRAME
370
    13
  6
CONTINUOUS
 62
     7
100
AcDbLine
 10
208.0
 20
0.5
 30
0.0
 11
206.25
 21
2.25
 31
0.0
  0
LINE
  5
117C
100
AcDbEntity
  8
90000_FRAME
370
    13
  6
CONTINUOUS
 62
     7
100
AcDbLine
 10
207.5
 20
0.5
 30
0.0
 11
206.0
 21
2.0
 31
0.0
  0
LINE
  5
117D
100
AcDbEntity
  8
90000_FRAME
370
    13
  6
CONTINUOUS
 62
     7
100
AcDbLine
 10
207.0
 20
0.5
 30
0.0
 11
205.75
 21
1.75
 31
0.0
  0
LINE
  5
117E
100
AcDbEntity
  8
90000_FRAME
370
    13
  6
CONTINUOUS
 62
     7
100
AcDbLine
 10
206.5
 20
0.5
 30
0.0
 11
205.5
 21
1.5
 31
0.0
  0
LINE
  5
117F
100
AcDbEntity
  8
90000_FRAME
370
    13
  6
CONTINUOUS
 62
     7
100
AcDbLine
 10
206.0
 20
0.5
 30
0.0
 11
205.25
 21
1.25
 31
0.0
  0
LINE
  5
1180
100
AcDbEntity
  8
90000_FRAME
370
    13
  6
CONTINUOUS
 62
     7
100
AcDbLine
 10
205.5
 20
0.5
 30
0.0
 11
205.5
 21
1.5
 31
0.0
  0
LINE
  5
1181
100
AcDbEntity
  8
90000_FRAME
370
    13
  6
CONTINUOUS
 62
     7
100
AcDbLine
 10
205.0
 20
0.5
 30
0.0
 11
205.0
 21
1.0
 31
0.0
  0
LINE
  5
1182
100
AcDbEntity
  8
90000_FRAME
370
    13
  6
CONTINUOUS
 62
     7
100
AcDbLine
 10
205.5
 20
0.5
 30
0.0
 11
205.0
 21
1.0
 31
0.0
  0
LINE
  5
1183
100
AcDbEntity
  8
90000_FRAME
370
    13
  6
CONTINUOUS
 62
     7
100
AcDbLine
 10
205.0
 20
0.5
 30
0.0
 11
204.75
 21
0.75
 31
0.0
  0
LINE
  5
1184
100
AcDbEntity
  8
90000_FRAME
370
    13
  6
CONTINUOUS
 62
     7
100
AcDbLine
 10
212.5
 20
3.5
 30
0.0
 11
211.5
 21
3.5
 31
0.0
  0
LINE
  5
1185
100
AcDbEntity
  8
90000_FRAME
370
    13
  6
CONTINUOUS
 62
     7
100
AcDbLine
 10
212.0
 20
4.0
 30
0.0
 11
211.5
 21
4.0
 31
0.0
  0
LINE
  5
1186
100
AcDbEntity
  8
90000_FRAME
370
    13
  6
CONTINUOUS
 62
     7
100
AcDbLine
 10
214.5
 20
1.5
 30
0.0
 11
214.5
 21
0.5
 31
0.0
  0
LINE
  5
1187
100
AcDbEntity
  8
90000_FRAME
370
    13
  6
CONTINUOUS
 62
     7
100
AcDbLine
 10
215.0
 20
1.0
 30
0.0
 11
215.0
 21
0.5
 31
0.0
  0
LINE
  5
1188
100
AcDbEntity
  8
90000_FRAME
370
    13
  6
CONTINUOUS
 62
     7
100
AcDbLine
 10
211.5
 20
0.5
 30
0.0
 11
213.5
 21
2.5
 31
0.0
  0
LINE
  5
1189
100
AcDbEntity
  8
90000_FRAME
370
    13
  6
CONTINUOUS
 62
     7
100
AcDbLine
 10
211.5
 20
1.0
 30
0.0
 11
213.25
 21
2.75
 31
0.0
  0
LINE
  5
118A
100
AcDbEntity
  8
90000_FRAME
370
    13
  6
CONTINUOUS
 62
     7
100
AcDbLine
 10
211.5
 20
1.5
 30
0.0
 11
213.0
 21
3.0
 31
0.0
  0
LINE
  5
118B
100
AcDbEntity
  8
90000_FRAME
370
    13
  6
CONTINUOUS
 62
     7
100
AcDbLine
 10
211.5
 20
2.0
 30
0.0
 11
212.75
 21
3.25
 31
0.0
  0
LINE
  5
118C
100
AcDbEntity
  8
90000_FRAME
370
    13
  6
CONTINUOUS
 62
     7
100
AcDbLine
 10
211.5
 20
2.5
 30
0.0
 11
212.5
 21
3.5
 31
0.0
  0
LINE
  5
118D
100
AcDbEntity
  8
90000_FRAME
370
    13
  6
CONTINUOUS
 62
     7
100
AcDbLine
 10
211.5
 20
3.0
 30
0.0
 11
212.25
 21
3.75
 31
0.0
  0
LINE
  5
118E
100
AcDbEntity
  8
90000_FRAME
370
    13
  6
CONTINUOUS
 62
     7
100
AcDbLine
 10
211.5
 20
3.5
 30
0.0
 11
212.0
 21
4.0
 31
0.0
  0
LINE
  5
118F
100
AcDbEntity
  8
90000_FRAME
370
    13
  6
CONTINUOUS
 62
     7
100
AcDbLine
 10
211.5
 20
4.0
 30
0.0
 11
211.75
 21
4.25
 31
0.0
  0
LINE
  5
1190
100
AcDbEntity
  8
90000_FRAME
370
    13
  6
CONTINUOUS
 62
     7
100
AcDbLine
 10
212.0
 20
0.5
 30
0.0
 11
213.75
 21
2.25
 31
0.0
  0
LINE
  5
1191
100
AcDbEntity
  8
90000_FRAME
370
    13
  6
CONTINUOUS
 62
     7
100
AcDbLine
 10
212.5
 20
0.5
 30
0.0
 11
214.0
 21
2.0
 31
0.0
  0
LINE
  5
1192
100
AcDbEntity
  8
90000_FRAME
370
    13
  6
CONTINUOUS
 62
     7
100
AcDbLine
 10
213.0
 20
0.5
 30
0.0
 11
214.25
 21
1.75
 31
0.0
  0
LINE
  5
1193
100
AcDbEntity
  8
90000_FRAME
370
    13
  6
CONTINUOUS
 62
     7
100
AcDbLine
 10
213.5
 20
0.5
 30
0.0
 11
214.5
 21
1.5
 31
0.0
  0
LINE
  5
1194
100
AcDbEntity
  8
90000_FRAME
370
    13
  6
CONTINUOUS
 62
     7
100
AcDbLine
 10
214.0
 20
0.5
 30
0.0
 11
214.75
 21
1.25
 31
0.0
  0
LINE
  5
1195
100
AcDbEntity
  8
90000_FRAME
370
    13
  6
CONTINUOUS
 62
     7
100
AcDbLine
 10
214.5
 20
0.5
 30
0.0
 11
215.0
 21
1.0
 31
0.0
  0
LINE
  5
1196
100
AcDbEntity
  8
90000_FRAME
370
    13
  6
CONTINUOUS
 62
     7
100
AcDbLine
 10
215.0
 20
0.5
 30
0.0
 11
215.25
 21
0.75
 31
0.0
  0
LINE
  5
1197
100
AcDbEntity
  8
90000_FRAME
370
    13
  6
CONTINUOUS
 62
     7
100
AcDbLine
 10
419.5
 20
144.0
 30
0.0
 11
418.5
 21
144.0
 31
0.0
  0
LINE
  5
1198
100
AcDbEntity
  8
90000_FRAME
370
    13
  6
CONTINUOUS
 62
     7
100
AcDbLine
 10
419.5
 20
143.5
 30
0.0
 11
419.0
 21
143.5
 31
0.0
  0
LINE
  5
1199
100
AcDbEntity
  8
90000_FRAME
370
    13
  6
CONTINUOUS
 62
     7
100
AcDbLine
 10
416.5
 20
147.0
 30
0.0
 11
416.5
 21
146.0
 31
0.0
  0
LINE
  5
119A
100
AcDbEntity
  8
90000_FRAME
370
    13
  6
CONTINUOUS
 62
     7
100
AcDbLine
 10
416.0
 20
147.0
 30
0.0
 11
416.0
 21
146.5
 31
0.0
  0
LINE
  5
119B
100
AcDbEntity
  8
90000_FRAME
370
    13
  6
CONTINUOUS
 62
     7
100
AcDbLine
 10
419.5
 20
147.0
 30
0.0
 11
417.5
 21
145.0
 31
0.0
  0
LINE
  5
119C
100
AcDbEntity
  8
90000_FRAME
370
    13
  6
CONTINUOUS
 62
     7
100
AcDbLine
 10
419.5
 20
146.5
 30
0.0
 11
417.75
 21
144.75
 31
0.0
  0
LINE
  5
119D
100
AcDbEntity
  8
90000_FRAME
370
    13
  6
CONTINUOUS
 62
     7
100
AcDbLine
 10
419.5
 20
146.0
 30
0.0
 11
418.0
 21
144.5
 31
0.0
  0
LINE
  5
119E
100
AcDbEntity
  8
90000_FRAME
370
    13
  6
CONTINUOUS
 62
     7
100
AcDbLine
 10
419.5
 20
145.5
 30
0.0
 11
418.25
 21
144.25
 31
0.0
  0
LINE
  5
119F
100
AcDbEntity
  8
90000_FRAME
370
    13
  6
CONTINUOUS
 62
     7
100
AcDbLine
 10
419.5
 20
145.0
 30
0.0
 11
418.5
 21
144.0
 31
0.0
  0
LINE
  5
11A0
100
AcDbEntity
  8
90000_FRAME
370
    13
  6
CONTINUOUS
 62
     7
100
AcDbLine
 10
419.5
 20
144.5
 30
0.0
 11
418.75
 21
143.75
 31
0.0
  0
LINE
  5
11A1
100
AcDbEntity
  8
90000_FRAME
370
    13
  6
CONTINUOUS
 62
     7
100
AcDbLine
 10
419.5
 20
144.0
 30
0.0
 11
419.0
 21
143.5
 31
0.0
  0
LINE
  5
11A2
100
AcDbEntity
  8
90000_FRAME
370
    13
  6
CONTINUOUS
 62
     7
100
AcDbLine
 10
419.5
 20
143.5
 30
0.0
 11
419.25
 21
143.25
 31
0.0
  0
LINE
  5
11A3
100
AcDbEntity
  8
90000_FRAME
370
    13
  6
CONTINUOUS
 62
     7
100
AcDbLine
 10
419.0
 20
147.0
 30
0.0
 11
417.25
 21
145.25
 31
0.0
  0
LINE
  5
11A4
100
AcDbEntity
  8
90000_FRAME
370
    13
  6
CONTINUOUS
 62
     7
100
AcDbLine
 10
418.5
 20
147.0
 30
0.0
 11
417.0
 21
145.5
 31
0.0
  0
LINE
  5
11A5
100
AcDbEntity
  8
90000_FRAME
370
    13
  6
CONTINUOUS
 62
     7
100
AcDbLine
 10
418.0
 20
147.0
 30
0.0
 11
416.75
 21
145.75
 31
0.0
  0
LINE
  5
11A6
100
AcDbEntity
  8
90000_FRAME
370
    13
  6
CONTINUOUS
 62
     7
100
AcDbLine
 10
417.5
 20
147.0
 30
0.0
 11
416.5
 21
146.0
 31
0.0
  0
LINE
  5
11A7
100
AcDbEntity
  8
90000_FRAME
370
    13
  6
CONTINUOUS
 62
     7
100
AcDbLine
 10
417.0
 20
147.0
 30
0.0
 11
416.25
 21
146.25
 31
0.0
  0
LINE
  5
11A8
100
AcDbEntity
  8
90000_FRAME
370
    13
  6
CONTINUOUS
 62
     7
100
AcDbLine
 10
416.5
 20
147.0
 30
0.0
 11
416.0
 21
146.5
 31
0.0
  0
LINE
  5
11A9
100
AcDbEntity
  8
90000_FRAME
370
    13
  6
CONTINUOUS
 62
     7
100
AcDbLine
 10
416.0
 20
147.0
 30
0.0
 11
415.75
 21
146.75
 31
0.0
  0
LINE
  5
11AA
100
AcDbEntity
  8
90000_FRAME
370
    13
  6
CONTINUOUS
 62
     7
100
AcDbLine
 10
419.5
 20
153.0
 30
0.0
 11
418.5
 21
153.0
 31
0.0
  0
LINE
  5
11AB
100
AcDbEntity
  8
90000_FRAME
370
    13
  6
CONTINUOUS
 62
     7
100
AcDbLine
 10
419.5
 20
153.5
 30
0.0
 11
419.0
 21
153.5
 31
0.0
  0
LINE
  5
11AC
100
AcDbEntity
  8
90000_FRAME
370
    13
  6
CONTINUOUS
 62
     7
100
AcDbLine
 10
416.5
 20
150.0
 30
0.0
 11
416.5
 21
151.0
 31
0.0
  0
LINE
  5
11AD
100
AcDbEntity
  8
90000_FRAME
370
    13
  6
CONTINUOUS
 62
     7
100
AcDbLine
 10
416.0
 20
150.0
 30
0.0
 11
416.0
 21
150.5
 31
0.0
  0
LINE
  5
11AE
100
AcDbEntity
  8
90000_FRAME
370
    13
  6
CONTINUOUS
 62
     7
100
AcDbLine
 10
419.5
 20
151.0
 30
0.0
 11
418.5
 21
150.0
 31
0.0
  0
LINE
  5
11AF
100
AcDbEntity
  8
90000_FRAME
370
    13
  6
CONTINUOUS
 62
     7
100
AcDbLine
 10
419.5
 20
150.5
 30
0.0
 11
419.0
 21
150.0
 31
0.0
  0
LINE
  5
11B0
100
AcDbEntity
  8
90000_FRAME
370
    13
  6
CONTINUOUS
 62
     7
100
AcDbLine
 10
419.5
 20
150.0
 30
0.0
 11
417.5
 21
152.0
 31
0.0
  0
LINE
  5
11B1
100
AcDbEntity
  8
90000_FRAME
370
    13
  6
CONTINUOUS
 62
     7
100
AcDbLine
 10
419.0
 20
150.0
 30
0.0
 11
417.25
 21
151.75
 31
0.0
  0
LINE
  5
11B2
100
AcDbEntity
  8
90000_FRAME
370
    13
  6
CONTINUOUS
 62
     7
100
AcDbLine
 10
418.5
 20
150.0
 30
0.0
 11
417.0
 21
151.5
 31
0.0
  0
LINE
  5
11B3
100
AcDbEntity
  8
90000_FRAME
370
    13
  6
CONTINUOUS
 62
     7
100
AcDbLine
 10
418.0
 20
150.0
 30
0.0
 11
416.75
 21
151.25
 31
0.0
  0
LINE
  5
11B4
100
AcDbEntity
  8
90000_FRAME
370
    13
  6
CONTINUOUS
 62
     7
100
AcDbLine
 10
417.5
 20
150.0
 30
0.0
 11
416.5
 21
151.0
 31
0.0
  0
LINE
  5
11B5
100
AcDbEntity
  8
90000_FRAME
370
    13
  6
CONTINUOUS
 62
     7
100
AcDbLine
 10
417.0
 20
150.0
 30
0.0
 11
416.25
 21
150.75
 31
0.0
  0
LINE
  5
11B6
100
AcDbEntity
  8
90000_FRAME
370
    13
  6
CONTINUOUS
 62
     7
100
AcDbLine
 10
416.5
 20
150.0
 30
0.0
 11
416.0
 21
150.5
 31
0.0
  0
LINE
  5
11B7
100
AcDbEntity
  8
90000_FRAME
370
    13
  6
CONTINUOUS
 62
     7
100
AcDbLine
 10
416.0
 20
150.0
 30
0.0
 11
415.75
 21
150.25
 31
0.0
  0
LINE
  5
11B8
100
AcDbEntity
  8
90000_FRAME
370
    13
  6
CONTINUOUS
 62
     7
100
AcDbLine
 10
419.5
 20
150.5
 30
0.0
 11
417.75
 21
152.25
 31
0.0
  0
LINE
  5
11B9
100
AcDbEntity
  8
90000_FRAME
370
    13
  6
CONTINUOUS
 62
     7
100
AcDbLine
 10
419.5
 20
151.0
 30
0.0
 11
418.0
 21
152.5
 31
0.0
  0
LINE
  5
11BA
100
AcDbEntity
  8
90000_FRAME
370
    13
  6
CONTINUOUS
 62
     7
100
AcDbLine
 10
419.5
 20
151.5
 30
0.0
 11
418.25
 21
152.75
 31
0.0
  0
LINE
  5
11BB
100
AcDbEntity
  8
90000_FRAME
370
    13
  6
CONTINUOUS
 62
     7
100
AcDbLine
 10
419.5
 20
152.0
 30
0.0
 11
418.5
 21
153.0
 31
0.0
  0
LINE
  5
11BC
100
AcDbEntity
  8
90000_FRAME
370
    13
  6
CONTINUOUS
 62
     7
100
AcDbLine
 10
419.5
 20
152.5
 30
0.0
 11
418.75
 21
153.25
 31
0.0
  0
LINE
  5
11BD
100
AcDbEntity
  8
90000_FRAME
370
    13
  6
CONTINUOUS
 62
     7
100
AcDbLine
 10
419.5
 20
153.0
 30
0.0
 11
419.0
 21
153.5
 31
0.0
  0
LINE
  5
11BE
100
AcDbEntity
  8
90000_FRAME
370
    13
  6
CONTINUOUS
 62
     7
100
AcDbLine
 10
419.5
 20
153.5
 30
0.0
 11
419.25
 21
153.75
 31
0.0
  0
LINE
  5
11BF
100
AcDbEntity
  8
90000_FRAME
370
    13
  6
CONTINUOUS
 62
     7
100
AcDbLine
 10
418.5
 20
147.0
 30
0.0
 11
419.5
 21
146.0
 31
0.0
  0
LINE
  5
11C0
100
AcDbEntity
  8
90000_FRAME
370
    13
  6
CONTINUOUS
 62
     7
100
AcDbLine
 10
419.0
 20
147.0
 30
0.0
 11
419.5
 21
146.5
 31
0.0
  0
LINE
  5
11C1
100
AcDbEntity
  8
90000_FRAME
370
    13
  6
CONTINUOUS
 62
     7
100
AcDbLine
 10
0.0
 20
297.0
 30
0.0
 11
420.0
 21
297.0
 31
0.0
  0
LINE
  5
11C2
100
AcDbEntity
  8
90000_FRAME
370
    13
  6
CONTINUOUS
 62
     7
100
AcDbLine
 10
420.0
 20
0.0
 30
0.0
 11
420.0
 21
297.0
 31
0.0
  0
LINE
  5
11C3
100
AcDbEntity
  8
90000_FRAME
370
    13
  6
CONTINUOUS
 62
     7
100
AcDbLine
 10
324.470897
 20
24.758842
 30
0.0
 11
415.130897
 21
24.758842
 31
0.0
  0
LINE
  5
11C4
100
AcDbEntity
  8
90000_FRAME
370
    13
  6
CONTINUOUS
 62
     7
100
AcDbLine
 10
283.28854
 20
49.731822
 30
0.0
 11
283.28854
 21
5.0
 31
0.0
  0
LINE
  5
11C5
100
AcDbEntity
  8
90000_FRAME
370
    13
  6
CONTINUOUS
 62
     7
100
AcDbLine
 10
324.34
 20
5.0
 30
0.0
 11
324.34
 21
34.700004
 31
0.0
  0
LINE
  5
11C6
100
AcDbEntity
  8
90000_FRAME
370
    13
  6
CONTINUOUS
 62
     7
100
AcDbLine
 10
235.0
 20
5.0
 30
0.0
 11
415.0
 21
5.0
 31
0.0
  0
LINE
  5
11C7
100
AcDbEntity
  8
90000_FRAME
370
    13
  6
CONTINUOUS
 62
     7
100
AcDbLine
 10
415.0
 20
5.0
 30
0.0
 11
415.0
 21
87.000004
 31
0.0
  0
ARC
  5
11C8
100
AcDbEntity
  8
91000_TIP
370
    13
  6
CONTINUOUS
 62
     7
100
AcDbCircle
 10
295.664535
 20
41.454783
 30
0.0
 40
1.28832
100
AcDbArc
 50
0.0
 51
180.0
  0
ARC
  5
11C9
100
AcDbEntity
  8
91000_TIP
370
    13
  6
CONTINUOUS
 62
     7
100
AcDbCircle
 10
295.664535
 20
41.454783
 30
0.0
 40
1.28832
100
AcDbArc
 50
180.0
 51
0.0
  0
ARC
  5
11CA
100
AcDbEntity
  8
91000_TIP
370
    13
  6
CONTINUOUS
 62
     7
100
AcDbCircle
 10
295.664535
 20
41.454783
 30
0.0
 40
2.77387
100
AcDbArc
 50
0.0
 51
180.0
  0
ARC
  5
11CB
100
AcDbEntity
  8
91000_TIP
370
    13
  6
CONTINUOUS
 62
     7
100
AcDbCircle
 10
295.664535
 20
41.454783
 30
0.0
 40
2.77387
100
AcDbArc
 50
180.0
 51
0.0
  0
LINE
  5
11CC
100
AcDbEntity
  8
91000_TIP
370
    13
  6
CONTINUOUS
 62
     7
100
AcDbLine
 10
291.894305
 20
44.228653
 30
0.0
 11
291.894305
 21
38.680913
 31
0.0
  0
LINE
  5
11CD
100
AcDbEntity
  8
91000_TIP
370
    13
  6
CONTINUOUS
 62
     7
100
AcDbLine
 10
285.811505
 20
42.743103
 30
0.0
 11
285.811505
 21
40.166473
 31
0.0
  0
LINE
  5
11CE
100
AcDbEntity
  8
91000_TIP
370
    13
  6
CONTINUOUS
 62
     7
100
AcDbLine
 10
285.811505
 20
42.743103
 30
0.0
 11
291.894305
 21
44.228653
 31
0.0
  0
LINE
  5
11CF
100
AcDbEntity
  8
91000_TIP
370
    13
  6
CONTINUOUS
 62
     7
100
AcDbLine
 10
285.811505
 20
40.166473
 30
0.0
 11
291.894305
 21
38.680913
 31
0.0
  0
LINE
  5
11D0
100
AcDbEntity
  8
90000_FRAME
370
    13
  6
CONTINUOUS
 62
     7
100
AcDbLine
 10
300.596988
 20
42.215913
 30
0.0
 11
415.0
 21
42.215913
 31
0.0
  0
LINE
  5
11D1
100
AcDbEntity
  8
90000_FRAME
370
    13
  6
CONTINUOUS
 62
     7
100
AcDbLine
 10
313.412948
 20
20.939701
 30
0.0
 11
312.809011
 21
20.939701
 31
0.0
  0
LINE
  5
11D2
100
AcDbEntity
  8
90000_FRAME
370
    13
  6
CONTINUOUS
 62
     7
100
AcDbLine
 10
308.54513
 20
20.166936
 30
0.0
 11
308.839621
 21
20.166936
 31
0.0
  0
LINE
  5
11D3
100
AcDbEntity
  8
90000_FRAME
370
    13
  6
CONTINUOUS
 62
     7
100
AcDbLine
 10
292.11607
 20
22.194852
 30
0.0
 11
291.766833
 21
22.194852
 31
0.0
  0
LINE
  5
11D4
100
AcDbEntity
  8
90000_FRAME
370
    13
  6
CONTINUOUS
 62
     7
100
AcDbLine
 10
292.871177
 20
21.08107
 30
0.0
 11
292.993882
 21
20.845099
 31
0.0
  0
LINE
  5
11D5
100
AcDbEntity
  8
90000_FRAME
370
    13
  6
CONTINUOUS
 62
     7
100
AcDbLine
 10
291.889538
 20
19.655806
 30
0.0
 11
291.285453
 21
19.655806
 31
0.0
  0
LINE
  5
11D6
100
AcDbEntity
  8
90000_FRAME
370
    13
  6
CONTINUOUS
 62
     7
100
AcDbLine
 10
292.04056
 20
20.231575
 30
0.0
 11
292.191581
 21
20.363719
 31
0.0
  0
LINE
  5
11D7
100
AcDbEntity
  8
90000_FRAME
370
    13
  6
CONTINUOUS
 62
     7
100
AcDbLine
 10
290.728562
 20
21.73235
 30
0.0
 11
290.766317
 21
22.062709
 31
0.0
  0
LINE
  5
11D8
100
AcDbEntity
  8
90000_FRAME
370
    13
  6
CONTINUOUS
 62
     7
100
AcDbLine
 10
293.456384
 20
22.638478
 30
0.0
 11
294.268124
 21
22.638478
 31
0.0
  0
LINE
  5
11D9
100
AcDbEntity
  8
90000_FRAME
370
    13
  6
CONTINUOUS
 62
     7
100
AcDbLine
 10
295.797215
 20
22.128781
 30
0.0
 11
295.797215
 21
21.48694
 31
0.0
  0
LINE
  5
11DA
100
AcDbEntity
  8
90000_FRAME
370
    13
  6
CONTINUOUS
 62
     7
100
AcDbLine
 10
297.12809
 20
19.740756
 30
0.0
 11
295.004353
 21
19.740756
 31
0.0
  0
LINE
  5
11DB
100
AcDbEntity
  8
90000_FRAME
370
    13
  6
CONTINUOUS
 62
     7
100
AcDbLine
 10
315.567621
 20
21.39776
 30
0.0
 11
315.567621
 21
20.952247
 31
0.0
  0
LINE
  5
11DC
100
AcDbEntity
  8
90000_FRAME
370
    13
  6
CONTINUOUS
 62
     7
100
AcDbLine
 10
307.857983
 20
21.216534
 30
0.0
 11
307.669206
 21
21.480822
 31
0.0
  0
LINE
  5
11DD
100
AcDbEntity
  8
90000_FRAME
370
    13
  6
CONTINUOUS
 62
     7
100
AcDbLine
 10
309.919424
 20
20.40857
 30
0.0
 11
309.783504
 21
20.083874
 31
0.0
  0
LINE
  5
11DE
100
AcDbEntity
  8
90000_FRAME
370
    13
  6
CONTINUOUS
 62
     7
100
AcDbLine
 10
308.439415
 20
21.941437
 30
0.0
 11
308.492272
 21
21.760211
 31
0.0
  0
LINE
  5
11DF
100
AcDbEntity
  8
90000_FRAME
370
    13
  6
CONTINUOUS
 62
     7
100
AcDbLine
 10
309.451257
 20
22.621032
 30
0.0
 11
309.670238
 21
22.545522
 31
0.0
  0
LINE
  5
11E0
100
AcDbEntity
  8
90000_FRAME
370
    13
  6
CONTINUOUS
 62
     7
100
AcDbLine
 10
312.577399
 20
20.370815
 30
0.0
 11
312.335765
 21
19.661015
 31
0.0
  0
LINE
  5
11E1
100
AcDbEntity
  8
90000_FRAME
370
    13
  6
CONTINUOUS
 62
     7
100
AcDbLine
 10
309.058602
 20
20.612449
 30
0.0
 11
308.786764
 21
20.76347
 31
0.0
  0
LINE
  5
11E2
100
AcDbEntity
  8
90000_FRAME
370
    13
  6
CONTINUOUS
 62
     7
100
AcDbLine
 10
317.462938
 20
21.360004
 30
0.0
 11
317.462938
 21
19.84224
 31
0.0
  0
LINE
  5
11E3
100
AcDbEntity
  8
90000_FRAME
370
    13
  6
CONTINUOUS
 62
     7
100
AcDbLine
 10
307.69941
 20
19.76673
 30
0.0
 11
307.69941
 21
20.310406
 31
0.0
  0
LINE
  5
11E4
100
AcDbEntity
  8
90000_FRAME
370
    13
  6
CONTINUOUS
 62
     7
100
AcDbLine
 10
306.513893
 20
22.643686
 30
0.0
 11
307.13308
 21
22.643686
 31
0.0
  0
LINE
  5
11E5
100
AcDbEntity
  8
90000_FRAME
370
    13
  6
CONTINUOUS
 62
     7
100
AcDbLine
 10
300.439233
 20
19.734149
 30
0.0
 11
300.439233
 21
21.689875
 31
0.0
  0
LINE
  5
11E6
100
AcDbEntity
  8
90000_FRAME
370
    13
  6
CONTINUOUS
 62
     7
100
AcDbLine
 10
304.1015
 20
20.255172
 30
0.0
 11
304.1015
 21
19.726598
 31
0.0
  0
LINE
  5
11E7
100
AcDbEntity
  8
90000_FRAME
370
    13
  6
CONTINUOUS
 62
     7
100
AcDbLine
 10
302.75741
 20
21.455792
 30
0.0
 11
303.882519
 21
21.455792
 31
0.0
  0
LINE
  5
11E8
100
AcDbEntity
  8
90000_FRAME
370
    13
  6
CONTINUOUS
 62
     7
100
AcDbLine
 10
314.797412
 20
20.869185
 30
0.0
 11
314.797412
 21
21.465719
 31
0.0
  0
LINE
  5
11E9
100
AcDbEntity
  8
90000_FRAME
370
    13
  6
CONTINUOUS
 62
     7
100
AcDbLine
 10
315.567621
 20
20.952247
 30
0.0
 11
315.711091
 21
20.627551
 31
0.0
  0
LINE
  5
11EA
100
AcDbEntity
  8
90000_FRAME
370
    13
  6
CONTINUOUS
 62
     7
100
AcDbLine
 10
314.888025
 20
21.873477
 30
0.0
 11
315.076802
 21
22.198173
 31
0.0
  0
LINE
  5
11EB
100
AcDbEntity
  8
90000_FRAME
370
    13
  6
CONTINUOUS
 62
     7
100
AcDbLine
 10
313.0966
 20
21.735365
 30
0.0
 11
313.412948
 21
20.939701
 31
0.0
  0
LINE
  5
11EC
100
AcDbEntity
  8
90000_FRAME
370
    13
  6
CONTINUOUS
 62
     7
100
AcDbLine
 10
316.730485
 20
20.748368
 30
0.0
 11
316.722934
 21
20.295304
 31
0.0
  0
LINE
  5
11ED
100
AcDbEntity
  8
90000_FRAME
370
    13
  6
CONTINUOUS
 62
     7
100
AcDbLine
 10
314.797412
 20
21.465719
 30
0.0
 11
314.888025
 21
21.873477
 31
0.0
  0
LINE
  5
11EE
100
AcDbEntity
  8
90000_FRAME
370
    13
  6
CONTINUOUS
 62
     7
100
AcDbLine
 10
317.47049
 20
22.522869
 30
0.0
 11
317.198651
 21
21.911232
 31
0.0
  0
LINE
  5
11EF
100
AcDbEntity
  8
90000_FRAME
370
    13
  6
CONTINUOUS
 62
     7
100
AcDbLine
 10
291.54974
 20
21.96832
 30
0.0
 11
291.54974
 21
21.826738
 31
0.0
  0
LINE
  5
11F0
100
AcDbEntity
  8
90000_FRAME
370
    13
  6
CONTINUOUS
 62
     7
100
AcDbLine
 10
292.946687
 20
20.222136
 30
0.0
 11
292.739033
 21
19.94841
 31
0.0
  0
LINE
  5
11F1
100
AcDbEntity
  8
90000_FRAME
370
    13
  6
CONTINUOUS
 62
     7
100
AcDbLine
 10
290.785195
 20
20.307086
 30
0.0
 11
291.181626
 21
20.231575
 31
0.0
  0
LINE
  5
11F2
100
AcDbEntity
  8
90000_FRAME
370
    13
  6
CONTINUOUS
 62
     7
100
AcDbLine
 10
292.059437
 20
20.646884
 30
0.0
 11
291.266575
 21
20.996121
 31
0.0
  0
LINE
  5
11F3
100
AcDbEntity
  8
90000_FRAME
370
    13
  6
CONTINUOUS
 62
     7
100
AcDbLine
 10
291.115554
 20
22.515773
 30
0.0
 11
291.417597
 21
22.629039
 31
0.0
  0
LINE
  5
11F4
100
AcDbEntity
  8
90000_FRAME
370
    13
  6
CONTINUOUS
 62
     7
100
AcDbLine
 10
293.456384
 20
19.721878
 30
0.0
 11
293.456384
 21
22.638478
 31
0.0
  0
LINE
  5
11F5
100
AcDbEntity
  8
90000_FRAME
370
    13
  6
CONTINUOUS
 62
     7
100
AcDbLine
 10
296.929875
 20
20.977243
 30
0.0
 11
295.797215
 21
20.977243
 31
0.0
  0
LINE
  5
11F6
100
AcDbEntity
  8
90000_FRAME
370
    13
  6
CONTINUOUS
 62
     7
100
AcDbLine
 10
316.186808
 20
20.249998
 30
0.0
 11
316.647423
 21
20.249998
 31
0.0
  0
LINE
  5
11F7
100
AcDbEntity
  8
90000_FRAME
370
    13
  6
CONTINUOUS
 62
     7
100
AcDbLine
 10
309.217174
 20
19.69877
 30
0.0
 11
308.90003
 21
19.653464
 31
0.0
  0
LINE
  5
11F8
100
AcDbEntity
  8
90000_FRAME
370
    13
  6
CONTINUOUS
 62
     7
100
AcDbLine
 10
309.662687
 20
21.171228
 30
0.0
 11
309.851464
 21
20.967349
 31
0.0
  0
LINE
  5
11F9
100
AcDbEntity
  8
90000_FRAME
370
    13
  6
CONTINUOUS
 62
     7
100
AcDbLine
 10
309.020847
 20
22.198173
 30
0.0
 11
308.718804
 21
22.198173
 31
0.0
  0
LINE
  5
11FA
100
AcDbEntity
  8
90000_FRAME
370
    13
  6
CONTINUOUS
 62
     7
100
AcDbLine
 10
297.12809
 20
20.288208
 30
0.0
 11
297.12809
 21
19.740756
 31
0.0
  0
LINE
  5
11FB
100
AcDbEntity
  8
90000_FRAME
370
    13
  6
CONTINUOUS
 62
     7
100
AcDbLine
 10
307.744717
 20
22.220826
 30
0.0
 11
307.903289
 21
22.402052
 31
0.0
  0
LINE
  5
11FC
100
AcDbEntity
  8
90000_FRAME
370
    13
  6
CONTINUOUS
 62
     7
100
AcDbLine
 10
307.669206
 20
21.480822
 30
0.0
 11
307.639002
 21
21.601639
 31
0.0
  0
LINE
  5
11FD
100
AcDbEntity
  8
90000_FRAME
370
    13
  6
CONTINUOUS
 62
     7
100
AcDbLine
 10
315.711091
 20
20.627551
 30
0.0
 11
315.960276
 21
20.363264
 31
0.0
  0
LINE
  5
11FE
100
AcDbEntity
  8
90000_FRAME
370
    13
  6
CONTINUOUS
 62
     7
100
AcDbLine
 10
309.051051
 20
20.302855
 30
0.0
 11
309.119011
 21
20.423672
 31
0.0
  0
LINE
  5
11FF
100
AcDbEntity
  8
90000_FRAME
370
    13
  6
CONTINUOUS
 62
     7
100
AcDbLine
 10
306.204299
 20
19.728974
 30
0.0
 11
305.207558
 21
21.631843
 31
0.0
  0
LINE
  5
1200
100
AcDbEntity
  8
90000_FRAME
370
    13
  6
CONTINUOUS
 62
     7
100
AcDbLine
 10
298.256975
 20
21.644569
 30
0.0
 11
298.256975
 21
19.734149
 31
0.0
  0
LINE
  5
1201
100
AcDbEntity
  8
90000_FRAME
370
    13
  6
CONTINUOUS
 62
     7
100
AcDbLine
 10
303.882519
 20
20.995177
 30
0.0
 11
302.742308
 21
20.995177
 31
0.0
  0
LINE
  5
1202
100
AcDbEntity
  8
90000_FRAME
370
    13
  6
CONTINUOUS
 62
     7
100
AcDbLine
 10
297.637787
 20
19.734149
 30
0.0
 11
297.647226
 21
22.629039
 31
0.0
  0
LINE
  5
1203
100
AcDbEntity
  8
90000_FRAME
370
    13
  6
CONTINUOUS
 62
     7
100
AcDbLine
 10
304.063744
 20
22.626207
 30
0.0
 11
304.063744
 21
22.127837
 31
0.0
  0
LINE
  5
1204
100
AcDbEntity
  8
90000_FRAME
370
    13
  6
CONTINUOUS
 62
     7
100
AcDbLine
 10
312.809011
 20
20.939701
 30
0.0
 11
313.0966
 21
21.735365
 31
0.0
  0
LINE
  5
1205
100
AcDbEntity
  8
90000_FRAME
370
    13
  6
CONTINUOUS
 62
     7
100
AcDbLine
 10
315.325987
 20
22.447358
 30
0.0
 11
315.605376
 21
22.613481
 31
0.0
  0
LINE
  5
1206
100
AcDbEntity
  8
90000_FRAME
370
    13
  6
CONTINUOUS
 62
     7
100
AcDbLine
 10
307.639002
 20
21.941437
 30
0.0
 11
307.744717
 21
22.220826
 31
0.0
  0
LINE
  5
1207
100
AcDbEntity
  8
90000_FRAME
370
    13
  6
CONTINUOUS
 62
     7
100
AcDbLine
 10
292.352041
 20
22.157097
 30
0.0
 11
292.11607
 21
22.194852
 31
0.0
  0
LINE
  5
1208
100
AcDbEntity
  8
90000_FRAME
370
    13
  6
CONTINUOUS
 62
     7
100
AcDbLine
 10
292.644645
 20
21.279286
 30
0.0
 11
292.871177
 21
21.08107
 31
0.0
  0
LINE
  5
1209
100
AcDbEntity
  8
90000_FRAME
370
    13
  6
CONTINUOUS
 62
     7
100
AcDbLine
 10
292.219897
 20
19.684123
 30
0.0
 11
291.889538
 21
19.655806
 31
0.0
  0
LINE
  5
120A
100
AcDbEntity
  8
90000_FRAME
370
    13
  6
CONTINUOUS
 62
     7
100
AcDbLine
 10
291.851783
 20
20.174942
 30
0.0
 11
292.04056
 21
20.231575
 31
0.0
  0
LINE
  5
120B
100
AcDbEntity
  8
90000_FRAME
370
    13
  6
CONTINUOUS
 62
     7
100
AcDbLine
 10
290.813511
 20
21.401991
 30
0.0
 11
290.728562
 21
21.73235
 31
0.0
  0
LINE
  5
120C
100
AcDbEntity
  8
90000_FRAME
370
    13
  6
CONTINUOUS
 62
     7
100
AcDbLine
 10
292.257653
 20
22.666794
 30
0.0
 11
292.76735
 21
22.562967
 31
0.0
  0
LINE
  5
120D
100
AcDbEntity
  8
90000_FRAME
370
    13
  6
CONTINUOUS
 62
     7
100
AcDbLine
 10
297.109213
 20
22.128781
 30
0.0
 11
295.797215
 21
22.128781
 31
0.0
  0
LINE
  5
120E
100
AcDbEntity
  8
90000_FRAME
370
    13
  6
CONTINUOUS
 62
     7
100
AcDbLine
 10
299.450043
 20
20.816783
 30
0.0
 11
300.224027
 21
22.629039
 31
0.0
  0
LINE
  5
120F
100
AcDbEntity
  8
90000_FRAME
370
    13
  6
CONTINUOUS
 62
     7
100
AcDbLine
 10
307.941044
 20
19.683668
 30
0.0
 11
307.69941
 21
19.76673
 31
0.0
  0
LINE
  5
1210
100
AcDbEntity
  8
90000_FRAME
370
    13
  6
CONTINUOUS
 62
     7
100
AcDbLine
 10
309.783504
 20
20.083874
 30
0.0
 11
309.572075
 21
19.857342
 31
0.0
  0
LINE
  5
1211
100
AcDbEntity
  8
90000_FRAME
370
    13
  6
CONTINUOUS
 62
     7
100
AcDbLine
 10
308.492272
 20
21.760211
 30
0.0
 11
308.76411
 21
21.624292
 31
0.0
  0
LINE
  5
1212
100
AcDbEntity
  8
90000_FRAME
370
    13
  6
CONTINUOUS
 62
     7
100
AcDbLine
 10
309.670238
 20
22.545522
 30
0.0
 11
309.670238
 21
22.032049
 31
0.0
  0
LINE
  5
1213
100
AcDbEntity
  8
90000_FRAME
370
    13
  6
CONTINUOUS
 62
     7
100
AcDbLine
 10
308.537578
 20
22.658788
 30
0.0
 11
309.202072
 21
22.658788
 31
0.0
  0
LINE
  5
1214
100
AcDbEntity
  8
90000_FRAME
370
    13
  6
CONTINUOUS
 62
     7
100
AcDbLine
 10
314.699248
 20
19.676117
 30
0.0
 11
313.823325
 21
19.676117
 31
0.0
  0
LINE
  5
1215
100
AcDbEntity
  8
90000_FRAME
370
    13
  6
CONTINUOUS
 62
     7
100
AcDbLine
 10
317.462938
 20
19.84224
 30
0.0
 11
317.002323
 21
19.69877
 31
0.0
  0
LINE
  5
1216
100
AcDbEntity
  8
90000_FRAME
370
    13
  6
CONTINUOUS
 62
     7
100
AcDbLine
 10
307.69941
 20
20.310406
 30
0.0
 11
307.835329
 21
20.302855
 31
0.0
  0
LINE
  5
1217
100
AcDbEntity
  8
90000_FRAME
370
    13
  6
CONTINUOUS
 62
     7
100
AcDbLine
 10
307.13308
 20
22.643686
 30
0.0
 11
307.13308
 21
19.728974
 31
0.0
  0
LINE
  5
1218
100
AcDbEntity
  8
90000_FRAME
370
    13
  6
CONTINUOUS
 62
     7
100
AcDbLine
 10
300.439233
 20
21.689875
 30
0.0
 11
299.57086
 21
19.696393
 31
0.0
  0
LINE
  5
1219
100
AcDbEntity
  8
90000_FRAME
370
    13
  6
CONTINUOUS
 62
     7
100
AcDbLine
 10
304.1015
 20
19.726598
 30
0.0
 11
301.941895
 21
19.726598
 31
0.0
  0
LINE
  5
121A
100
AcDbEntity
  8
90000_FRAME
370
    13
  6
CONTINUOUS
 62
     7
100
AcDbLine
 10
303.882519
 20
21.455792
 30
0.0
 11
303.882519
 21
20.995177
 31
0.0
  0
LINE
  5
121B
100
AcDbEntity
  8
90000_FRAME
370
    13
  6
CONTINUOUS
 62
     7
100
AcDbLine
 10
315.937623
 20
22.726747
 30
0.0
 11
316.821098
 21
22.726747
 31
0.0
  0
LINE
  5
121C
100
AcDbEntity
  8
90000_FRAME
370
    13
  6
CONTINUOUS
 62
     7
100
AcDbLine
 10
295.797215
 20
20.288208
 30
0.0
 11
297.12809
 21
20.288208
 31
0.0
  0
LINE
  5
121D
100
AcDbEntity
  8
90000_FRAME
370
    13
  6
CONTINUOUS
 62
     7
100
AcDbLine
 10
308.786764
 20
20.76347
 30
0.0
 11
308.107168
 21
21.035309
 31
0.0
  0
LINE
  5
121E
100
AcDbEntity
  8
90000_FRAME
370
    13
  6
CONTINUOUS
 62
     7
100
AcDbLine
 10
291.596934
 20
22.081586
 30
0.0
 11
291.54974
 21
21.96832
 31
0.0
  0
LINE
  5
121F
100
AcDbEntity
  8
90000_FRAME
370
    13
  6
CONTINUOUS
 62
     7
100
AcDbLine
 10
293.041076
 20
20.467546
 30
0.0
 11
292.946687
 21
20.222136
 31
0.0
  0
LINE
  5
1220
100
AcDbEntity
  8
90000_FRAME
370
    13
  6
CONTINUOUS
 62
     7
100
AcDbLine
 10
290.785195
 20
19.750195
 30
0.0
 11
290.785195
 21
20.307086
 31
0.0
  0
LINE
  5
1221
100
AcDbEntity
  8
90000_FRAME
370
    13
  6
CONTINUOUS
 62
     7
100
AcDbLine
 10
292.191581
 20
20.543057
 30
0.0
 11
292.059437
 21
20.646884
 31
0.0
  0
LINE
  5
1222
100
AcDbEntity
  8
90000_FRAME
370
    13
  6
CONTINUOUS
 62
     7
100
AcDbLine
 10
290.889022
 20
22.279802
 30
0.0
 11
291.115554
 21
22.515773
 31
0.0
  0
LINE
  5
1223
100
AcDbEntity
  8
90000_FRAME
370
    13
  6
CONTINUOUS
 62
     7
100
AcDbLine
 10
294.268124
 20
19.721878
 30
0.0
 11
293.456384
 21
19.721878
 31
0.0
  0
LINE
  5
1224
100
AcDbEntity
  8
90000_FRAME
370
    13
  6
CONTINUOUS
 62
     7
100
AcDbLine
 10
296.929875
 20
21.48694
 30
0.0
 11
296.929875
 21
20.977243
 31
0.0
  0
LINE
  5
1225
100
AcDbEntity
  8
90000_FRAME
370
    13
  6
CONTINUOUS
 62
     7
100
AcDbLine
 10
316.647423
 20
20.249998
 30
0.0
 11
316.722934
 21
20.295304
 31
0.0
  0
LINE
  5
1226
100
AcDbEntity
  8
90000_FRAME
370
    13
  6
CONTINUOUS
 62
     7
100
AcDbLine
 10
308.90003
 20
19.653464
 30
0.0
 11
308.220434
 21
19.653464
 31
0.0
  0
LINE
  5
1227
100
AcDbEntity
  8
90000_FRAME
370
    13
  6
CONTINUOUS
 62
     7
100
AcDbLine
 10
309.851464
 20
20.967349
 30
0.0
 11
309.919424
 21
20.740817
 31
0.0
  0
LINE
  5
1228
100
AcDbEntity
  8
90000_FRAME
370
    13
  6
CONTINUOUS
 62
     7
100
AcDbLine
 10
308.718804
 20
22.198173
 30
0.0
 11
308.492272
 21
22.092458
 31
0.0
  0
LINE
  5
1229
100
AcDbEntity
  8
90000_FRAME
370
    13
  6
CONTINUOUS
 62
     7
100
AcDbLine
 10
317.198651
 20
21.911232
 30
0.0
 11
316.722934
 21
22.092458
 31
0.0
  0
LINE
  5
122A
100
AcDbEntity
  8
90000_FRAME
370
    13
  6
CONTINUOUS
 62
     7
100
AcDbLine
 10
307.903289
 20
22.402052
 30
0.0
 11
308.182678
 21
22.575726
 31
0.0
  0
LINE
  5
122B
100
AcDbEntity
  8
90000_FRAME
370
    13
  6
CONTINUOUS
 62
     7
100
AcDbLine
 10
316.730485
 20
20.748368
 30
0.0
 11
316.239666
 21
20.748368
 31
0.0
  0
LINE
  5
122C
100
AcDbEntity
  8
90000_FRAME
370
    13
  6
CONTINUOUS
 62
     7
100
AcDbLine
 10
316.239666
 20
20.748368
 30
0.0
 11
316.239666
 21
21.360004
 31
0.0
  0
LINE
  5
122D
100
AcDbEntity
  8
90000_FRAME
370
    13
  6
CONTINUOUS
 62
     7
100
AcDbLine
 10
305.207558
 20
21.631843
 30
0.0
 11
305.207558
 21
19.728974
 31
0.0
  0
LINE
  5
122E
100
AcDbEntity
  8
90000_FRAME
370
    13
  6
CONTINUOUS
 62
     7
100
AcDbLine
 10
306.513893
 20
20.748368
 30
0.0
 11
306.513893
 21
22.643686
 31
0.0
  0
LINE
  5
122F
100
AcDbEntity
  8
90000_FRAME
370
    13
  6
CONTINUOUS
 62
     7
100
AcDbLine
 10
301.949446
 20
22.626207
 30
0.0
 11
304.063744
 21
22.626207
 31
0.0
  0
LINE
  5
1230
100
AcDbEntity
  8
90000_FRAME
370
    13
  6
CONTINUOUS
 62
     7
100
AcDbLine
 10
302.742308
 20
20.995177
 30
0.0
 11
302.742308
 21
20.255172
 31
0.0
  0
LINE
  5
1231
100
AcDbEntity
  8
90000_FRAME
370
    13
  6
CONTINUOUS
 62
     7
100
AcDbLine
 10
304.063744
 20
22.127837
 30
0.0
 11
302.75741
 21
22.127837
 31
0.0
  0
LINE
  5
1232
100
AcDbEntity
  8
90000_FRAME
370
    13
  6
CONTINUOUS
 62
     7
100
AcDbLine
 10
317.138243
 20
22.67389
 30
0.0
 11
317.47049
 21
22.522869
 31
0.0
  0
LINE
  5
1233
100
AcDbEntity
  8
90000_FRAME
370
    13
  6
CONTINUOUS
 62
     7
100
AcDbLine
 10
315.680887
 20
21.745109
 30
0.0
 11
315.567621
 21
21.39776
 31
0.0
  0
LINE
  5
1234
100
AcDbEntity
  8
90000_FRAME
370
    13
  6
CONTINUOUS
 62
     7
100
AcDbLine
 10
315.076802
 20
20.159385
 30
0.0
 11
314.872923
 21
20.574694
 31
0.0
  0
LINE
  5
1235
100
AcDbEntity
  8
90000_FRAME
370
    13
  6
CONTINUOUS
 62
     7
100
AcDbLine
 10
315.960276
 20
20.363264
 30
0.0
 11
316.186808
 21
20.249998
 31
0.0
  0
LINE
  5
1236
100
AcDbEntity
  8
90000_FRAME
370
    13
  6
CONTINUOUS
 62
     7
100
AcDbLine
 10
295.004353
 20
19.740756
 30
0.0
 11
295.004353
 21
22.638478
 31
0.0
  0
LINE
  5
1237
100
AcDbEntity
  8
90000_FRAME
370
    13
  6
CONTINUOUS
 62
     7
100
AcDbLine
 10
292.76735
 20
22.034392
 30
0.0
 11
292.352041
 21
22.157097
 31
0.0
  0
LINE
  5
1238
100
AcDbEntity
  8
90000_FRAME
370
    13
  6
CONTINUOUS
 62
     7
100
AcDbLine
 10
291.672445
 20
21.722911
 30
0.0
 11
292.644645
 21
21.279286
 31
0.0
  0
LINE
  5
1239
100
AcDbEntity
  8
90000_FRAME
370
    13
  6
CONTINUOUS
 62
     7
100
AcDbLine
 10
292.493623
 20
19.778511
 30
0.0
 11
292.219897
 21
19.684123
 31
0.0
  0
LINE
  5
123A
100
AcDbEntity
  8
90000_FRAME
370
    13
  6
CONTINUOUS
 62
     7
100
AcDbLine
 10
291.54974
 20
20.174942
 30
0.0
 11
291.851783
 21
20.174942
 31
0.0
  0
LINE
  5
123B
100
AcDbEntity
  8
90000_FRAME
370
    13
  6
CONTINUOUS
 62
     7
100
AcDbLine
 10
291.030604
 20
21.156581
 30
0.0
 11
290.813511
 21
21.401991
 31
0.0
  0
LINE
  5
123C
100
AcDbEntity
  8
90000_FRAME
370
    13
  6
CONTINUOUS
 62
     7
100
AcDbLine
 10
291.663006
 20
22.666794
 30
0.0
 11
292.257653
 21
22.666794
 31
0.0
  0
LINE
  5
123D
100
AcDbEntity
  8
90000_FRAME
370
    13
  6
CONTINUOUS
 62
     7
100
AcDbLine
 10
297.109213
 20
22.638478
 30
0.0
 11
297.109213
 21
22.128781
 31
0.0
  0
LINE
  5
123E
100
AcDbEntity
  8
90000_FRAME
370
    13
  6
CONTINUOUS
 62
     7
100
AcDbLine
 10
298.723253
 20
22.629039
 30
0.0
 11
299.450043
 21
20.816783
 31
0.0
  0
LINE
  5
123F
100
AcDbEntity
  8
90000_FRAME
370
    13
  6
CONTINUOUS
 62
     7
100
AcDbLine
 10
311.588209
 20
19.661015
 30
0.0
 11
312.720869
 21
22.67389
 31
0.0
  0
LINE
  5
1240
100
AcDbEntity
  8
90000_FRAME
370
    13
  6
CONTINUOUS
 62
     7
100
AcDbLine
 10
316.564362
 20
22.122662
 30
0.0
 11
316.164155
 21
22.122662
 31
0.0
  0
LINE
  5
1241
100
AcDbEntity
  8
90000_FRAME
370
    13
  6
CONTINUOUS
 62
     7
100
AcDbLine
 10
308.76411
 20
21.624292
 30
0.0
 11
309.375747
 21
21.375107
 31
0.0
  0
LINE
  5
1242
100
AcDbEntity
  8
90000_FRAME
370
    13
  6
CONTINUOUS
 62
     7
100
AcDbLine
 10
309.670238
 20
22.032049
 30
0.0
 11
309.33044
 21
22.145315
 31
0.0
  0
LINE
  5
1243
100
AcDbEntity
  8
90000_FRAME
370
    13
  6
CONTINUOUS
 62
     7
100
AcDbLine
 10
309.202072
 20
22.658788
 30
0.0
 11
309.451257
 21
22.621032
 31
0.0
  0
LINE
  5
1244
100
AcDbEntity
  8
90000_FRAME
370
    13
  6
CONTINUOUS
 62
     7
100
AcDbLine
 10
313.823325
 20
19.676117
 30
0.0
 11
313.619446
 21
20.370815
 31
0.0
  0
LINE
  5
1245
100
AcDbEntity
  8
90000_FRAME
370
    13
  6
CONTINUOUS
 62
     7
100
AcDbLine
 10
308.107168
 20
21.035309
 30
0.0
 11
307.857983
 21
21.216534
 31
0.0
  0
LINE
  5
1246
100
AcDbEntity
  8
90000_FRAME
370
    13
  6
CONTINUOUS
 62
     7
100
AcDbLine
 10
317.002323
 20
19.69877
 30
0.0
 11
315.794153
 21
19.69877
 31
0.0
  0
LINE
  5
1247
100
AcDbEntity
  8
90000_FRAME
370
    13
  6
CONTINUOUS
 62
     7
100
AcDbLine
 10
307.835329
 20
20.302855
 30
0.0
 11
308.311046
 21
20.19714
 31
0.0
  0
LINE
  5
1248
100
AcDbEntity
  8
90000_FRAME
370
    13
  6
CONTINUOUS
 62
     7
100
AcDbLine
 10
307.13308
 20
19.728974
 30
0.0
 11
306.204299
 21
19.728974
 31
0.0
  0
LINE
  5
1249
100
AcDbEntity
  8
90000_FRAME
370
    13
  6
CONTINUOUS
 62
     7
100
AcDbLine
 10
299.57086
 20
19.696393
 30
0.0
 11
299.064939
 21
19.696393
 31
0.0
  0
LINE
  5
124A
100
AcDbEntity
  8
90000_FRAME
370
    13
  6
CONTINUOUS
 62
     7
100
AcDbLine
 10
304.603473
 20
22.643686
 30
0.0
 11
305.554907
 21
22.643686
 31
0.0
  0
LINE
  5
124B
100
AcDbEntity
  8
90000_FRAME
370
    13
  6
CONTINUOUS
 62
     7
100
AcDbLine
 10
297.647226
 20
22.629039
 30
0.0
 11
298.723253
 21
22.629039
 31
0.0
  0
LINE
  5
124C
100
AcDbEntity
  8
90000_FRAME
370
    13
  6
CONTINUOUS
 62
     7
100
AcDbLine
 10
309.119011
 20
20.423672
 30
0.0
 11
309.058602
 21
20.612449
 31
0.0
  0
LINE
  5
124D
100
AcDbEntity
  8
90000_FRAME
370
    13
  6
CONTINUOUS
 62
     7
100
AcDbLine
 10
314.872923
 20
20.574694
 30
0.0
 11
314.797412
 21
20.869185
 31
0.0
  0
LINE
  5
124E
100
AcDbEntity
  8
90000_FRAME
370
    13
  6
CONTINUOUS
 62
     7
100
AcDbLine
 10
315.076802
 20
22.198173
 30
0.0
 11
315.325987
 21
22.447358
 31
0.0
  0
LINE
  5
124F
100
AcDbEntity
  8
90000_FRAME
370
    13
  6
CONTINUOUS
 62
     7
100
AcDbLine
 10
291.766833
 20
22.194852
 30
0.0
 11
291.596934
 21
22.081586
 31
0.0
  0
LINE
  5
1250
100
AcDbEntity
  8
90000_FRAME
370
    13
  6
CONTINUOUS
 62
     7
100
AcDbLine
 10
292.993882
 20
20.845099
 30
0.0
 11
293.041076
 21
20.467546
 31
0.0
  0
LINE
  5
1251
100
AcDbEntity
  8
90000_FRAME
370
    13
  6
CONTINUOUS
 62
     7
100
AcDbLine
 10
291.285453
 20
19.655806
 30
0.0
 11
290.785195
 21
19.750195
 31
0.0
  0
LINE
  5
1252
100
AcDbEntity
  8
90000_FRAME
370
    13
  6
CONTINUOUS
 62
     7
100
AcDbLine
 10
292.191581
 20
20.363719
 30
0.0
 11
292.191581
 21
20.543057
 31
0.0
  0
LINE
  5
1253
100
AcDbEntity
  8
90000_FRAME
370
    13
  6
CONTINUOUS
 62
     7
100
AcDbLine
 10
290.766317
 20
22.062709
 30
0.0
 11
290.889022
 21
22.279802
 31
0.0
  0
LINE
  5
1254
100
AcDbEntity
  8
90000_FRAME
370
    13
  6
CONTINUOUS
 62
     7
100
AcDbLine
 10
294.268124
 20
22.638478
 30
0.0
 11
294.268124
 21
19.721878
 31
0.0
  0
LINE
  5
1255
100
AcDbEntity
  8
90000_FRAME
370
    13
  6
CONTINUOUS
 62
     7
100
AcDbLine
 10
295.797215
 20
21.48694
 30
0.0
 11
296.929875
 21
21.48694
 31
0.0
  0
LINE
  5
1256
100
AcDbEntity
  8
90000_FRAME
370
    13
  6
CONTINUOUS
 62
     7
100
AcDbLine
 10
301.233982
 20
22.629039
 30
0.0
 11
301.233982
 21
19.734149
 31
0.0
  0
LINE
  5
1257
100
AcDbEntity
  8
90000_FRAME
370
    13
  6
CONTINUOUS
 62
     7
100
AcDbLine
 10
308.220434
 20
19.653464
 30
0.0
 11
307.941044
 21
19.683668
 31
0.0
  0
LINE
  5
1258
100
AcDbEntity
  8
90000_FRAME
370
    13
  6
CONTINUOUS
 62
     7
100
AcDbLine
 10
309.919424
 20
20.740817
 30
0.0
 11
309.919424
 21
20.40857
 31
0.0
  0
LINE
  5
1259
100
AcDbEntity
  8
90000_FRAME
370
    13
  6
CONTINUOUS
 62
     7
100
AcDbLine
 10
308.492272
 20
22.092458
 30
0.0
 11
308.439415
 21
21.941437
 31
0.0
  0
LINE
  5
125A
100
AcDbEntity
  8
90000_FRAME
370
    13
  6
CONTINUOUS
 62
     7
100
AcDbLine
 10
316.722934
 20
22.092458
 30
0.0
 11
316.564362
 21
22.122662
 31
0.0
  0
LINE
  5
125B
100
AcDbEntity
  8
90000_FRAME
370
    13
  6
CONTINUOUS
 62
     7
100
AcDbLine
 10
308.182678
 20
22.575726
 30
0.0
 11
308.537578
 21
22.658788
 31
0.0
  0
LINE
  5
125C
100
AcDbEntity
  8
90000_FRAME
370
    13
  6
CONTINUOUS
 62
     7
100
AcDbLine
 10
307.639002
 20
21.601639
 30
0.0
 11
307.639002
 21
21.941437
 31
0.0
  0
LINE
  5
125D
100
AcDbEntity
  8
90000_FRAME
370
    13
  6
CONTINUOUS
 62
     7
100
AcDbLine
 10
315.393946
 20
19.84224
 30
0.0
 11
315.076802
 21
20.159385
 31
0.0
  0
LINE
  5
125E
100
AcDbEntity
  8
90000_FRAME
370
    13
  6
CONTINUOUS
 62
     7
100
AcDbLine
 10
316.239666
 20
21.360004
 30
0.0
 11
317.462938
 21
21.360004
 31
0.0
  0
LINE
  5
125F
100
AcDbEntity
  8
90000_FRAME
370
    13
  6
CONTINUOUS
 62
     7
100
AcDbLine
 10
305.207558
 20
19.728974
 30
0.0
 11
304.603473
 21
19.728974
 31
0.0
  0
LINE
  5
1260
100
AcDbEntity
  8
90000_FRAME
370
    13
  6
CONTINUOUS
 62
     7
100
AcDbLine
 10
308.839621
 20
20.166936
 30
0.0
 11
309.051051
 21
20.302855
 31
0.0
  0
LINE
  5
1261
100
AcDbEntity
  8
90000_FRAME
370
    13
  6
CONTINUOUS
 62
     7
100
AcDbLine
 10
301.941895
 20
19.726598
 30
0.0
 11
301.949446
 21
22.626207
 31
0.0
  0
LINE
  5
1262
100
AcDbEntity
  8
90000_FRAME
370
    13
  6
CONTINUOUS
 62
     7
100
AcDbLine
 10
302.742308
 20
20.255172
 30
0.0
 11
304.1015
 21
20.255172
 31
0.0
  0
LINE
  5
1263
100
AcDbEntity
  8
90000_FRAME
370
    13
  6
CONTINUOUS
 62
     7
100
AcDbLine
 10
302.75741
 20
22.127837
 30
0.0
 11
302.75741
 21
21.455792
 31
0.0
  0
LINE
  5
1264
100
AcDbEntity
  8
90000_FRAME
370
    13
  6
CONTINUOUS
 62
     7
100
AcDbLine
 10
301.233982
 20
19.734149
 30
0.0
 11
300.439233
 21
19.734149
 31
0.0
  0
LINE
  5
1265
100
AcDbEntity
  8
90000_FRAME
370
    13
  6
CONTINUOUS
 62
     7
100
AcDbLine
 10
315.605376
 20
22.613481
 30
0.0
 11
315.937623
 21
22.726747
 31
0.0
  0
LINE
  5
1266
100
AcDbEntity
  8
90000_FRAME
370
    13
  6
CONTINUOUS
 62
     7
100
AcDbLine
 10
313.513731
 20
22.67389
 30
0.0
 11
314.699248
 21
19.676117
 31
0.0
  0
LINE
  5
1267
100
AcDbEntity
  8
90000_FRAME
370
    13
  6
CONTINUOUS
 62
     7
100
AcDbLine
 10
315.899868
 20
21.994294
 30
0.0
 11
315.680887
 21
21.745109
 31
0.0
  0
LINE
  5
1268
100
AcDbEntity
  8
90000_FRAME
370
    13
  6
CONTINUOUS
 62
     7
100
AcDbLine
 10
292.76735
 20
22.562967
 30
0.0
 11
292.76735
 21
22.034392
 31
0.0
  0
LINE
  5
1269
100
AcDbEntity
  8
90000_FRAME
370
    13
  6
CONTINUOUS
 62
     7
100
AcDbLine
 10
291.54974
 20
21.826738
 30
0.0
 11
291.672445
 21
21.722911
 31
0.0
  0
LINE
  5
126A
100
AcDbEntity
  8
90000_FRAME
370
    13
  6
CONTINUOUS
 62
     7
100
AcDbLine
 10
292.739033
 20
19.94841
 30
0.0
 11
292.493623
 21
19.778511
 31
0.0
  0
LINE
  5
126B
100
AcDbEntity
  8
90000_FRAME
370
    13
  6
CONTINUOUS
 62
     7
100
AcDbLine
 10
291.181626
 20
20.231575
 30
0.0
 11
291.54974
 21
20.174942
 31
0.0
  0
LINE
  5
126C
100
AcDbEntity
  8
90000_FRAME
370
    13
  6
CONTINUOUS
 62
     7
100
AcDbLine
 10
291.266575
 20
20.996121
 30
0.0
 11
291.030604
 21
21.156581
 31
0.0
  0
LINE
  5
126D
100
AcDbEntity
  8
90000_FRAME
370
    13
  6
CONTINUOUS
 62
     7
100
AcDbLine
 10
291.417597
 20
22.629039
 30
0.0
 11
291.663006
 21
22.666794
 31
0.0
  0
LINE
  5
126E
100
AcDbEntity
  8
90000_FRAME
370
    13
  6
CONTINUOUS
 62
     7
100
AcDbLine
 10
295.004353
 20
22.638478
 30
0.0
 11
297.109213
 21
22.638478
 31
0.0
  0
LINE
  5
126F
100
AcDbEntity
  8
90000_FRAME
370
    13
  6
CONTINUOUS
 62
     7
100
AcDbLine
 10
295.797215
 20
20.977243
 30
0.0
 11
295.797215
 21
20.288208
 31
0.0
  0
LINE
  5
1270
100
AcDbEntity
  8
90000_FRAME
370
    13
  6
CONTINUOUS
 62
     7
100
AcDbLine
 10
312.720869
 20
22.67389
 30
0.0
 11
313.513731
 21
22.67389
 31
0.0
  0
LINE
  5
1271
100
AcDbEntity
  8
90000_FRAME
370
    13
  6
CONTINUOUS
 62
     7
100
AcDbLine
 10
309.572075
 20
19.857342
 30
0.0
 11
309.217174
 21
19.69877
 31
0.0
  0
LINE
  5
1272
100
AcDbEntity
  8
90000_FRAME
370
    13
  6
CONTINUOUS
 62
     7
100
AcDbLine
 10
309.375747
 20
21.375107
 30
0.0
 11
309.662687
 21
21.171228
 31
0.0
  0
LINE
  5
1273
100
AcDbEntity
  8
90000_FRAME
370
    13
  6
CONTINUOUS
 62
     7
100
AcDbLine
 10
309.33044
 20
22.145315
 30
0.0
 11
309.020847
 21
22.198173
 31
0.0
  0
LINE
  5
1274
100
AcDbEntity
  8
90000_FRAME
370
    13
  6
CONTINUOUS
 62
     7
100
AcDbLine
 10
312.335765
 20
19.661015
 30
0.0
 11
311.588209
 21
19.661015
 31
0.0
  0
LINE
  5
1275
100
AcDbEntity
  8
90000_FRAME
370
    13
  6
CONTINUOUS
 62
     7
100
AcDbLine
 10
313.619446
 20
20.370815
 30
0.0
 11
312.577399
 21
20.370815
 31
0.0
  0
LINE
  5
1276
100
AcDbEntity
  8
90000_FRAME
370
    13
  6
CONTINUOUS
 62
     7
100
AcDbLine
 10
315.794153
 20
19.69877
 30
0.0
 11
315.393946
 21
19.84224
 31
0.0
  0
LINE
  5
1277
100
AcDbEntity
  8
90000_FRAME
370
    13
  6
CONTINUOUS
 62
     7
100
AcDbLine
 10
308.311046
 20
20.19714
 30
0.0
 11
308.54513
 21
20.166936
 31
0.0
  0
LINE
  5
1278
100
AcDbEntity
  8
90000_FRAME
370
    13
  6
CONTINUOUS
 62
     7
100
AcDbLine
 10
304.603473
 20
19.728974
 30
0.0
 11
304.603473
 21
22.643686
 31
0.0
  0
LINE
  5
1279
100
AcDbEntity
  8
90000_FRAME
370
    13
  6
CONTINUOUS
 62
     7
100
AcDbLine
 10
299.064939
 20
19.696393
 30
0.0
 11
298.256975
 21
21.644569
 31
0.0
  0
LINE
  5
127A
100
AcDbEntity
  8
90000_FRAME
370
    13
  6
CONTINUOUS
 62
     7
100
AcDbLine
 10
305.554907
 20
22.643686
 30
0.0
 11
306.513893
 21
20.748368
 31
0.0
  0
LINE
  5
127B
100
AcDbEntity
  8
90000_FRAME
370
    13
  6
CONTINUOUS
 62
     7
100
AcDbLine
 10
298.256975
 20
19.734149
 30
0.0
 11
297.637787
 21
19.734149
 31
0.0
  0
LINE
  5
127C
100
AcDbEntity
  8
90000_FRAME
370
    13
  6
CONTINUOUS
 62
     7
100
AcDbLine
 10
316.164155
 20
22.122662
 30
0.0
 11
315.899868
 21
21.994294
 31
0.0
  0
LINE
  5
127D
100
AcDbEntity
  8
90000_FRAME
370
    13
  6
CONTINUOUS
 62
     7
100
AcDbLine
 10
316.821098
 20
22.726747
 30
0.0
 11
317.138243
 21
22.67389
 31
0.0
  0
LINE
  5
127E
100
AcDbEntity
  8
90000_FRAME
370
    13
  6
CONTINUOUS
 62
     7
100
AcDbLine
 10
300.224027
 20
22.629039
 30
0.0
 11
301.233982
 21
22.629039
 31
0.0
  0
TEXT
  5
127F
100
AcDbEntity
  8
90000_FRAME
370
    13
  6
CONTINUOUS
 62
     7
100
AcDbText
 10
325.795961
 20
29.603441
 30
0.0
 40
2.755906
  1
6SL3120-1TE32-0AA4
  7
SEACAD_TXT_SHX
 11
325.795961
 21
32.359346
 31
0.0
100
AcDbText
 73
     3
  0
TEXT
  5
1280
100
AcDbEntity
  8
90000_FRAME
370
    13
  6
CONTINUOUS
 62
     7
100
AcDbText
 10
302.664768
 20
37.004879
 30
0.0
 40
2.5
  1
?OPTIONEN?
  7
SEACAD_TXT_SHX
 11
302.664768
 21
39.504879
 31
0.0
100
AcDbText
 73
     3
  0
TEXT
  5
1281
100
AcDbEntity
  8
90000_FRAME
370
    13
  6
CONTINUOUS
 62
     7
100
AcDbText
 10
302.790289
 20
27.866548
 30
0.0
 40
1.181102
  1
Wed Mar 07 14:12:03 CET 2018
  7
SEACAD_TXT_SHX
 11
302.790289
 21
29.047651
 31
0.0
100
AcDbText
 73
     3
  0
TEXT
  5
1282
100
AcDbEntity
  8
90000_FRAME
370
    13
  6
CONTINUOUS
 62
     7
100
AcDbText
 10
325.855322
 20
6.504286
 30
0.0
 40
1.2
  1
?APPLICATION?
  7
SEACAD_TXT_SHX
 11
325.855322
 21
7.704286
 31
0.0
100
AcDbText
 73
     3
  0
TEXT
  5
1283
100
AcDbEntity
  8
90000_FRAME
370
    13
  6
CONTINUOUS
 62
     7
100
AcDbText
 10
285.707836
 20
32.188655
 30
0.0
 40
1.181102
  1
Unit
  7
SEACAD_TXT_SHX
 11
285.707836
 21
33.369758
 31
0.0
100
AcDbText
 73
     3
  0
TEXT
  5
1284
100
AcDbEntity
  8
90000_FRAME
370
    13
  6
CONTINUOUS
 62
     7
100
AcDbText
 10
303.317761
 20
32.133704
 30
0.0
 40
1.181102
  1
mm [in]
  7
SEACAD_TXT_SHX
 11
303.317761
 21
33.314806
 31
0.0
100
AcDbText
 73
     3
  0
TEXT
  5
1285
100
AcDbEntity
  8
90000_FRAME
370
    13
  6
CONTINUOUS
 62
     7
100
AcDbText
 10
285.529624
 20
27.7949
 30
0.0
 40
1.181102
  1
Date
  7
SEACAD_TXT_SHX
 11
285.529624
 21
28.976003
 31
0.0
100
AcDbText
 73
     3
  0
LINE
  5
1286
100
AcDbEntity
  8
90000_FRAME
370
    13
  6
CONTINUOUS
 62
     7
100
AcDbLine
 10
324.34
 20
34.700004
 30
0.0
 11
415.0
 21
34.700004
 31
0.0
  0
TEXT
  5
1287
100
AcDbEntity
  8
90000_FRAME
370
    13
  6
CONTINUOUS
 62
     7
100
AcDbText
 10
302.083419
 20
45.137047
 30
0.0
 40
2.755906
  1
?ANGEBOT?
  7
SEACAD_TXT_SHX
 11
302.083419
 21
47.892953
 31
0.0
100
AcDbText
 73
     3
  0
LINE
  5
1288
100
AcDbEntity
  8
90000_FRAME
370
    13
  6
CONTINUOUS
 62
     7
100
AcDbLine
 10
283.28854
 20
49.731822
 30
0.0
 11
415.0
 21
49.731822
 31
0.0
  0
LINE
  5
1289
100
AcDbEntity
  8
90000_FRAME
370
    13
  6
CONTINUOUS
 62
     7
100
AcDbLine
 10
265.65
 20
5.0
 30
0.0
 11
265.65
 21
10.0
 31
0.0
  0
TEXT
  5
128A
100
AcDbEntity
  8
90000_FRAME
370
    13
  6
CONTINUOUS
 62
     7
100
AcDbText
 10
241.089444
 20
5.720043
 30
0.0
 40
3.5
  1
5
  7
SEACAD_TXT_SHX
 11
241.089444
 21
9.220043
 31
0.0
100
AcDbText
 73
     3
  0
TEXT
  5
128B
100
AcDbEntity
  8
90000_FRAME
370
    13
  6
CONTINUOUS
 62
     7
100
AcDbText
 10
410.954663
 20
76.867779
 30
0.0
 40
3.5
  1
E
  7
SEACAD_TXT_SHX
 11
410.954663
 21
80.367779
 31
0.0
100
AcDbText
 73
     3
  0
LINE
  5
128C
100
AcDbEntity
  8
90000_FRAME
370
    13
  6
CONTINUOUS
 62
     7
100
AcDbLine
 10
410.0
 20
56.15
 30
0.0
 11
415.0
 21
56.15
 31
0.0
  0
TEXT
  5
128D
100
AcDbEntity
  8
90000_FRAME
370
    13
  6
CONTINUOUS
 62
     7
100
AcDbText
 10
291.024635
 20
10.431203
 30
0.0
 40
1.2
  1
?GEWICHT?
  7
SEACAD_TXT_SHX
 11
291.024635
 21
11.631203
 31
0.0
100
AcDbText
 73
     3
  0
TEXT
  5
128E
100
AcDbEntity
  8
90000_FRAME
370
    13
  6
CONTINUOUS
 62
     7
100
AcDbText
 10
325.930979
 20
20.028664
 30
0.0
 40
2.755906
  1
?KAG?
  7
SEACAD_TXT_SHX
 11
325.930979
 21
22.78457
 31
0.0
100
AcDbText
 73
     3
  0
ENDSEC
  0
SECTION
  2
OBJECTS
  0
DICTIONARY
  5
10CF
100
AcDbDictionary
280
     0
281
     1
  3
ACAD_GROUP
350
10D0
  3
ACAD_MLINESTYLE
350
10D1
  0
DICTIONARY
  5
10D0
102
{ACAD_REACTORS
330
10CF
102
}
100
AcDbDictionary
280
     0
281
     1
  0
DICTIONARY
  5
10D1
102
{ACAD_REACTORS
330
10CF
102
}
100
AcDbDictionary
280
     0
281
     1
  3
Standard
350
10D2
  0
MLINESTYLE
  5
10D2
102
{ACAD_REACTORS
330
10D1
102
}
100
AcDbMlineStyle
  2
Standard
 70
     0
  3

 62
     0
 51
90.0
 52
90.0
 71
     2
 49
0.5
 62
   256
  6
ByLayer
 49
-0.5
 62
   256
  6
ByLayer
  0
ENDSEC
  0
EOF
