ISO-10303-21;
HEADER;
FILE_DESCRIPTION (( 'STEP AP203' ),
    '1' );
FILE_NAME ('Êðûøêà íà óãîë âåðòèêàëüíûé âíåøíèé CDV 90_38345.STEP',
    '2012-11-09T08:45:10',
    ( 'Àñååâ' ),
    ( '' ),
    'SwSTEP 2.0',
    'SolidWorks 2012',
    '' );
FILE_SCHEMA (( 'CONFIG_CONTROL_DESIGN' ));
ENDSEC;

DATA;
#1 = ADVANCED_FACE ( 'NONE', ( #84, #216 ), #279, .F. ) ;
#2 = ADVANCED_FACE ( 'NONE', ( #82 ), #423, .F. ) ;
#3 = ADVANCED_FACE ( 'NONE', ( #252 ), #430, .T. ) ;
#4 = ADVANCED_FACE ( 'NONE', ( #83 ), #418, .T. ) ;
#5 = ADVANCED_FACE ( 'NONE', ( #277 ), #428, .T. ) ;
#6 = ADVANCED_FACE ( 'NONE', ( #276, #255 ), #253, .F. ) ;
#7 = ADVANCED_FACE ( 'NONE', ( #280, #275, #278 ), #334, .T. ) ;
#8 = ADVANCED_FACE ( 'NONE', ( #283 ), #327, .T. ) ;
#9 = ADVANCED_FACE ( 'NONE', ( #282 ), #318, .T. ) ;
#10 = ADVANCED_FACE ( 'NONE', ( #274 ), #303, .F. ) ;
#11 = ADVANCED_FACE ( 'NONE', ( #273, #260, #256 ), #296, .F. ) ;
#12 = ADVANCED_FACE ( 'NONE', ( #262 ), #292, .F. ) ;
#13 = PRODUCT ( 'Êðûøêà íà óãîë âåðòèêàëüíûé âíåøíèé CDV 90_38345', 'Êðûøêà íà óãîë âåðòèêàëüíûé âíåøíèé CDV 90_38345', '', ( #391 ) ) ;
#14 = PERSON ( 'UNSPECIFIED', 'UNSPECIFIED', 'UNSPECIFIED', ('UNSPECIFIED'), ('UNSPECIFIED'), ('UNSPECIFIED') ) ;
#15 = UNCERTAINTY_MEASURE_WITH_UNIT (LENGTH_MEASURE( 1.000000000000000100E-005 ), #398, 'distance_accuracy_value', 'NONE');
#16 = ADVANCED_BREP_SHAPE_REPRESENTATION ( '¦¨v°úð ýð ºóþû òõ¨ªøúðû¹ývù òýõ°ýøù CDV 90_38345', ( #17, #73 ), #74 ) ;
#17 = MANIFOLD_SOLID_BREP ( 'Âûðåç-Âûòÿíóòü1', #214 ) ;
#18 = AXIS2_PLACEMENT_3D ( 'NONE', #332, #323, #321 ) ;
#19 = AXIS2_PLACEMENT_3D ( 'NONE', #363, #335, #329 ) ;
#20 = AXIS2_PLACEMENT_3D ( 'NONE', #421, #429, #416 ) ;
#21 = AXIS2_PLACEMENT_3D ( 'NONE', #427, #432, #425 ) ;
#22 = AXIS2_PLACEMENT_3D ( 'NONE', #435, #424, #420 ) ;
#23 = AXIS2_PLACEMENT_3D ( 'NONE', #422, #436, #426 ) ;
#24 = AXIS2_PLACEMENT_3D ( 'NONE', #367, #315, #311 ) ;
#25 = AXIS2_PLACEMENT_3D ( 'NONE', #434, #417, #437 ) ;
#26 = AXIS2_PLACEMENT_3D ( 'NONE', #433, #419, #431 ) ;
#27 = EDGE_CURVE ( 'NONE', #153, #145, #259, .T. ) ;
#28 = EDGE_CURVE ( 'NONE', #153, #155, #258, .T. ) ;
#29 = EDGE_CURVE ( 'NONE', #129, #129, #257, .T. ) ;
#30 = PRODUCT_RELATED_PRODUCT_CATEGORY ( 'detail', '', ( #13 ) ) ;
#31 = EDGE_CURVE ( 'NONE', #132, #132, #263, .T. ) ;
#32 = CC_DESIGN_SECURITY_CLASSIFICATION ( #61, ( #66 ) ) ;
#33 = EDGE_CURVE ( 'NONE', #152, #145, #265, .T. ) ;
#34 = EDGE_CURVE ( 'NONE', #143, #151, #267, .T. ) ;
#35 = EDGE_CURVE ( 'NONE', #147, #152, #264, .T. ) ;
#36 = CC_DESIGN_APPROVAL ( #50, ( #61 ) ) ;
#37 = EDGE_CURVE ( 'NONE', #147, #153, #268, .T. ) ;
#38 = EDGE_CURVE ( 'NONE', #156, #152, #226, .T. ) ;
#39 = EDGE_CURVE ( 'NONE', #154, #156, #237, .T. ) ;
#40 = EDGE_CURVE ( 'NONE', #154, #147, #269, .T. ) ;
#41 = EDGE_CURVE ( 'NONE', #142, #156, #221, .T. ) ;
#42 = EDGE_CURVE ( 'NONE', #148, #142, #223, .T. ) ;
#43 = EDGE_CURVE ( 'NONE', #148, #154, #231, .T. ) ;
#44 = EDGE_CURVE ( 'NONE', #142, #157, #235, .T. ) ;
#45 = EDGE_CURVE ( 'NONE', #144, #157, #228, .T. ) ;
#46 = EDGE_CURVE ( 'NONE', #148, #144, #233, .T. ) ;
#47 = EDGE_CURVE ( 'NONE', #131, #131, #220, .T. ) ;
#48 = EDGE_CURVE ( 'NONE', #124, #124, #238, .T. ) ;
#49 = EDGE_CURVE ( 'NONE', #157, #146, #281, .T. ) ;
#50 = APPROVAL ( #405, 'UNSPECIFIED' ) ;
#51 = EDGE_CURVE ( 'NONE', #144, #143, #271, .T. ) ;
#52 = EDGE_CURVE ( 'NONE', #155, #149, #241, .T. ) ;
#53 = EDGE_CURVE ( 'NONE', #155, #151, #240, .T. ) ;
#54 = EDGE_CURVE ( 'NONE', #146, #150, #230, .T. ) ;
#55 = EDGE_CURVE ( 'NONE', #145, #149, #247, .T. ) ;
#56 = EDGE_CURVE ( 'NONE', #143, #146, #244, .T. ) ;
#57 = CC_DESIGN_DATE_AND_TIME_ASSIGNMENT ( #95, #381, ( #61 ) ) ;
#58 = EDGE_CURVE ( 'NONE', #151, #150, #251, .T. ) ;
#59 = EDGE_CURVE ( 'NONE', #149, #150, #250, .T. ) ;
#60 = CC_DESIGN_PERSON_AND_ORGANIZATION_ASSIGNMENT ( #99, #404, ( #61 ) ) ;
#61 = SECURITY_CLASSIFICATION ( '', '', #382 ) ;
#62 = CC_DESIGN_PERSON_AND_ORGANIZATION_ASSIGNMENT ( #100, #383, ( #66 ) ) ;
#63 = CC_DESIGN_PERSON_AND_ORGANIZATION_ASSIGNMENT ( #101, #384, ( #66 ) ) ;
#64 = CC_DESIGN_APPROVAL ( #65, ( #66 ) ) ;
#65 = APPROVAL ( #385, 'UNSPECIFIED' ) ;
#66 = PRODUCT_DEFINITION_FORMATION_WITH_SPECIFIED_SOURCE ( 'ANY', '', #13, .NOT_KNOWN. ) ;
#67 = CC_DESIGN_DATE_AND_TIME_ASSIGNMENT ( #110, #413, ( #71 ) ) ;
#68 = CC_DESIGN_PERSON_AND_ORGANIZATION_ASSIGNMENT ( #114, #374, ( #71 ) ) ;
#69 = CC_DESIGN_APPROVAL ( #70, ( #71 ) ) ;
#70 = APPROVAL ( #376, 'UNSPECIFIED' ) ;
#71 = PRODUCT_DEFINITION ( 'UNKNOWN', '', #66, #286 ) ;
#72 = CC_DESIGN_PERSON_AND_ORGANIZATION_ASSIGNMENT ( #122, #409, ( #13 ) ) ;
#73 = AXIS2_PLACEMENT_3D ( 'NONE', #389, #412, #415 ) ;
#74 =( GEOMETRIC_REPRESENTATION_CONTEXT ( 3 ) GLOBAL_UNCERTAINTY_ASSIGNED_CONTEXT ( ( #15 ) ) GLOBAL_UNIT_ASSIGNED_CONTEXT ( ( #398, #397, #399 ) ) REPRESENTATION_CONTEXT ( 'NONE', 'WORKASPACE' ) );
#75 = AXIS2_PLACEMENT_3D ( 'NONE', #317, #316, #314 ) ;
#76 = AXIS2_PLACEMENT_3D ( 'NONE', #322, #320, #319 ) ;
#77 = AXIS2_PLACEMENT_3D ( 'NONE', #342, #341, #340 ) ;
#78 = AXIS2_PLACEMENT_3D ( 'NONE', #293, #371, #370 ) ;
#79 = AXIS2_PLACEMENT_3D ( 'NONE', #359, #358, #357 ) ;
#80 = AXIS2_PLACEMENT_3D ( 'NONE', #299, #347, #287 ) ;
#81 = AXIS2_PLACEMENT_3D ( 'NONE', #324, #297, #301 ) ;
#82 = FACE_OUTER_BOUND ( 'NONE', #128, .T. ) ;
#83 = FACE_OUTER_BOUND ( 'NONE', #86, .T. ) ;
#84 = FACE_OUTER_BOUND ( 'NONE', #106, .T. ) ;
#85 = EDGE_LOOP ( 'NONE', ( #181, #184, #183, #187 ) ) ;
#86 = EDGE_LOOP ( 'NONE', ( #191, #196, #195, #197, #202, #201, #199, #198 ) ) ;
#87 = EDGE_LOOP ( 'NONE', ( #205 ) ) ;
#88 = APPROVAL_DATE_TIME ( #89, #50 ) ;
#89 = DATE_AND_TIME ( #90, #91 ) ;
#90 = CALENDAR_DATE ( 2012, 9, 11 ) ;
#91 = LOCAL_TIME ( 12, 45, 10.00000000000000000, #92 ) ;
#92 = COORDINATED_UNIVERSAL_TIME_OFFSET ( 4, 0, .AHEAD. ) ;
#93 = APPROVAL_PERSON_ORGANIZATION ( #94, #50, #390 ) ;
#94 = PERSON_AND_ORGANIZATION ( #14, #123 ) ;
#95 = DATE_AND_TIME ( #96, #97 ) ;
#96 = CALENDAR_DATE ( 2012, 9, 11 ) ;
#97 = LOCAL_TIME ( 12, 45, 10.00000000000000000, #98 ) ;
#98 = COORDINATED_UNIVERSAL_TIME_OFFSET ( 4, 0, .AHEAD. ) ;
#99 = PERSON_AND_ORGANIZATION ( #14, #123 ) ;
#100 = PERSON_AND_ORGANIZATION ( #14, #123 ) ;
#101 = PERSON_AND_ORGANIZATION ( #14, #123 ) ;
#102 = APPROVAL_DATE_TIME ( #103, #65 ) ;
#103 = DATE_AND_TIME ( #104, #105 ) ;
#104 = CALENDAR_DATE ( 2012, 9, 11 ) ;
#105 = LOCAL_TIME ( 12, 45, 10.00000000000000000, #107 ) ;
#106 = EDGE_LOOP ( 'NONE', ( #200 ) ) ;
#107 = COORDINATED_UNIVERSAL_TIME_OFFSET ( 4, 0, .AHEAD. ) ;
#108 = APPROVAL_PERSON_ORGANIZATION ( #109, #65, #387 ) ;
#109 = PERSON_AND_ORGANIZATION ( #14, #123 ) ;
#110 = DATE_AND_TIME ( #111, #112 ) ;
#111 = CALENDAR_DATE ( 2012, 9, 11 ) ;
#112 = LOCAL_TIME ( 12, 45, 10.00000000000000000, #113 ) ;
#113 = COORDINATED_UNIVERSAL_TIME_OFFSET ( 4, 0, .AHEAD. ) ;
#114 = PERSON_AND_ORGANIZATION ( #14, #123 ) ;
#115 = APPROVAL_DATE_TIME ( #116, #70 ) ;
#116 = DATE_AND_TIME ( #117, #118 ) ;
#117 = CALENDAR_DATE ( 2012, 9, 11 ) ;
#118 = LOCAL_TIME ( 12, 45, 10.00000000000000000, #119 ) ;
#119 = COORDINATED_UNIVERSAL_TIME_OFFSET ( 4, 0, .AHEAD. ) ;
#120 = APPROVAL_PERSON_ORGANIZATION ( #121, #70, #375 ) ;
#121 = PERSON_AND_ORGANIZATION ( #14, #123 ) ;
#122 = PERSON_AND_ORGANIZATION ( #14, #123 ) ;
#123 = ORGANIZATION ( 'UNSPECIFIED', 'UNSPECIFIED', '' ) ;
#124 = VERTEX_POINT ( 'NONE', #414 ) ;
#125 = EDGE_LOOP ( 'NONE', ( #204 ) ) ;
#126 = EDGE_LOOP ( 'NONE', ( #159, #169, #206, #207 ) ) ;
#127 = SHAPE_DEFINITION_REPRESENTATION ( #285, #16 ) ;
#128 = EDGE_LOOP ( 'NONE', ( #186, #188, #185, #210, #194, #189, #190, #193 ) ) ;
#129 = VERTEX_POINT ( 'NONE', #408 ) ;
#130 = EDGE_LOOP ( 'NONE', ( #182 ) ) ;
#131 = VERTEX_POINT ( 'NONE', #378 ) ;
#132 = VERTEX_POINT ( 'NONE', #379 ) ;
#133 = EDGE_LOOP ( 'NONE', ( #176, #178, #177, #180 ) ) ;
#134 = EDGE_LOOP ( 'NONE', ( #162, #160, #161, #158 ) ) ;
#135 = EDGE_LOOP ( 'NONE', ( #208 ) ) ;
#136 = EDGE_LOOP ( 'NONE', ( #213, #212, #211, #219 ) ) ;
#137 = EDGE_LOOP ( 'NONE', ( #203 ) ) ;
#138 = EDGE_LOOP ( 'NONE', ( #164, #165, #166, #167 ) ) ;
#139 = EDGE_LOOP ( 'NONE', ( #192, #173, #174, #175 ) ) ;
#140 = EDGE_LOOP ( 'NONE', ( #163 ) ) ;
#141 = EDGE_LOOP ( 'NONE', ( #179 ) ) ;
#142 = VERTEX_POINT ( 'NONE', #302 ) ;
#143 = VERTEX_POINT ( 'NONE', #380 ) ;
#144 = VERTEX_POINT ( 'NONE', #410 ) ;
#145 = VERTEX_POINT ( 'NONE', #392 ) ;
#146 = VERTEX_POINT ( 'NONE', #400 ) ;
#147 = VERTEX_POINT ( 'NONE', #411 ) ;
#148 = VERTEX_POINT ( 'NONE', #395 ) ;
#149 = VERTEX_POINT ( 'NONE', #306 ) ;
#150 = VERTEX_POINT ( 'NONE', #377 ) ;
#151 = VERTEX_POINT ( 'NONE', #403 ) ;
#152 = VERTEX_POINT ( 'NONE', #386 ) ;
#153 = VERTEX_POINT ( 'NONE', #394 ) ;
#154 = VERTEX_POINT ( 'NONE', #393 ) ;
#155 = VERTEX_POINT ( 'NONE', #401 ) ;
#156 = VERTEX_POINT ( 'NONE', #372 ) ;
#157 = VERTEX_POINT ( 'NONE', #373 ) ;
#158 = ORIENTED_EDGE ( 'NONE', *, *, #56, .T. ) ;
#159 = ORIENTED_EDGE ( 'NONE', *, *, #59, .F. ) ;
#160 = ORIENTED_EDGE ( 'NONE', *, *, #58, .F. ) ;
#161 = ORIENTED_EDGE ( 'NONE', *, *, #34, .F. ) ;
#162 = ORIENTED_EDGE ( 'NONE', *, *, #54, .T. ) ;
#163 = ORIENTED_EDGE ( 'NONE', *, *, #31, .F. ) ;
#164 = ORIENTED_EDGE ( 'NONE', *, *, #33, .F. ) ;
#165 = ORIENTED_EDGE ( 'NONE', *, *, #35, .F. ) ;
#166 = ORIENTED_EDGE ( 'NONE', *, *, #37, .T. ) ;
#167 = ORIENTED_EDGE ( 'NONE', *, *, #27, .T. ) ;
#168 = ORIENTED_EDGE ( 'NONE', *, *, #38, .F. ) ;
#169 = ORIENTED_EDGE ( 'NONE', *, *, #52, .F. ) ;
#170 = ORIENTED_EDGE ( 'NONE', *, *, #39, .F. ) ;
#171 = ORIENTED_EDGE ( 'NONE', *, *, #40, .T. ) ;
#172 = ORIENTED_EDGE ( 'NONE', *, *, #35, .T. ) ;
#173 = ORIENTED_EDGE ( 'NONE', *, *, #42, .F. ) ;
#174 = ORIENTED_EDGE ( 'NONE', *, *, #43, .T. ) ;
#175 = ORIENTED_EDGE ( 'NONE', *, *, #39, .T. ) ;
#176 = ORIENTED_EDGE ( 'NONE', *, *, #44, .T. ) ;
#177 = ORIENTED_EDGE ( 'NONE', *, *, #46, .F. ) ;
#178 = ORIENTED_EDGE ( 'NONE', *, *, #45, .F. ) ;
#179 = ORIENTED_EDGE ( 'NONE', *, *, #47, .F. ) ;
#180 = ORIENTED_EDGE ( 'NONE', *, *, #42, .T. ) ;
#181 = ORIENTED_EDGE ( 'NONE', *, *, #49, .T. ) ;
#182 = ORIENTED_EDGE ( 'NONE', *, *, #48, .F. ) ;
#183 = ORIENTED_EDGE ( 'NONE', *, *, #51, .F. ) ;
#184 = ORIENTED_EDGE ( 'NONE', *, *, #56, .F. ) ;
#185 = ORIENTED_EDGE ( 'NONE', *, *, #28, .F. ) ;
#186 = ORIENTED_EDGE ( 'NONE', *, *, #34, .T. ) ;
#187 = ORIENTED_EDGE ( 'NONE', *, *, #45, .T. ) ;
#188 = ORIENTED_EDGE ( 'NONE', *, *, #53, .F. ) ;
#189 = ORIENTED_EDGE ( 'NONE', *, *, #43, .F. ) ;
#190 = ORIENTED_EDGE ( 'NONE', *, *, #46, .T. ) ;
#191 = ORIENTED_EDGE ( 'NONE', *, *, #54, .F. ) ;
#192 = ORIENTED_EDGE ( 'NONE', *, *, #41, .F. ) ;
#193 = ORIENTED_EDGE ( 'NONE', *, *, #51, .T. ) ;
#194 = ORIENTED_EDGE ( 'NONE', *, *, #40, .F. ) ;
#195 = ORIENTED_EDGE ( 'NONE', *, *, #44, .F. ) ;
#196 = ORIENTED_EDGE ( 'NONE', *, *, #49, .F. ) ;
#197 = ORIENTED_EDGE ( 'NONE', *, *, #41, .T. ) ;
#198 = ORIENTED_EDGE ( 'NONE', *, *, #59, .T. ) ;
#199 = ORIENTED_EDGE ( 'NONE', *, *, #55, .T. ) ;
#200 = ORIENTED_EDGE ( 'NONE', *, *, #31, .T. ) ;
#201 = ORIENTED_EDGE ( 'NONE', *, *, #33, .T. ) ;
#202 = ORIENTED_EDGE ( 'NONE', *, *, #38, .T. ) ;
#203 = ORIENTED_EDGE ( 'NONE', *, *, #29, .T. ) ;
#204 = ORIENTED_EDGE ( 'NONE', *, *, #48, .T. ) ;
#205 = ORIENTED_EDGE ( 'NONE', *, *, #47, .T. ) ;
#206 = ORIENTED_EDGE ( 'NONE', *, *, #53, .T. ) ;
#207 = ORIENTED_EDGE ( 'NONE', *, *, #58, .T. ) ;
#208 = ORIENTED_EDGE ( 'NONE', *, *, #29, .F. ) ;
#209 = EDGE_LOOP ( 'NONE', ( #168, #170, #171, #172 ) ) ;
#210 = ORIENTED_EDGE ( 'NONE', *, *, #37, .F. ) ;
#211 = ORIENTED_EDGE ( 'NONE', *, *, #28, .T. ) ;
#212 = ORIENTED_EDGE ( 'NONE', *, *, #27, .F. ) ;
#213 = ORIENTED_EDGE ( 'NONE', *, *, #55, .F. ) ;
#214 = CLOSED_SHELL ( 'NONE', ( #12, #5, #8, #7, #9, #3, #10, #11, #2, #4, #1, #6 ) ) ;
#215 = VECTOR ( 'NONE', #328, 1000.000000000000000 ) ;
#216 = FACE_OUTER_BOUND ( 'NONE', #125, .T. ) ;
#217 = VECTOR ( 'NONE', #388, 1000.000000000000000 ) ;
#218 = VECTOR ( 'NONE', #289, 1000.000000000000000 ) ;
#219 = ORIENTED_EDGE ( 'NONE', *, *, #52, .T. ) ;
#220 = CIRCLE ( 'NONE', #76, 2.500000000000002200 ) ;
#221 = LINE ( 'NONE', #346, #232 ) ;
#222 = VECTOR ( 'NONE', #350, 1000.000000000000000 ) ;
#223 = LINE ( 'NONE', #343, #234 ) ;
#224 = VECTOR ( 'NONE', #349, 1000.000000000000000 ) ;
#225 = VECTOR ( 'NONE', #354, 1000.000000000000000 ) ;
#226 = LINE ( 'NONE', #355, #225 ) ;
#227 = VECTOR ( 'NONE', #353, 1000.000000000000000 ) ;
#228 = LINE ( 'NONE', #333, #284 ) ;
#229 = VECTOR ( 'NONE', #336, 1000.000000000000000 ) ;
#230 = LINE ( 'NONE', #312, #245 ) ;
#231 = LINE ( 'NONE', #295, #236 ) ;
#232 = VECTOR ( 'NONE', #345, 1000.000000000000000 ) ;
#233 = LINE ( 'NONE', #351, #215 ) ;
#234 = VECTOR ( 'NONE', #339, 1000.000000000000000 ) ;
#235 = LINE ( 'NONE', #337, #229 ) ;
#236 = VECTOR ( 'NONE', #338, 1000.000000000000000 ) ;
#237 = LINE ( 'NONE', #352, #222 ) ;
#238 = CIRCLE ( 'NONE', #75, 2.500000000000002200 ) ;
#239 = VECTOR ( 'NONE', #308, 1000.000000000000000 ) ;
#240 = LINE ( 'NONE', #307, #246 ) ;
#241 = LINE ( 'NONE', #309, #239 ) ;
#242 = VECTOR ( 'NONE', #313, 1000.000000000000000 ) ;
#243 = VECTOR ( 'NONE', #310, 1000.000000000000000 ) ;
#244 = LINE ( 'NONE', #294, #249 ) ;
#245 = VECTOR ( 'NONE', #304, 1000.000000000000000 ) ;
#246 = VECTOR ( 'NONE', #305, 1000.000000000000000 ) ;
#247 = LINE ( 'NONE', #325, #261 ) ;
#248 = VECTOR ( 'NONE', #344, 1000.000000000000000 ) ;
#249 = VECTOR ( 'NONE', #291, 1000.000000000000000 ) ;
#250 = LINE ( 'NONE', #288, #217 ) ;
#251 = LINE ( 'NONE', #290, #218 ) ;
#252 = FACE_OUTER_BOUND ( 'NONE', #139, .T. ) ;
#253 = CYLINDRICAL_SURFACE ( 'NONE', #20, 2.500000000000002200 ) ;
#254 = VECTOR ( 'NONE', #298, 1000.000000000000000 ) ;
#255 = FACE_OUTER_BOUND ( 'NONE', #87, .T. ) ;
#256 = FACE_OUTER_BOUND ( 'NONE', #85, .T. ) ;
#257 = CIRCLE ( 'NONE', #79, 2.500000000000002200 ) ;
#258 = LINE ( 'NONE', #368, #266 ) ;
#259 = LINE ( 'NONE', #369, #254 ) ;
#260 = FACE_BOUND ( 'NONE', #130, .T. ) ;
#261 = VECTOR ( 'NONE', #300, 1000.000000000000000 ) ;
#262 = FACE_OUTER_BOUND ( 'NONE', #134, .T. ) ;
#263 = CIRCLE ( 'NONE', #77, 2.500000000000002200 ) ;
#264 = LINE ( 'NONE', #360, #248 ) ;
#265 = LINE ( 'NONE', #362, #270 ) ;
#266 = VECTOR ( 'NONE', #365, 1000.000000000000000 ) ;
#267 = LINE ( 'NONE', #364, #272 ) ;
#268 = LINE ( 'NONE', #356, #227 ) ;
#269 = LINE ( 'NONE', #348, #224 ) ;
#270 = VECTOR ( 'NONE', #366, 1000.000000000000000 ) ;
#271 = LINE ( 'NONE', #326, #243 ) ;
#272 = VECTOR ( 'NONE', #361, 1000.000000000000000 ) ;
#273 = FACE_BOUND ( 'NONE', #141, .T. ) ;
#274 = FACE_OUTER_BOUND ( 'NONE', #133, .T. ) ;
#275 = FACE_BOUND ( 'NONE', #140, .T. ) ;
#276 = FACE_OUTER_BOUND ( 'NONE', #137, .T. ) ;
#277 = FACE_OUTER_BOUND ( 'NONE', #126, .T. ) ;
#278 = FACE_OUTER_BOUND ( 'NONE', #138, .T. ) ;
#279 = CYLINDRICAL_SURFACE ( 'NONE', #26, 2.500000000000002200 ) ;
#280 = FACE_BOUND ( 'NONE', #135, .T. ) ;
#281 = LINE ( 'NONE', #331, #242 ) ;
#282 = FACE_OUTER_BOUND ( 'NONE', #209, .T. ) ;
#283 = FACE_OUTER_BOUND ( 'NONE', #136, .T. ) ;
#284 = VECTOR ( 'NONE', #330, 1000.000000000000000 ) ;
#285 = PRODUCT_DEFINITION_SHAPE ( 'NONE', 'NONE',  #71 ) ;
#286 = DESIGN_CONTEXT ( 'detailed design', #396, 'design' ) ;
#287 = DIRECTION ( 'NONE',  ( 0.0000000000000000000, -0.0000000000000000000, 1.000000000000000000 ) ) ;
#288 = CARTESIAN_POINT ( 'NONE',  ( 201.8000000000000100, -14.00000000000000000, 0.0000000000000000000 ) ) ;
#289 = DIRECTION ( 'NONE',  ( -0.0000000000000000000, -0.0000000000000000000, -1.000000000000000000 ) ) ;
#290 = CARTESIAN_POINT ( 'NONE',  ( 201.0000000000000000, -14.00000000000000000, 210.0000000000000000 ) ) ;
#291 = DIRECTION ( 'NONE',  ( -0.0000000000000000000, -0.0000000000000000000, -1.000000000000000000 ) ) ;
#292 = PLANE ( 'NONE',  #78 ) ;
#293 = CARTESIAN_POINT ( 'NONE',  ( 201.0000000000000000, 0.0000000000000000000, 210.0000000000000000 ) ) ;
#294 = CARTESIAN_POINT ( 'NONE',  ( 201.0000000000000000, 0.0000000000000000000, 210.0000000000000000 ) ) ;
#295 = CARTESIAN_POINT ( 'NONE',  ( -201.0000000000000000, -14.00000000000000000, 210.0000000000000000 ) ) ;
#296 = PLANE ( 'NONE',  #80 ) ;
#297 = DIRECTION ( 'NONE',  ( -1.000000000000000000, 0.0000000000000000000, 0.0000000000000000000 ) ) ;
#298 = DIRECTION ( 'NONE',  ( -0.0000000000000000000, -0.0000000000000000000, -1.000000000000000000 ) ) ;
#299 = CARTESIAN_POINT ( 'NONE',  ( -201.0000000000000000, 0.0000000000000000000, 210.0000000000000000 ) ) ;
#300 = DIRECTION ( 'NONE',  ( -0.0000000000000000000, -1.000000000000000000, 0.0000000000000000000 ) ) ;
#301 = DIRECTION ( 'NONE',  ( 0.0000000000000000000, 0.0000000000000000000, 1.000000000000000000 ) ) ;
#302 = CARTESIAN_POINT ( 'NONE',  ( -201.0000000000000000, -14.00000000000000000, 0.0000000000000000000 ) ) ;
#303 = PLANE ( 'NONE',  #81 ) ;
#304 = DIRECTION ( 'NONE',  ( 0.0000000000000000000, -1.000000000000000000, 0.0000000000000000000 ) ) ;
#305 = DIRECTION ( 'NONE',  ( -1.000000000000000000, 0.0000000000000000000, 0.0000000000000000000 ) ) ;
#306 = CARTESIAN_POINT ( 'NONE',  ( 201.8000000000000100, -14.00000000000000000, 0.0000000000000000000 ) ) ;
#307 = CARTESIAN_POINT ( 'NONE',  ( 201.8000000000000100, -14.00000000000000000, 210.0000000000000000 ) ) ;
#308 = DIRECTION ( 'NONE',  ( -0.0000000000000000000, -0.0000000000000000000, -1.000000000000000000 ) ) ;
#309 = CARTESIAN_POINT ( 'NONE',  ( 201.8000000000000100, -14.00000000000000000, 210.0000000000000000 ) ) ;
#310 = DIRECTION ( 'NONE',  ( 1.000000000000000000, 0.0000000000000000000, 0.0000000000000000000 ) ) ;
#311 = DIRECTION ( 'NONE',  ( 0.0000000000000000000, 0.0000000000000000000, 1.000000000000000000 ) ) ;
#312 = CARTESIAN_POINT ( 'NONE',  ( 201.0000000000000000, 0.0000000000000000000, 0.0000000000000000000 ) ) ;
#313 = DIRECTION ( 'NONE',  ( 1.000000000000000000, 0.0000000000000000000, 0.0000000000000000000 ) ) ;
#314 = DIRECTION ( 'NONE',  ( 0.0000000000000000000, 0.0000000000000000000, 1.000000000000000000 ) ) ;
#315 = DIRECTION ( 'NONE',  ( -1.000000000000000000, 0.0000000000000000000, 0.0000000000000000000 ) ) ;
#316 = DIRECTION ( 'NONE',  ( -0.0000000000000000000, -1.000000000000000000, -0.0000000000000000000 ) ) ;
#317 = CARTESIAN_POINT ( 'NONE',  ( 1.734723475976807100E-015, 0.0000000000000000000, 14.99999999999999300 ) ) ;
#318 = PLANE ( 'NONE',  #24 ) ;
#319 = DIRECTION ( 'NONE',  ( 0.0000000000000000000, 0.0000000000000000000, 1.000000000000000000 ) ) ;
#320 = DIRECTION ( 'NONE',  ( -0.0000000000000000000, -1.000000000000000000, -0.0000000000000000000 ) ) ;
#321 = DIRECTION ( 'NONE',  ( -0.0000000000000000000, 0.0000000000000000000, -1.000000000000000000 ) ) ;
#322 = CARTESIAN_POINT ( 'NONE',  ( 1.734723475976807100E-015, 0.0000000000000000000, 194.9999999999999700 ) ) ;
#323 = DIRECTION ( 'NONE',  ( 1.000000000000000000, 0.0000000000000000000, -0.0000000000000000000 ) ) ;
#324 = CARTESIAN_POINT ( 'NONE',  ( -201.0000000000000000, 0.0000000000000000000, 210.0000000000000000 ) ) ;
#325 = CARTESIAN_POINT ( 'NONE',  ( 201.8000000000000100, 0.0000000000000000000, 0.0000000000000000000 ) ) ;
#326 = CARTESIAN_POINT ( 'NONE',  ( -201.0000000000000000, 0.0000000000000000000, 210.0000000000000000 ) ) ;
#327 = PLANE ( 'NONE',  #18 ) ;
#328 = DIRECTION ( 'NONE',  ( -0.0000000000000000000, 1.000000000000000000, -0.0000000000000000000 ) ) ;
#329 = DIRECTION ( 'NONE',  ( 0.0000000000000000000, -0.0000000000000000000, 1.000000000000000000 ) ) ;
#330 = DIRECTION ( 'NONE',  ( -0.0000000000000000000, -0.0000000000000000000, -1.000000000000000000 ) ) ;
#331 = CARTESIAN_POINT ( 'NONE',  ( -201.0000000000000000, 0.0000000000000000000, 0.0000000000000000000 ) ) ;
#332 = CARTESIAN_POINT ( 'NONE',  ( 201.8000000000000100, 0.0000000000000000000, 210.0000000000000000 ) ) ;
#333 = CARTESIAN_POINT ( 'NONE',  ( -201.0000000000000000, 0.0000000000000000000, 210.0000000000000000 ) ) ;
#334 = PLANE ( 'NONE',  #19 ) ;
#335 = DIRECTION ( 'NONE',  ( 0.0000000000000000000, 1.000000000000000000, 0.0000000000000000000 ) ) ;
#336 = DIRECTION ( 'NONE',  ( -0.0000000000000000000, 1.000000000000000000, -0.0000000000000000000 ) ) ;
#337 = CARTESIAN_POINT ( 'NONE',  ( -201.0000000000000000, 0.0000000000000000000, 0.0000000000000000000 ) ) ;
#338 = DIRECTION ( 'NONE',  ( -1.000000000000000000, 0.0000000000000000000, 0.0000000000000000000 ) ) ;
#339 = DIRECTION ( 'NONE',  ( -0.0000000000000000000, -0.0000000000000000000, -1.000000000000000000 ) ) ;
#340 = DIRECTION ( 'NONE',  ( 0.0000000000000000000, 0.0000000000000000000, 1.000000000000000000 ) ) ;
#341 = DIRECTION ( 'NONE',  ( 0.0000000000000000000, 1.000000000000000000, 0.0000000000000000000 ) ) ;
#342 = CARTESIAN_POINT ( 'NONE',  ( 1.734723475976807100E-015, 0.8000000000000000400, 14.99999999999999300 ) ) ;
#343 = CARTESIAN_POINT ( 'NONE',  ( -201.0000000000000000, -14.00000000000000000, 210.0000000000000000 ) ) ;
#344 = DIRECTION ( 'NONE',  ( -0.0000000000000000000, -0.0000000000000000000, -1.000000000000000000 ) ) ;
#345 = DIRECTION ( 'NONE',  ( -1.000000000000000000, 0.0000000000000000000, 0.0000000000000000000 ) ) ;
#346 = CARTESIAN_POINT ( 'NONE',  ( -201.0000000000000000, -14.00000000000000000, 0.0000000000000000000 ) ) ;
#347 = DIRECTION ( 'NONE',  ( 0.0000000000000000000, 1.000000000000000000, 0.0000000000000000000 ) ) ;
#348 = CARTESIAN_POINT ( 'NONE',  ( -201.8000000000000100, 0.0000000000000000000, 210.0000000000000000 ) ) ;
#349 = DIRECTION ( 'NONE',  ( 0.0000000000000000000, 1.000000000000000000, 0.0000000000000000000 ) ) ;
#350 = DIRECTION ( 'NONE',  ( -0.0000000000000000000, -0.0000000000000000000, -1.000000000000000000 ) ) ;
#351 = CARTESIAN_POINT ( 'NONE',  ( -201.0000000000000000, 0.0000000000000000000, 210.0000000000000000 ) ) ;
#352 = CARTESIAN_POINT ( 'NONE',  ( -201.8000000000000100, -14.00000000000000000, 210.0000000000000000 ) ) ;
#353 = DIRECTION ( 'NONE',  ( 1.000000000000000000, 0.0000000000000000000, 0.0000000000000000000 ) ) ;
#354 = DIRECTION ( 'NONE',  ( 0.0000000000000000000, 1.000000000000000000, 0.0000000000000000000 ) ) ;
#355 = CARTESIAN_POINT ( 'NONE',  ( -201.8000000000000100, 0.0000000000000000000, 0.0000000000000000000 ) ) ;
#356 = CARTESIAN_POINT ( 'NONE',  ( -201.0000000000000000, 0.8000000000000000400, 210.0000000000000000 ) ) ;
#357 = DIRECTION ( 'NONE',  ( 0.0000000000000000000, 0.0000000000000000000, -1.000000000000000000 ) ) ;
#358 = DIRECTION ( 'NONE',  ( -0.0000000000000000000, 1.000000000000000000, -0.0000000000000000000 ) ) ;
#359 = CARTESIAN_POINT ( 'NONE',  ( 1.734723475976807100E-015, 0.8000000000000000400, 194.9999999999999700 ) ) ;
#360 = CARTESIAN_POINT ( 'NONE',  ( -201.8000000000000100, 0.8000000000000000400, 210.0000000000000000 ) ) ;
#361 = DIRECTION ( 'NONE',  ( 0.0000000000000000000, -1.000000000000000000, 0.0000000000000000000 ) ) ;
#362 = CARTESIAN_POINT ( 'NONE',  ( -201.0000000000000000, 0.8000000000000000400, 0.0000000000000000000 ) ) ;
#363 = CARTESIAN_POINT ( 'NONE',  ( -201.0000000000000000, 0.8000000000000000400, 210.0000000000000000 ) ) ;
#364 = CARTESIAN_POINT ( 'NONE',  ( 201.0000000000000000, 0.0000000000000000000, 210.0000000000000000 ) ) ;
#365 = DIRECTION ( 'NONE',  ( -0.0000000000000000000, -1.000000000000000000, 0.0000000000000000000 ) ) ;
#366 = DIRECTION ( 'NONE',  ( 1.000000000000000000, 0.0000000000000000000, 0.0000000000000000000 ) ) ;
#367 = CARTESIAN_POINT ( 'NONE',  ( -201.8000000000000100, 0.0000000000000000000, 210.0000000000000000 ) ) ;
#368 = CARTESIAN_POINT ( 'NONE',  ( 201.8000000000000100, 0.0000000000000000000, 210.0000000000000000 ) ) ;
#369 = CARTESIAN_POINT ( 'NONE',  ( 201.8000000000000100, 0.8000000000000000400, 210.0000000000000000 ) ) ;
#370 = DIRECTION ( 'NONE',  ( -0.0000000000000000000, 0.0000000000000000000, -1.000000000000000000 ) ) ;
#371 = DIRECTION ( 'NONE',  ( 1.000000000000000000, 0.0000000000000000000, -0.0000000000000000000 ) ) ;
#372 = CARTESIAN_POINT ( 'NONE',  ( -201.8000000000000100, -14.00000000000000000, 0.0000000000000000000 ) ) ;
#373 = CARTESIAN_POINT ( 'NONE',  ( -201.0000000000000000, 0.0000000000000000000, 0.0000000000000000000 ) ) ;
#374 = PERSON_AND_ORGANIZATION_ROLE ( 'creator' ) ;
#375 = APPROVAL_ROLE ( '' ) ;
#376 = APPROVAL_STATUS ( 'not_yet_approved' ) ;
#377 = CARTESIAN_POINT ( 'NONE',  ( 201.0000000000000000, -14.00000000000000000, 0.0000000000000000000 ) ) ;
#378 = CARTESIAN_POINT ( 'NONE',  ( 1.734723475976807100E-015, 0.0000000000000000000, 197.4999999999999700 ) ) ;
#379 = CARTESIAN_POINT ( 'NONE',  ( 1.734723475976807100E-015, 0.8000000000000000400, 17.49999999999999600 ) ) ;
#380 = CARTESIAN_POINT ( 'NONE',  ( 201.0000000000000000, 0.0000000000000000000, 210.0000000000000000 ) ) ;
#381 = DATE_TIME_ROLE ( 'classification_date' ) ;
#382 = SECURITY_CLASSIFICATION_LEVEL ( 'unclassified' ) ;
#383 = PERSON_AND_ORGANIZATION_ROLE ( 'design_supplier' ) ;
#384 = PERSON_AND_ORGANIZATION_ROLE ( 'creator' ) ;
#385 = APPROVAL_STATUS ( 'not_yet_approved' ) ;
#386 = CARTESIAN_POINT ( 'NONE',  ( -201.8000000000000100, 0.8000000000000000400, 0.0000000000000000000 ) ) ;
#387 = APPROVAL_ROLE ( '' ) ;
#388 = DIRECTION ( 'NONE',  ( -1.000000000000000000, 0.0000000000000000000, 0.0000000000000000000 ) ) ;
#389 = CARTESIAN_POINT ( 'NONE',  ( 0.0000000000000000000, 0.0000000000000000000, 0.0000000000000000000 ) ) ;
#390 = APPROVAL_ROLE ( '' ) ;
#391 = MECHANICAL_CONTEXT ( 'NONE', #402, 'mechanical' ) ;
#392 = CARTESIAN_POINT ( 'NONE',  ( 201.8000000000000100, 0.8000000000000000400, 0.0000000000000000000 ) ) ;
#393 = CARTESIAN_POINT ( 'NONE',  ( -201.8000000000000100, -14.00000000000000000, 210.0000000000000000 ) ) ;
#394 = CARTESIAN_POINT ( 'NONE',  ( 201.8000000000000100, 0.8000000000000000400, 210.0000000000000000 ) ) ;
#395 = CARTESIAN_POINT ( 'NONE',  ( -201.0000000000000000, -14.00000000000000000, 210.0000000000000000 ) ) ;
#396 = APPLICATION_CONTEXT ( 'configuration controlled 3d designs of mechanical parts and assemblies' ) ;
#397 =( NAMED_UNIT ( * ) PLANE_ANGLE_UNIT ( ) SI_UNIT ( $, .RADIAN. ) );
#398 =( LENGTH_UNIT ( ) NAMED_UNIT ( * ) SI_UNIT ( .MILLI., .METRE. ) );
#399 =( NAMED_UNIT ( * ) SI_UNIT ( $, .STERADIAN. ) SOLID_ANGLE_UNIT ( ) );
#400 = CARTESIAN_POINT ( 'NONE',  ( 201.0000000000000000, 0.0000000000000000000, 0.0000000000000000000 ) ) ;
#401 = CARTESIAN_POINT ( 'NONE',  ( 201.8000000000000100, -14.00000000000000000, 210.0000000000000000 ) ) ;
#402 = APPLICATION_CONTEXT ( 'configuration controlled 3d designs of mechanical parts and assemblies' ) ;
#403 = CARTESIAN_POINT ( 'NONE',  ( 201.0000000000000000, -14.00000000000000000, 210.0000000000000000 ) ) ;
#404 = PERSON_AND_ORGANIZATION_ROLE ( 'classification_officer' ) ;
#405 = APPROVAL_STATUS ( 'not_yet_approved' ) ;
#406 = APPLICATION_PROTOCOL_DEFINITION ( 'international standard', 'config_control_design', 1994, #396 ) ;
#407 = APPLICATION_PROTOCOL_DEFINITION ( 'international standard', 'config_control_design', 1994, #402 ) ;
#408 = CARTESIAN_POINT ( 'NONE',  ( 1.734723475976807100E-015, 0.8000000000000000400, 192.4999999999999700 ) ) ;
#409 = PERSON_AND_ORGANIZATION_ROLE ( 'design_owner' ) ;
#410 = CARTESIAN_POINT ( 'NONE',  ( -201.0000000000000000, 0.0000000000000000000, 210.0000000000000000 ) ) ;
#411 = CARTESIAN_POINT ( 'NONE',  ( -201.8000000000000100, 0.8000000000000000400, 210.0000000000000000 ) ) ;
#412 = DIRECTION ( 'NONE',  ( 0.0000000000000000000, 0.0000000000000000000, 1.000000000000000000 ) ) ;
#413 = DATE_TIME_ROLE ( 'creation_date' ) ;
#414 = CARTESIAN_POINT ( 'NONE',  ( 1.734723475976807100E-015, 0.0000000000000000000, 17.49999999999999600 ) ) ;
#415 = DIRECTION ( 'NONE',  ( 1.000000000000000000, 0.0000000000000000000, 0.0000000000000000000 ) ) ;
#416 = DIRECTION ( 'NONE',  ( 0.0000000000000000000, 0.0000000000000000000, 1.000000000000000000 ) ) ;
#417 = DIRECTION ( 'NONE',  ( -0.0000000000000000000, 0.0000000000000000000, -1.000000000000000000 ) ) ;
#418 = PLANE ( 'NONE',  #22 ) ;
#419 = DIRECTION ( 'NONE',  ( -0.0000000000000000000, 1.000000000000000000, -0.0000000000000000000 ) ) ;
#420 = DIRECTION ( 'NONE',  ( -1.000000000000000000, 0.0000000000000000000, 0.0000000000000000000 ) ) ;
#421 = CARTESIAN_POINT ( 'NONE',  ( 1.734723475976807100E-015, -14.00099999999999900, 194.9999999999999700 ) ) ;
#422 = CARTESIAN_POINT ( 'NONE',  ( -201.0000000000000000, -14.00000000000000000, 210.0000000000000000 ) ) ;
#423 = PLANE ( 'NONE',  #25 ) ;
#424 = DIRECTION ( 'NONE',  ( -0.0000000000000000000, 0.0000000000000000000, -1.000000000000000000 ) ) ;
#425 = DIRECTION ( 'NONE',  ( 0.0000000000000000000, -0.0000000000000000000, -1.000000000000000000 ) ) ;
#426 = DIRECTION ( 'NONE',  ( 0.0000000000000000000, -0.0000000000000000000, -1.000000000000000000 ) ) ;
#427 = CARTESIAN_POINT ( 'NONE',  ( 201.8000000000000100, -14.00000000000000000, 210.0000000000000000 ) ) ;
#428 = PLANE ( 'NONE',  #21 ) ;
#429 = DIRECTION ( 'NONE',  ( -0.0000000000000000000, 1.000000000000000000, -0.0000000000000000000 ) ) ;
#430 = PLANE ( 'NONE',  #23 ) ;
#431 = DIRECTION ( 'NONE',  ( 0.0000000000000000000, 0.0000000000000000000, 1.000000000000000000 ) ) ;
#432 = DIRECTION ( 'NONE',  ( 0.0000000000000000000, -1.000000000000000000, 0.0000000000000000000 ) ) ;
#433 = CARTESIAN_POINT ( 'NONE',  ( 1.734723475976807100E-015, -14.00099999999999900, 14.99999999999999300 ) ) ;
#434 = CARTESIAN_POINT ( 'NONE',  ( 0.0000000000000000000, 0.0000000000000000000, 210.0000000000000000 ) ) ;
#435 = CARTESIAN_POINT ( 'NONE',  ( 0.0000000000000000000, 0.0000000000000000000, 0.0000000000000000000 ) ) ;
#436 = DIRECTION ( 'NONE',  ( 0.0000000000000000000, -1.000000000000000000, 0.0000000000000000000 ) ) ;
#437 = DIRECTION ( 'NONE',  ( -1.000000000000000000, 0.0000000000000000000, 0.0000000000000000000 ) ) ;
ENDSEC;
END-ISO-10303-21;
