ISO-10303-21;
HEADER;
FILE_DESCRIPTION (( 'STEP AP203' ),
    '1' );
FILE_NAME ('CLP1P-KS-5 Êðþê S-îáðàçíûé 4 ìì..STEP',
    '2016-03-03T08:47:44',
    ( '' ),
    ( '' ),
    'SwSTEP 2.0',
    'SolidWorks 2014',
    '' );
FILE_SCHEMA (( 'CONFIG_CONTROL_DESIGN' ));
ENDSEC;

DATA;
#1 = FACE_OUTER_BOUND ( 'NONE', #152, .T. ) ;
#2 = PRODUCT_RELATED_PRODUCT_CATEGORY ( 'detail', '', ( #3 ) ) ;
#3 = PRODUCT ( 'CLP1P-KS-5 Êðþê S-îáðàçíûé 4 ìì.', 'CLP1P-KS-5 Êðþê S-îáðàçíûé 4 ìì.', '', ( #205 ) ) ;
#4 = DIRECTION ( 'NONE',  ( -0.7241379310344819900, 0.6896551724137939300, 0.0000000000000000000 ) ) ;
#5 = FACE_OUTER_BOUND ( 'NONE', #124, .T. ) ;
#6 = ORIENTED_EDGE ( 'NONE', *, *, #91, .F. ) ;
#7 = CARTESIAN_POINT ( 'NONE',  ( 5.727081143508177900, 14.06896551724136700, 0.0000000000000000000 ) ) ;
#8 = CC_DESIGN_APPROVAL ( #143, ( #20 ) ) ;
#9 = CC_DESIGN_DATE_AND_TIME_ASSIGNMENT ( #199, #178, ( #20 ) ) ;
#10 = VERTEX_POINT ( 'NONE', #189 ) ;
#11 = AXIS2_PLACEMENT_3D ( 'NONE', #144, #200, #54 ) ;
#12 = DIRECTION ( 'NONE',  ( 0.6896551724137933700, 0.7241379310344823200, 0.0000000000000000000 ) ) ;
#13 = CYLINDRICAL_SURFACE ( 'NONE', #100, 2.000000000000000000 ) ;
#14 = DIRECTION ( 'NONE',  ( 0.0000000000000000000, 0.0000000000000000000, 1.000000000000000000 ) ) ;
#15 = AXIS2_PLACEMENT_3D ( 'NONE', #148, #147, #176 ) ;
#16 = PERSON ( 'UNSPECIFIED', 'UNSPECIFIED', 'UNSPECIFIED', ('UNSPECIFIED'), ('UNSPECIFIED'), ('UNSPECIFIED') ) ;
#17 = APPLICATION_CONTEXT ( 'configuration controlled 3d designs of mechanical parts and assemblies' ) ;
#18 = LOCAL_TIME ( 11, 47, 44.00000000000000000, #74 ) ;
#19 = SHAPE_DEFINITION_REPRESENTATION ( #181, #162 ) ;
#20 = SECURITY_CLASSIFICATION ( '', '', #203 ) ;
#21 = CIRCLE ( 'NONE', #71, 2.000000000000000000 ) ;
#22 = EDGE_LOOP ( 'NONE', ( #183 ) ) ;
#23 = CALENDAR_DATE ( 2016, 3, 3 ) ;
#24 = FACE_OUTER_BOUND ( 'NONE', #22, .T. ) ;
#25 = DESIGN_CONTEXT ( 'detailed design', #17, 'design' ) ;
#26 = EDGE_LOOP ( 'NONE', ( #92 ) ) ;
#27 = PLANE ( 'NONE',  #37 ) ;
#28 = PERSON_AND_ORGANIZATION ( #16, #87 ) ;
#29 = DIRECTION ( 'NONE',  ( -0.0000000000000000000, -0.0000000000000000000, -1.000000000000000000 ) ) ;
#30 = AXIS2_PLACEMENT_3D ( 'NONE', #149, #4, #140 ) ;
#31 = EDGE_CURVE ( 'NONE', #156, #156, #141, .T. ) ;
#32 = DIRECTION ( 'NONE',  ( 0.6896551724137941500, 0.7241379310344818700, 0.0000000000000000000 ) ) ;
#33 = DIRECTION ( 'NONE',  ( 0.6896551724137941500, 0.7241379310344817600, 0.0000000000000000000 ) ) ;
#34 = ORIENTED_EDGE ( 'NONE', *, *, #46, .F. ) ;
#35 = DIRECTION ( 'NONE',  ( -0.7071067811865435800, -0.7071067811865514600, 0.0000000000000000000 ) ) ;
#36 = APPROVAL_STATUS ( 'not_yet_approved' ) ;
#37 = AXIS2_PLACEMENT_3D ( 'NONE', #79, #213, #33 ) ;
#38 = AXIS2_PLACEMENT_3D ( 'NONE', #132, #14, #171 ) ;
#39 = EDGE_LOOP ( 'NONE', ( #53 ) ) ;
#40 = VERTEX_POINT ( 'NONE', #180 ) ;
#41 = AXIS2_PLACEMENT_3D ( 'NONE', #154, #214, #12 ) ;
#42 = CARTESIAN_POINT ( 'NONE',  ( 2.636038969321095900, -5.464466094067241800, 0.0000000000000000000 ) ) ;
#43 = APPROVAL_DATE_TIME ( #68, #63 ) ;
#44 = EDGE_CURVE ( 'NONE', #56, #56, #202, .T. ) ;
#45 =( NAMED_UNIT ( * ) SI_UNIT ( $, .STERADIAN. ) SOLID_ANGLE_UNIT ( ) );
#46 = EDGE_CURVE ( 'NONE', #118, #118, #151, .T. ) ;
#47 = CYLINDRICAL_SURFACE ( 'NONE', #61, 2.000000000000000000 ) ;
#48 = LOCAL_TIME ( 11, 47, 44.00000000000000000, #206 ) ;
#49 = APPROVAL_PERSON_ORGANIZATION ( #137, #166, #174 ) ;
#50 = DIRECTION ( 'NONE',  ( 0.6896551724137941500, 0.7241379310344818700, 0.0000000000000000000 ) ) ;
#51 = ADVANCED_FACE ( 'NONE', ( #24 ), #27, .T. ) ;
#52 = DIRECTION ( 'NONE',  ( -0.7071067811865435800, -0.7071067811865514600, 0.0000000000000000000 ) ) ;
#53 = ORIENTED_EDGE ( 'NONE', *, *, #46, .T. ) ;
#54 = DIRECTION ( 'NONE',  ( 0.6896551724137932600, 0.7241379310344827600, 0.0000000000000000000 ) ) ;
#55 = DATE_AND_TIME ( #139, #134 ) ;
#56 = VERTEX_POINT ( 'NONE', #168 ) ;
#57 = CARTESIAN_POINT ( 'NONE',  ( -4.050252531694180600, 4.050252531694138900, 0.0000000000000000000 ) ) ;
#58 = CARTESIAN_POINT ( 'NONE',  ( -5.727081143508175200, -14.06896551724137400, 0.0000000000000000000 ) ) ;
#59 = CC_DESIGN_PERSON_AND_ORGANIZATION_ASSIGNMENT ( #101, #95, ( #161 ) ) ;
#60 = AXIS2_PLACEMENT_3D ( 'NONE', #198, #142, #35 ) ;
#61 = AXIS2_PLACEMENT_3D ( 'NONE', #57, #185, #107 ) ;
#62 = APPROVAL_STATUS ( 'not_yet_approved' ) ;
#63 = APPROVAL ( #36, 'UNSPECIFIED' ) ;
#64 = CLOSED_SHELL ( 'NONE', ( #177, #158, #215, #184, #173, #179, #51 ) ) ;
#65 = FACE_OUTER_BOUND ( 'NONE', #73, .T. ) ;
#66 = FACE_OUTER_BOUND ( 'NONE', #155, .T. ) ;
#67 = LOCAL_TIME ( 11, 47, 44.00000000000000000, #186 ) ;
#68 = DATE_AND_TIME ( #159, #67 ) ;
#69 = FACE_OUTER_BOUND ( 'NONE', #39, .T. ) ;
#70 = TOROIDAL_SURFACE ( 'NONE', #135, 6.999999999999999100, 2.000000000000000000 ) ;
#71 = AXIS2_PLACEMENT_3D ( 'NONE', #131, #196, #32 ) ;
#72 = ORIENTED_EDGE ( 'NONE', *, *, #44, .T. ) ;
#73 = EDGE_LOOP ( 'NONE', ( #72 ) ) ;
#74 = COORDINATED_UNIVERSAL_TIME_OFFSET ( 3, 0, .AHEAD. ) ;
#75 =( GEOMETRIC_REPRESENTATION_CONTEXT ( 3 ) GLOBAL_UNCERTAINTY_ASSIGNED_CONTEXT ( ( #88 ) ) GLOBAL_UNIT_ASSIGNED_CONTEXT ( ( #192, #99, #45 ) ) REPRESENTATION_CONTEXT ( 'NONE', 'WORKASPACE' ) );
#76 = EDGE_LOOP ( 'NONE', ( #98 ) ) ;
#77 = CC_DESIGN_DATE_AND_TIME_ASSIGNMENT ( #55, #116, ( #165 ) ) ;
#78 = PERSON_AND_ORGANIZATION_ROLE ( 'classification_officer' ) ;
#79 = CARTESIAN_POINT ( 'NONE',  ( 11.52018459178403200, 8.551724137931016000, 0.0000000000000000000 ) ) ;
#80 = VERTEX_POINT ( 'NONE', #210 ) ;
#81 = AXIS2_PLACEMENT_3D ( 'NONE', #58, #187, #170 ) ;
#82 = PERSON_AND_ORGANIZATION_ROLE ( 'creator' ) ;
#83 = LOCAL_TIME ( 11, 47, 44.00000000000000000, #130 ) ;
#84 = CC_DESIGN_PERSON_AND_ORGANIZATION_ASSIGNMENT ( #28, #82, ( #165 ) ) ;
#85 = APPROVAL_DATE_TIME ( #119, #166 ) ;
#86 = CARTESIAN_POINT ( 'NONE',  ( -10.14087424695644700, -7.103448275862055200, 0.0000000000000000000 ) ) ;
#87 = ORGANIZATION ( 'UNSPECIFIED', 'UNSPECIFIED', '' ) ;
#88 = UNCERTAINTY_MEASURE_WITH_UNIT (LENGTH_MEASURE( 1.000000000000000100E-005 ), #192, 'distance_accuracy_value', 'NONE');
#89 = CALENDAR_DATE ( 2016, 3, 3 ) ;
#90 = FACE_OUTER_BOUND ( 'NONE', #114, .T. ) ;
#91 = EDGE_CURVE ( 'NONE', #80, #80, #21, .T. ) ;
#92 = ORIENTED_EDGE ( 'NONE', *, *, #44, .F. ) ;
#93 = EDGE_CURVE ( 'NONE', #10, #10, #111, .T. ) ;
#94 = AXIS2_PLACEMENT_3D ( 'NONE', #7, #212, #50 ) ;
#95 = PERSON_AND_ORGANIZATION_ROLE ( 'design_supplier' ) ;
#96 = FACE_OUTER_BOUND ( 'NONE', #76, .T. ) ;
#97 = MANIFOLD_SOLID_BREP ( 'Ïî òðàåêòîðèè1', #64 ) ;
#98 = ORIENTED_EDGE ( 'NONE', *, *, #31, .T. ) ;
#99 =( NAMED_UNIT ( * ) PLANE_ANGLE_UNIT ( ) SI_UNIT ( $, .RADIAN. ) );
#100 = AXIS2_PLACEMENT_3D ( 'NONE', #201, #211, #127 ) ;
#101 = PERSON_AND_ORGANIZATION ( #16, #87 ) ;
#102 = FACE_OUTER_BOUND ( 'NONE', #106, .T. ) ;
#103 = CIRCLE ( 'NONE', #94, 2.000000000000000000 ) ;
#104 = PERSON_AND_ORGANIZATION ( #16, #87 ) ;
#105 = EDGE_CURVE ( 'NONE', #40, #40, #103, .T. ) ;
#106 = EDGE_LOOP ( 'NONE', ( #115 ) ) ;
#107 = DIRECTION ( 'NONE',  ( 0.7071067811865439100, 0.7071067811865511300, 0.0000000000000000000 ) ) ;
#108 = DIRECTION ( 'NONE',  ( -0.7071067811865515700, 0.7071067811865435800, 0.0000000000000000000 ) ) ;
#109 = FACE_OUTER_BOUND ( 'NONE', #204, .T. ) ;
#110 = DIRECTION ( 'NONE',  ( -1.000000000000000000, 0.0000000000000000000, 0.0000000000000000000 ) ) ;
#111 = CIRCLE ( 'NONE', #60, 2.000000000000000400 ) ;
#112 = CYLINDRICAL_SURFACE ( 'NONE', #30, 1.999999999999999600 ) ;
#113 = PLANE ( 'NONE',  #41 ) ;
#114 = EDGE_LOOP ( 'NONE', ( #195 ) ) ;
#115 = ORIENTED_EDGE ( 'NONE', *, *, #93, .T. ) ;
#116 = DATE_TIME_ROLE ( 'creation_date' ) ;
#117 = FACE_OUTER_BOUND ( 'NONE', #121, .T. ) ;
#118 = VERTEX_POINT ( 'NONE', #42 ) ;
#119 = DATE_AND_TIME ( #89, #48 ) ;
#120 = APPROVAL_DATE_TIME ( #153, #143 ) ;
#121 = EDGE_LOOP ( 'NONE', ( #6 ) ) ;
#122 = APPROVAL_STATUS ( 'not_yet_approved' ) ;
#123 = CC_DESIGN_PERSON_AND_ORGANIZATION_ASSIGNMENT ( #146, #188, ( #161 ) ) ;
#124 = EDGE_LOOP ( 'NONE', ( #34 ) ) ;
#125 = APPROVAL_PERSON_ORGANIZATION ( #160, #143, #209 ) ;
#126 = PERSON_AND_ORGANIZATION ( #16, #87 ) ;
#127 = DIRECTION ( 'NONE',  ( 0.6896551724137941500, 0.7241379310344818700, 0.0000000000000000000 ) ) ;
#128 = CARTESIAN_POINT ( 'NONE',  ( 4.050252531694183300, -4.050252531694138900, 0.0000000000000000000 ) ) ;
#129 = CC_DESIGN_PERSON_AND_ORGANIZATION_ASSIGNMENT ( #126, #133, ( #3 ) ) ;
#130 = COORDINATED_UNIVERSAL_TIME_OFFSET ( 3, 0, .AHEAD. ) ;
#131 = CARTESIAN_POINT ( 'NONE',  ( 11.52018459178403200, 8.551724137931016000, 0.0000000000000000000 ) ) ;
#132 = CARTESIAN_POINT ( 'NONE',  ( 0.8994949366116213900, 8.999999999999998200, 0.0000000000000000000 ) ) ;
#133 = PERSON_AND_ORGANIZATION_ROLE ( 'design_owner' ) ;
#134 = LOCAL_TIME ( 11, 47, 44.00000000000000000, #169 ) ;
#135 = AXIS2_PLACEMENT_3D ( 'NONE', #138, #29, #110 ) ;
#136 = APPLICATION_PROTOCOL_DEFINITION ( 'international standard', 'config_control_design', 1994, #190 ) ;
#137 = PERSON_AND_ORGANIZATION ( #16, #87 ) ;
#138 = CARTESIAN_POINT ( 'NONE',  ( -0.8994949366116213900, -8.999999999999998200, 0.0000000000000000000 ) ) ;
#139 = CALENDAR_DATE ( 2016, 3, 3 ) ;
#140 = DIRECTION ( 'NONE',  ( -0.6896551724137938200, -0.7241379310344819900, 0.0000000000000000000 ) ) ;
#141 = CIRCLE ( 'NONE', #11, 2.000000000000000000 ) ;
#142 = DIRECTION ( 'NONE',  ( -0.7071067811865515700, 0.7071067811865435800, 0.0000000000000000000 ) ) ;
#143 = APPROVAL ( #122, 'UNSPECIFIED' ) ;
#144 = CARTESIAN_POINT ( 'NONE',  ( -11.52018459178403200, -8.551724137931021400, 0.0000000000000000000 ) ) ;
#145 = APPLICATION_PROTOCOL_DEFINITION ( 'international standard', 'config_control_design', 1994, #17 ) ;
#146 = PERSON_AND_ORGANIZATION ( #16, #87 ) ;
#147 = DIRECTION ( 'NONE',  ( 0.0000000000000000000, 0.0000000000000000000, 1.000000000000000000 ) ) ;
#148 = CARTESIAN_POINT ( 'NONE',  ( 0.0000000000000000000, 0.0000000000000000000, 0.0000000000000000000 ) ) ;
#149 = CARTESIAN_POINT ( 'NONE',  ( -5.727081143508175200, -14.06896551724137400, 0.0000000000000000000 ) ) ;
#150 = TOROIDAL_SURFACE ( 'NONE', #38, 6.999999999999995600, 2.000000000000000000 ) ;
#151 = CIRCLE ( 'NONE', #182, 2.000000000000000400 ) ;
#152 = EDGE_LOOP ( 'NONE', ( #164 ) ) ;
#153 = DATE_AND_TIME ( #197, #18 ) ;
#154 = CARTESIAN_POINT ( 'NONE',  ( -11.52018459178403200, -8.551724137931021400, 0.0000000000000000000 ) ) ;
#155 = EDGE_LOOP ( 'NONE', ( #167 ) ) ;
#156 = VERTEX_POINT ( 'NONE', #86 ) ;
#157 = APPROVAL_ROLE ( '' ) ;
#158 = ADVANCED_FACE ( 'NONE', ( #5, #65 ), #70, .T. ) ;
#159 = CALENDAR_DATE ( 2016, 3, 3 ) ;
#160 = PERSON_AND_ORGANIZATION ( #16, #87 ) ;
#161 = PRODUCT_DEFINITION_FORMATION_WITH_SPECIFIED_SOURCE ( 'ANY', '', #3, .NOT_KNOWN. ) ;
#162 = ADVANCED_BREP_SHAPE_REPRESENTATION ( 'CLP1P-KS-5 ¦¨¦ú S-þñ¨ð÷ývù 4 üü.', ( #97, #15 ), #75 ) ;
#163 = ORIENTED_EDGE ( 'NONE', *, *, #105, .T. ) ;
#164 = ORIENTED_EDGE ( 'NONE', *, *, #105, .F. ) ;
#165 = PRODUCT_DEFINITION ( 'UNKNOWN', '', #161, #25 ) ;
#166 = APPROVAL ( #62, 'UNSPECIFIED' ) ;
#167 = ORIENTED_EDGE ( 'NONE', *, *, #93, .F. ) ;
#168 = CARTESIAN_POINT ( 'NONE',  ( -4.347770798680588000, -12.62068965517240900, 0.0000000000000000000 ) ) ;
#169 = COORDINATED_UNIVERSAL_TIME_OFFSET ( 3, 0, .AHEAD. ) ;
#170 = DIRECTION ( 'NONE',  ( 0.6896551724137933700, 0.7241379310344824300, 0.0000000000000000000 ) ) ;
#171 = DIRECTION ( 'NONE',  ( 1.000000000000000000, 0.0000000000000000000, 0.0000000000000000000 ) ) ;
#172 = APPROVAL_PERSON_ORGANIZATION ( #208, #63, #157 ) ;
#173 = ADVANCED_FACE ( 'NONE', ( #109, #117 ), #13, .T. ) ;
#174 = APPROVAL_ROLE ( '' ) ;
#175 = CC_DESIGN_SECURITY_CLASSIFICATION ( #20, ( #161 ) ) ;
#176 = DIRECTION ( 'NONE',  ( 1.000000000000000000, 0.0000000000000000000, 0.0000000000000000000 ) ) ;
#177 = ADVANCED_FACE ( 'NONE', ( #191, #96 ), #112, .T. ) ;
#178 = DATE_TIME_ROLE ( 'classification_date' ) ;
#179 = ADVANCED_FACE ( 'NONE', ( #90 ), #113, .F. ) ;
#180 = CARTESIAN_POINT ( 'NONE',  ( 7.106391488335765900, 15.51724137931033100, 0.0000000000000000000 ) ) ;
#181 = PRODUCT_DEFINITION_SHAPE ( 'NONE', 'NONE',  #165 ) ;
#182 = AXIS2_PLACEMENT_3D ( 'NONE', #128, #108, #52 ) ;
#183 = ORIENTED_EDGE ( 'NONE', *, *, #91, .T. ) ;
#184 = ADVANCED_FACE ( 'NONE', ( #1, #102 ), #150, .T. ) ;
#185 = DIRECTION ( 'NONE',  ( 0.7071067811865512400, -0.7071067811865439100, 0.0000000000000000000 ) ) ;
#186 = COORDINATED_UNIVERSAL_TIME_OFFSET ( 3, 0, .AHEAD. ) ;
#187 = DIRECTION ( 'NONE',  ( 0.7241379310344824300, -0.6896551724137934800, 0.0000000000000000000 ) ) ;
#188 = PERSON_AND_ORGANIZATION_ROLE ( 'creator' ) ;
#189 = CARTESIAN_POINT ( 'NONE',  ( -5.464466094067268500, 2.636038969321036000, 0.0000000000000000000 ) ) ;
#190 = APPLICATION_CONTEXT ( 'configuration controlled 3d designs of mechanical parts and assemblies' ) ;
#191 = FACE_OUTER_BOUND ( 'NONE', #26, .T. ) ;
#192 =( LENGTH_UNIT ( ) NAMED_UNIT ( * ) SI_UNIT ( .MILLI., .METRE. ) );
#193 = CC_DESIGN_APPROVAL ( #63, ( #161 ) ) ;
#194 = CC_DESIGN_APPROVAL ( #166, ( #165 ) ) ;
#195 = ORIENTED_EDGE ( 'NONE', *, *, #31, .F. ) ;
#196 = DIRECTION ( 'NONE',  ( 0.7241379310344817600, -0.6896551724137941500, 0.0000000000000000000 ) ) ;
#197 = CALENDAR_DATE ( 2016, 3, 3 ) ;
#198 = CARTESIAN_POINT ( 'NONE',  ( -4.050252531694180600, 4.050252531694138900, 0.0000000000000000000 ) ) ;
#199 = DATE_AND_TIME ( #23, #83 ) ;
#200 = DIRECTION ( 'NONE',  ( 0.7241379310344824300, -0.6896551724137934800, 0.0000000000000000000 ) ) ;
#201 = CARTESIAN_POINT ( 'NONE',  ( 5.727081143508177900, 14.06896551724136700, 0.0000000000000000000 ) ) ;
#202 = CIRCLE ( 'NONE', #81, 2.000000000000000900 ) ;
#203 = SECURITY_CLASSIFICATION_LEVEL ( 'unclassified' ) ;
#204 = EDGE_LOOP ( 'NONE', ( #163 ) ) ;
#205 = MECHANICAL_CONTEXT ( 'NONE', #190, 'mechanical' ) ;
#206 = COORDINATED_UNIVERSAL_TIME_OFFSET ( 3, 0, .AHEAD. ) ;
#207 = CC_DESIGN_PERSON_AND_ORGANIZATION_ASSIGNMENT ( #104, #78, ( #20 ) ) ;
#208 = PERSON_AND_ORGANIZATION ( #16, #87 ) ;
#209 = APPROVAL_ROLE ( '' ) ;
#210 = CARTESIAN_POINT ( 'NONE',  ( 12.89949493661162100, 9.999999999999978700, 0.0000000000000000000 ) ) ;
#211 = DIRECTION ( 'NONE',  ( 0.7241379310344819900, -0.6896551724137940400, -0.0000000000000000000 ) ) ;
#212 = DIRECTION ( 'NONE',  ( 0.7241379310344817600, -0.6896551724137941500, 0.0000000000000000000 ) ) ;
#213 = DIRECTION ( 'NONE',  ( 0.7241379310344817600, -0.6896551724137941500, 0.0000000000000000000 ) ) ;
#214 = DIRECTION ( 'NONE',  ( 0.7241379310344824300, -0.6896551724137934800, 0.0000000000000000000 ) ) ;
#215 = ADVANCED_FACE ( 'NONE', ( #66, #69 ), #47, .T. ) ;
ENDSEC;
END-ISO-10303-21;
