ISO-10303-21;
HEADER;
FILE_DESCRIPTION(('OneSpaceDesigner STEP Export'),'2;1');
FILE_NAME('CBD.35-PT.stp','2008-07-03T15:01:34',(''),(''),
'OneSpace Designer STEP processor for AP214 (Solid Model)',
'OneSpace Modeling 15.50  10-Aug-2007 (C) CoCreate Software GmbH','');
FILE_SCHEMA(('AUTOMOTIVE_DESIGN { 1 0 10303 214 1 1 1 1 }'));
ENDSEC;
DATA;
#10=CARTESIAN_POINT('',(13.737274,39.907324,0.));
#20=DIRECTION('',(0.,0.,1.));
#30=DIRECTION('',(1.,0.,0.));
#40=AXIS2_PLACEMENT_3D('',#10,#20,#30);
#50=PLANE('',#40);
#60=CARTESIAN_POINT('',(24.2499999999999,1.5,0.));
#70=DIRECTION('',(-0.,0.,1.));
#80=DIRECTION('',(1.,0.,0.));
#90=AXIS2_PLACEMENT_3D('',#60,#70,#80);
#100=CIRCLE('',#90,1.5);
#110=CARTESIAN_POINT('',(24.2499999999999,7.105427357601E-15,0.));
#120=VERTEX_POINT('',#110);
#130=CARTESIAN_POINT('',(25.7499999999999,1.5,0.));
#140=VERTEX_POINT('',#130);
#150=EDGE_CURVE('',#120,#140,#100,.T.);
#160=ORIENTED_EDGE('',*,*,#150,.F.);
#170=CARTESIAN_POINT('',(25.7499999999973,39.907324,0.));
#180=DIRECTION('',(-6.70574706873594E-14,1.,0.));
#190=VECTOR('',#180,1.);
#200=LINE('',#170,#190);
#210=CARTESIAN_POINT('',(25.7499999999976,34.9099589413118,0.));
#220=VERTEX_POINT('',#210);
#230=EDGE_CURVE('',#140,#220,#200,.T.);
#240=ORIENTED_EDGE('',*,*,#230,.F.);
#250=CARTESIAN_POINT('',(23.7499999999976,34.9099589413118,0.));
#260=DIRECTION('',(0.,0.,-1.));
#270=DIRECTION('',(-1.,0.,-0.));
#280=AXIS2_PLACEMENT_3D('',#250,#260,#270);
#290=CIRCLE('',#280,2.);
#300=CARTESIAN_POINT('',(25.6293852415693,35.5939992279635,0.));
#310=VERTEX_POINT('',#300);
#320=EDGE_CURVE('',#310,#220,#290,.T.);
#330=ORIENTED_EDGE('',*,*,#320,.T.);
#340=CARTESIAN_POINT('',(24.0594634138241,39.907324,0.));
#350=DIRECTION('',(-0.342020143325844,0.939692620785845,-0.));
#360=VECTOR('',#350,1.);
#370=LINE('',#340,#360);
#380=CARTESIAN_POINT('',(20.9894850825713,48.3420201433272,0.));
#390=VERTEX_POINT('',#380);
#400=EDGE_CURVE('',#310,#390,#370,.T.);
#410=ORIENTED_EDGE('',*,*,#400,.F.);
#420=CARTESIAN_POINT('',(20.0497924617854,48.0000000000014,0.));
#430=DIRECTION('',(0.,-0.,1.));
#440=DIRECTION('',(1.,0.,-0.));
#450=AXIS2_PLACEMENT_3D('',#420,#430,#440);
#460=CIRCLE('',#450,1.);
#470=CARTESIAN_POINT('',(20.0497924617853,49.0000000000014,0.));
#480=VERTEX_POINT('',#470);
#490=EDGE_CURVE('',#390,#480,#460,.T.);
#500=ORIENTED_EDGE('',*,*,#490,.F.);
#510=CARTESIAN_POINT('',(13.737274,49.0000000000009,0.));
#520=DIRECTION('',(-1.,-6.70574706873594E-14,0.));
#530=VECTOR('',#520,1.);
#540=LINE('',#510,#530);
#550=CARTESIAN_POINT('',(-20.0497924617922,48.9999999999987,0.));
#560=VERTEX_POINT('',#550);
#570=EDGE_CURVE('',#480,#560,#540,.T.);
#580=ORIENTED_EDGE('',*,*,#570,.F.);
#590=CARTESIAN_POINT('',(-20.0497924617921,47.9999999999987,0.));
#600=DIRECTION('',(0.,0.,-1.));
#610=DIRECTION('',(-1.,0.,-0.));
#620=AXIS2_PLACEMENT_3D('',#590,#600,#610);
#630=CIRCLE('',#620,1.);
#640=CARTESIAN_POINT('',(-20.989485082578,48.3420201433244,0.));
#650=VERTEX_POINT('',#640);
#660=EDGE_CURVE('',#650,#560,#630,.T.);
#670=ORIENTED_EDGE('',*,*,#660,.T.);
#680=CARTESIAN_POINT('',(-24.0594634138285,39.907324,0.));
#690=DIRECTION('',(-0.342020143325717,-0.939692620785891,-0.));
#700=VECTOR('',#690,1.);
#710=LINE('',#680,#700);
#720=CARTESIAN_POINT('',(-25.6293852415744,35.59399922796,0.));
#730=VERTEX_POINT('',#720);
#740=EDGE_CURVE('',#650,#730,#710,.T.);
#750=ORIENTED_EDGE('',*,*,#740,.F.);
#760=CARTESIAN_POINT('',(-23.7500000000028,34.9099589413086,0.));
#770=DIRECTION('',(0.,-0.,1.));
#780=DIRECTION('',(1.,0.,-0.));
#790=AXIS2_PLACEMENT_3D('',#760,#770,#780);
#800=CIRCLE('',#790,1.99999999999977);
#810=CARTESIAN_POINT('',(-25.7500000000026,34.9099589413086,0.));
#820=VERTEX_POINT('',#810);
#830=EDGE_CURVE('',#730,#820,#800,.T.);
#840=ORIENTED_EDGE('',*,*,#830,.F.);
#850=CARTESIAN_POINT('',(-25.7500000000029,39.907324,0.));
#860=DIRECTION('',(6.70574706873594E-14,-1.,0.));
#870=VECTOR('',#860,1.);
#880=LINE('',#850,#870);
#890=CARTESIAN_POINT('',(-25.7500000000004,1.50000000000007,0.));
#900=VERTEX_POINT('',#890);
#910=EDGE_CURVE('',#820,#900,#880,.T.);
#920=ORIENTED_EDGE('',*,*,#910,.F.);
#930=CARTESIAN_POINT('',(-24.2500000000004,1.50000000000007,0.));
#940=DIRECTION('',(0.,0.,-1.));
#950=DIRECTION('',(-1.,0.,-0.));
#960=AXIS2_PLACEMENT_3D('',#930,#940,#950);
#970=CIRCLE('',#960,1.5);
#980=CARTESIAN_POINT('',(-24.2500000000004,7.8159700933611E-14,0.));
#990=VERTEX_POINT('',#980);
#1000=EDGE_CURVE('',#990,#900,#970,.T.);
#1010=ORIENTED_EDGE('',*,*,#1000,.T.);
#1020=CARTESIAN_POINT('',(13.737274,2.1316282072803E-14,0.));
#1030=DIRECTION('',(-1.,1.40934096349111E-15,0.));
#1040=VECTOR('',#1030,1.);
#1050=LINE('',#1020,#1040);
#1060=EDGE_CURVE('',#120,#990,#1050,.T.);
#1070=ORIENTED_EDGE('',*,*,#1060,.T.);
#1080=EDGE_LOOP('',(#1070,#1010,#920,#840,#750,#670,#580,#500,#410,#330,
#240,#160));
#1090=FACE_OUTER_BOUND('',#1080,.T.);
#1100=ADVANCED_FACE('',(#1090),#50,.F.);
#1110=CARTESIAN_POINT('',(13.737274,39.907324,1.5));
#1120=DIRECTION('',(0.,0.,1.));
#1130=DIRECTION('',(1.,0.,0.));
#1140=AXIS2_PLACEMENT_3D('',#1110,#1120,#1130);
#1150=PLANE('',#1140);
#1160=CARTESIAN_POINT('',(-24.2500000000004,1.50000000000007,1.5));
#1170=DIRECTION('',(0.,0.,-1.));
#1180=DIRECTION('',(-1.,0.,-0.));
#1190=AXIS2_PLACEMENT_3D('',#1160,#1170,#1180);
#1200=CIRCLE('',#1190,1.5);
#1210=CARTESIAN_POINT('',(-24.2500000000004,7.8159700933611E-14,1.5));
#1220=VERTEX_POINT('',#1210);
#1230=CARTESIAN_POINT('',(-25.7500000000004,1.50000000000007,1.5));
#1240=VERTEX_POINT('',#1230);
#1250=EDGE_CURVE('',#1220,#1240,#1200,.T.);
#1260=ORIENTED_EDGE('',*,*,#1250,.F.);
#1270=CARTESIAN_POINT('',(-25.7500000000029,39.907324,1.5));
#1280=DIRECTION('',(6.70574706873594E-14,-1.,0.));
#1290=VECTOR('',#1280,1.);
#1300=LINE('',#1270,#1290);
#1310=CARTESIAN_POINT('',(-25.7500000000026,34.9099589413086,1.5));
#1320=VERTEX_POINT('',#1310);
#1330=EDGE_CURVE('',#1320,#1240,#1300,.T.);
#1340=ORIENTED_EDGE('',*,*,#1330,.T.);
#1350=CARTESIAN_POINT('',(-23.7500000000028,34.9099589413086,1.5));
#1360=DIRECTION('',(0.,-0.,1.));
#1370=DIRECTION('',(1.,0.,-0.));
#1380=AXIS2_PLACEMENT_3D('',#1350,#1360,#1370);
#1390=CIRCLE('',#1380,1.99999999999977);
#1400=CARTESIAN_POINT('',(-25.6293852415744,35.59399922796,1.5));
#1410=VERTEX_POINT('',#1400);
#1420=EDGE_CURVE('',#1410,#1320,#1390,.T.);
#1430=ORIENTED_EDGE('',*,*,#1420,.T.);
#1440=CARTESIAN_POINT('',(-24.0594634138285,39.907324,1.5));
#1450=DIRECTION('',(-0.342020143325717,-0.939692620785891,-0.));
#1460=VECTOR('',#1450,1.);
#1470=LINE('',#1440,#1460);
#1480=CARTESIAN_POINT('',(-20.989485082578,48.3420201433244,1.5));
#1490=VERTEX_POINT('',#1480);
#1500=EDGE_CURVE('',#1490,#1410,#1470,.T.);
#1510=ORIENTED_EDGE('',*,*,#1500,.T.);
#1520=CARTESIAN_POINT('',(-20.0497924617921,47.9999999999987,1.5));
#1530=DIRECTION('',(0.,0.,-1.));
#1540=DIRECTION('',(-1.,0.,-0.));
#1550=AXIS2_PLACEMENT_3D('',#1520,#1530,#1540);
#1560=CIRCLE('',#1550,1.);
#1570=CARTESIAN_POINT('',(-20.0497924617922,48.9999999999987,1.5));
#1580=VERTEX_POINT('',#1570);
#1590=EDGE_CURVE('',#1490,#1580,#1560,.T.);
#1600=ORIENTED_EDGE('',*,*,#1590,.F.);
#1610=CARTESIAN_POINT('',(13.737274,49.0000000000009,1.5));
#1620=DIRECTION('',(-1.,-6.70574706873594E-14,0.));
#1630=VECTOR('',#1620,1.);
#1640=LINE('',#1610,#1630);
#1650=CARTESIAN_POINT('',(20.0497924617853,49.0000000000014,1.5));
#1660=VERTEX_POINT('',#1650);
#1670=EDGE_CURVE('',#1660,#1580,#1640,.T.);
#1680=ORIENTED_EDGE('',*,*,#1670,.T.);
#1690=CARTESIAN_POINT('',(20.0497924617854,48.0000000000014,1.5));
#1700=DIRECTION('',(0.,-0.,1.));
#1710=DIRECTION('',(1.,0.,-0.));
#1720=AXIS2_PLACEMENT_3D('',#1690,#1700,#1710);
#1730=CIRCLE('',#1720,1.);
#1740=CARTESIAN_POINT('',(20.9894850825713,48.3420201433272,1.5));
#1750=VERTEX_POINT('',#1740);
#1760=EDGE_CURVE('',#1750,#1660,#1730,.T.);
#1770=ORIENTED_EDGE('',*,*,#1760,.T.);
#1780=CARTESIAN_POINT('',(24.0594634138241,39.907324,1.5));
#1790=DIRECTION('',(-0.342020143325844,0.939692620785845,-0.));
#1800=VECTOR('',#1790,1.);
#1810=LINE('',#1780,#1800);
#1820=CARTESIAN_POINT('',(25.6293852415693,35.5939992279635,1.5));
#1830=VERTEX_POINT('',#1820);
#1840=EDGE_CURVE('',#1830,#1750,#1810,.T.);
#1850=ORIENTED_EDGE('',*,*,#1840,.T.);
#1860=CARTESIAN_POINT('',(23.7499999999976,34.9099589413118,1.5));
#1870=DIRECTION('',(0.,0.,-1.));
#1880=DIRECTION('',(-1.,0.,-0.));
#1890=AXIS2_PLACEMENT_3D('',#1860,#1870,#1880);
#1900=CIRCLE('',#1890,2.);
#1910=CARTESIAN_POINT('',(25.7499999999976,34.9099589413118,1.5));
#1920=VERTEX_POINT('',#1910);
#1930=EDGE_CURVE('',#1830,#1920,#1900,.T.);
#1940=ORIENTED_EDGE('',*,*,#1930,.F.);
#1950=CARTESIAN_POINT('',(25.7499999999973,39.907324,1.5));
#1960=DIRECTION('',(-6.70574706873594E-14,1.,0.));
#1970=VECTOR('',#1960,1.);
#1980=LINE('',#1950,#1970);
#1990=CARTESIAN_POINT('',(25.7499999999999,1.5,1.5));
#2000=VERTEX_POINT('',#1990);
#2010=EDGE_CURVE('',#2000,#1920,#1980,.T.);
#2020=ORIENTED_EDGE('',*,*,#2010,.T.);
#2030=CARTESIAN_POINT('',(24.2499999999999,1.5,1.5));
#2040=DIRECTION('',(-0.,0.,1.));
#2050=DIRECTION('',(1.,0.,0.));
#2060=AXIS2_PLACEMENT_3D('',#2030,#2040,#2050);
#2070=CIRCLE('',#2060,1.5);
#2080=CARTESIAN_POINT('',(24.2499999999999,7.105427357601E-15,1.5));
#2090=VERTEX_POINT('',#2080);
#2100=EDGE_CURVE('',#2090,#2000,#2070,.T.);
#2110=ORIENTED_EDGE('',*,*,#2100,.T.);
#2120=CARTESIAN_POINT('',(13.737274,2.1316282072803E-14,1.5));
#2130=DIRECTION('',(-1.,1.40934096349111E-15,0.));
#2140=VECTOR('',#2130,1.);
#2150=LINE('',#2120,#2140);
#2160=EDGE_CURVE('',#2090,#1220,#2150,.T.);
#2170=ORIENTED_EDGE('',*,*,#2160,.F.);
#2180=EDGE_LOOP('',(#2170,#2110,#2020,#1940,#1850,#1770,#1680,#1600,
#1510,#1430,#1340,#1260));
#2190=FACE_OUTER_BOUND('',#2180,.T.);
#2200=ADVANCED_FACE('',(#2190),#1150,.T.);
#2210=CARTESIAN_POINT('',(-25.3501709277329,36.3611342504278,
-3.5527136788005E-15));
#2220=DIRECTION('',(-0.939692620785891,0.342020143325717,0.));
#2230=DIRECTION('',(0.342020143325717,0.939692620785891,0.));
#2240=AXIS2_PLACEMENT_3D('',#2210,#2220,#2230);
#2250=PLANE('',#2240);
#2260=CARTESIAN_POINT('',(-20.989485082578,48.3420201433244,0.));
#2270=DIRECTION('',(0.,0.,-1.));
#2280=VECTOR('',#2270,1.);
#2290=LINE('',#2260,#2280);
#2300=EDGE_CURVE('',#1490,#650,#2290,.T.);
#2310=ORIENTED_EDGE('',*,*,#2300,.T.);
#2320=ORIENTED_EDGE('',*,*,#1500,.F.);
#2330=CARTESIAN_POINT('',(-25.6293852415744,35.59399922796,0.));
#2340=DIRECTION('',(0.,-0.,1.));
#2350=VECTOR('',#2340,1.);
#2360=LINE('',#2330,#2350);
#2370=EDGE_CURVE('',#730,#1410,#2360,.T.);
#2380=ORIENTED_EDGE('',*,*,#2370,.T.);
#2390=ORIENTED_EDGE('',*,*,#740,.T.);
#2400=EDGE_LOOP('',(#2390,#2380,#2320,#2310));
#2410=FACE_OUTER_BOUND('',#2400,.T.);
#2420=ADVANCED_FACE('',(#2410),#2250,.T.);
#2430=CARTESIAN_POINT('',(23.7499999999976,34.9099589413118,0.));
#2440=DIRECTION('',(0.,0.,-1.));
#2450=DIRECTION('',(-1.,0.,-0.));
#2460=AXIS2_PLACEMENT_3D('',#2430,#2440,#2450);
#2470=CYLINDRICAL_SURFACE('',#2460,2.);
#2480=ORIENTED_EDGE('',*,*,#1930,.T.);
#2490=CARTESIAN_POINT('',(25.6293852415693,35.5939992279635,0.));
#2500=DIRECTION('',(0.,0.,-1.));
#2510=VECTOR('',#2500,1.);
#2520=LINE('',#2490,#2510);
#2530=EDGE_CURVE('',#1830,#310,#2520,.T.);
#2540=ORIENTED_EDGE('',*,*,#2530,.F.);
#2550=ORIENTED_EDGE('',*,*,#320,.F.);
#2560=CARTESIAN_POINT('',(25.7499999999976,34.9099589413118,0.));
#2570=DIRECTION('',(0.,0.,-1.));
#2580=VECTOR('',#2570,1.);
#2590=LINE('',#2560,#2580);
#2600=EDGE_CURVE('',#1920,#220,#2590,.T.);
#2610=ORIENTED_EDGE('',*,*,#2600,.T.);
#2620=EDGE_LOOP('',(#2610,#2550,#2540,#2480));
#2630=FACE_OUTER_BOUND('',#2620,.T.);
#2640=ADVANCED_FACE('',(#2630),#2470,.T.);
#2650=CARTESIAN_POINT('',(-25.7500000000026,34.9099589413085,
-3.5527136788005E-15));
#2660=DIRECTION('',(-1.,-6.70574706873594E-14,-0.));
#2670=DIRECTION('',(-6.70574706873594E-14,1.,0.));
#2680=AXIS2_PLACEMENT_3D('',#2650,#2660,#2670);
#2690=PLANE('',#2680);
#2700=ORIENTED_EDGE('',*,*,#1330,.F.);
#2710=CARTESIAN_POINT('',(-25.7500000000004,1.50000000000007,0.));
#2720=DIRECTION('',(0.,0.,-1.));
#2730=VECTOR('',#2720,1.);
#2740=LINE('',#2710,#2730);
#2750=EDGE_CURVE('',#1240,#900,#2740,.T.);
#2760=ORIENTED_EDGE('',*,*,#2750,.F.);
#2770=ORIENTED_EDGE('',*,*,#910,.T.);
#2780=CARTESIAN_POINT('',(-25.7500000000026,34.9099589413086,0.));
#2790=DIRECTION('',(0.,-0.,1.));
#2800=VECTOR('',#2790,1.);
#2810=LINE('',#2780,#2800);
#2820=EDGE_CURVE('',#820,#1320,#2810,.T.);
#2830=ORIENTED_EDGE('',*,*,#2820,.F.);
#2840=EDGE_LOOP('',(#2830,#2770,#2760,#2700));
#2850=FACE_OUTER_BOUND('',#2840,.T.);
#2860=ADVANCED_FACE('',(#2850),#2690,.T.);
#2870=CARTESIAN_POINT('',(-4.70000000000358,48.9999999999997,
-3.5527136788005E-15));
#2880=DIRECTION('',(-6.70574706873594E-14,1.,0.));
#2890=DIRECTION('',(1.,6.70574706873594E-14,0.));
#2900=AXIS2_PLACEMENT_3D('',#2870,#2880,#2890);
#2910=PLANE('',#2900);
#2920=ORIENTED_EDGE('',*,*,#570,.T.);
#2930=CARTESIAN_POINT('',(20.0497924617853,49.0000000000014,0.));
#2940=DIRECTION('',(0.,-0.,1.));
#2950=VECTOR('',#2940,1.);
#2960=LINE('',#2930,#2950);
#2970=EDGE_CURVE('',#480,#1660,#2960,.T.);
#2980=ORIENTED_EDGE('',*,*,#2970,.F.);
#2990=ORIENTED_EDGE('',*,*,#1670,.F.);
#3000=CARTESIAN_POINT('',(-20.0497924617922,48.9999999999987,0.));
#3010=DIRECTION('',(0.,0.,-1.));
#3020=VECTOR('',#3010,1.);
#3030=LINE('',#3000,#3020);
#3040=EDGE_CURVE('',#1580,#560,#3030,.T.);
#3050=ORIENTED_EDGE('',*,*,#3040,.F.);
#3060=EDGE_LOOP('',(#3050,#2990,#2980,#2920));
#3070=FACE_OUTER_BOUND('',#3060,.T.);
#3080=ADVANCED_FACE('',(#3070),#2910,.T.);
#3090=CARTESIAN_POINT('',(24.2499999999999,1.5,0.));
#3100=DIRECTION('',(-0.,0.,1.));
#3110=DIRECTION('',(1.,0.,0.));
#3120=AXIS2_PLACEMENT_3D('',#3090,#3100,#3110);
#3130=CYLINDRICAL_SURFACE('',#3120,1.5);
#3140=ORIENTED_EDGE('',*,*,#150,.T.);
#3150=CARTESIAN_POINT('',(24.2499999999999,0.,0.));
#3160=DIRECTION('',(-0.,0.,1.));
#3170=VECTOR('',#3160,1.);
#3180=LINE('',#3150,#3170);
#3190=EDGE_CURVE('',#120,#2090,#3180,.T.);
#3200=ORIENTED_EDGE('',*,*,#3190,.F.);
#3210=ORIENTED_EDGE('',*,*,#2100,.F.);
#3220=CARTESIAN_POINT('',(25.7499999999999,1.5,0.));
#3230=DIRECTION('',(-0.,0.,1.));
#3240=VECTOR('',#3230,1.);
#3250=LINE('',#3220,#3240);
#3260=EDGE_CURVE('',#140,#2000,#3250,.T.);
#3270=ORIENTED_EDGE('',*,*,#3260,.T.);
#3280=EDGE_LOOP('',(#3270,#3210,#3200,#3140));
#3290=FACE_OUTER_BOUND('',#3280,.T.);
#3300=ADVANCED_FACE('',(#3290),#3130,.T.);
#3310=CARTESIAN_POINT('',(29.5,0.,0.));
#3320=DIRECTION('',(-1.40934096349111E-15,-1.,-0.));
#3330=DIRECTION('',(-1.,1.40934096349111E-15,0.));
#3340=AXIS2_PLACEMENT_3D('',#3310,#3320,#3330);
#3350=PLANE('',#3340);
#3360=ORIENTED_EDGE('',*,*,#2160,.T.);
#3370=ORIENTED_EDGE('',*,*,#3190,.T.);
#3380=ORIENTED_EDGE('',*,*,#1060,.F.);
#3390=CARTESIAN_POINT('',(-24.2500000000004,7.105427357601E-14,0.));
#3400=DIRECTION('',(0.,0.,-1.));
#3410=VECTOR('',#3400,1.);
#3420=LINE('',#3390,#3410);
#3430=EDGE_CURVE('',#1220,#990,#3420,.T.);
#3440=ORIENTED_EDGE('',*,*,#3430,.T.);
#3450=EDGE_LOOP('',(#3440,#3380,#3370,#3360));
#3460=FACE_OUTER_BOUND('',#3450,.T.);
#3470=ADVANCED_FACE('',(#3460),#3350,.T.);
#3480=CARTESIAN_POINT('',(-24.2500000000004,1.50000000000007,0.));
#3490=DIRECTION('',(0.,0.,-1.));
#3500=DIRECTION('',(-1.,0.,-0.));
#3510=AXIS2_PLACEMENT_3D('',#3480,#3490,#3500);
#3520=CYLINDRICAL_SURFACE('',#3510,1.5);
#3530=ORIENTED_EDGE('',*,*,#1000,.F.);
#3540=ORIENTED_EDGE('',*,*,#2750,.T.);
#3550=ORIENTED_EDGE('',*,*,#1250,.T.);
#3560=ORIENTED_EDGE('',*,*,#3430,.F.);
#3570=EDGE_LOOP('',(#3560,#3550,#3540,#3530));
#3580=FACE_OUTER_BOUND('',#3570,.T.);
#3590=ADVANCED_FACE('',(#3580),#3520,.T.);
#3600=CARTESIAN_POINT('',(25.7499999999981,27.3465346319366,
-3.5527136788005E-15));
#3610=DIRECTION('',(1.,6.70574706873594E-14,0.));
#3620=DIRECTION('',(6.70574706873594E-14,-1.,0.));
#3630=AXIS2_PLACEMENT_3D('',#3600,#3610,#3620);
#3640=PLANE('',#3630);
#3650=ORIENTED_EDGE('',*,*,#230,.T.);
#3660=ORIENTED_EDGE('',*,*,#3260,.F.);
#3670=ORIENTED_EDGE('',*,*,#2010,.F.);
#3680=ORIENTED_EDGE('',*,*,#2600,.F.);
#3690=EDGE_LOOP('',(#3680,#3670,#3660,#3650));
#3700=FACE_OUTER_BOUND('',#3690,.T.);
#3710=ADVANCED_FACE('',(#3700),#3640,.T.);
#3720=CARTESIAN_POINT('',(25.6293852415693,35.5939992279634,
-3.5527136788005E-15));
#3730=DIRECTION('',(0.939692620785845,0.342020143325844,0.));
#3740=DIRECTION('',(0.342020143325843,-0.939692620785845,0.));
#3750=AXIS2_PLACEMENT_3D('',#3720,#3730,#3740);
#3760=PLANE('',#3750);
#3770=ORIENTED_EDGE('',*,*,#400,.T.);
#3780=ORIENTED_EDGE('',*,*,#2530,.T.);
#3790=ORIENTED_EDGE('',*,*,#1840,.F.);
#3800=CARTESIAN_POINT('',(20.9894850825713,48.3420201433272,0.));
#3810=DIRECTION('',(0.,-0.,1.));
#3820=VECTOR('',#3810,1.);
#3830=LINE('',#3800,#3820);
#3840=EDGE_CURVE('',#390,#1750,#3830,.T.);
#3850=ORIENTED_EDGE('',*,*,#3840,.T.);
#3860=EDGE_LOOP('',(#3850,#3790,#3780,#3770));
#3870=FACE_OUTER_BOUND('',#3860,.T.);
#3880=ADVANCED_FACE('',(#3870),#3760,.T.);
#3890=CARTESIAN_POINT('',(-23.7500000000028,34.9099589413086,0.));
#3900=DIRECTION('',(0.,-0.,1.));
#3910=DIRECTION('',(1.,0.,-0.));
#3920=AXIS2_PLACEMENT_3D('',#3890,#3900,#3910);
#3930=CYLINDRICAL_SURFACE('',#3920,1.99999999999977);
#3940=ORIENTED_EDGE('',*,*,#830,.T.);
#3950=ORIENTED_EDGE('',*,*,#2370,.F.);
#3960=ORIENTED_EDGE('',*,*,#1420,.F.);
#3970=ORIENTED_EDGE('',*,*,#2820,.T.);
#3980=EDGE_LOOP('',(#3970,#3960,#3950,#3940));
#3990=FACE_OUTER_BOUND('',#3980,.T.);
#4000=ADVANCED_FACE('',(#3990),#3930,.T.);
#4010=CARTESIAN_POINT('',(20.0497924617854,48.0000000000014,0.));
#4020=DIRECTION('',(0.,-0.,1.));
#4030=DIRECTION('',(1.,0.,-0.));
#4040=AXIS2_PLACEMENT_3D('',#4010,#4020,#4030);
#4050=CYLINDRICAL_SURFACE('',#4040,1.);
#4060=ORIENTED_EDGE('',*,*,#1760,.F.);
#4070=ORIENTED_EDGE('',*,*,#2970,.T.);
#4080=ORIENTED_EDGE('',*,*,#490,.T.);
#4090=ORIENTED_EDGE('',*,*,#3840,.F.);
#4100=EDGE_LOOP('',(#4090,#4080,#4070,#4060));
#4110=FACE_OUTER_BOUND('',#4100,.T.);
#4120=ADVANCED_FACE('',(#4110),#4050,.T.);
#4130=CARTESIAN_POINT('',(-20.0497924617921,47.9999999999987,0.));
#4140=DIRECTION('',(0.,0.,-1.));
#4150=DIRECTION('',(-1.,0.,-0.));
#4160=AXIS2_PLACEMENT_3D('',#4130,#4140,#4150);
#4170=CYLINDRICAL_SURFACE('',#4160,1.);
#4180=ORIENTED_EDGE('',*,*,#1590,.T.);
#4190=ORIENTED_EDGE('',*,*,#2300,.F.);
#4200=ORIENTED_EDGE('',*,*,#660,.F.);
#4210=ORIENTED_EDGE('',*,*,#3040,.T.);
#4220=EDGE_LOOP('',(#4210,#4200,#4190,#4180));
#4230=FACE_OUTER_BOUND('',#4220,.T.);
#4240=ADVANCED_FACE('',(#4230),#4170,.T.);
#4250=CLOSED_SHELL('',(#2420,#2640,#2860,#3080,#3300,#3470,#3590,#3710,
#3880,#4000,#4120,#4240,#2200,#1100));
#4260=MANIFOLD_SOLID_BREP('',#4250);
#4270=CARTESIAN_POINT('',(0.,0.,0.));
#4280=DIRECTION('',(0.,0.,1.));
#4290=DIRECTION('',(1.,0.,0.));
#4300=AXIS2_PLACEMENT_3D('',#4270,#4280,#4290);
#4310=APPLICATION_CONTEXT(' ');
#4320=APPLICATION_PROTOCOL_DEFINITION(' ','automotive_design',1998,#4310
);
#4330=PRODUCT_CONTEXT('',#4310,'mechanical');
#4340=PRODUCT_DEFINITION_CONTEXT('part definition',#4310,'design');
#4350=PRODUCT('CBD.35-PT','CBD.35-PT','',(#4330));
#4360=PRODUCT_RELATED_PRODUCT_CATEGORY('part',' ',(#4350));
#4370=PRODUCT_DEFINITION_FORMATION_WITH_SPECIFIED_SOURCE('','',#4350,
.BOUGHT.);
#4380=PRODUCT_DEFINITION('',' ',#4370,#4340);
#4390=PRODUCT_DEFINITION_SHAPE('','',#4380);
#4400=DIMENSIONAL_EXPONENTS(1.,0.,0.,0.,0.,0.,0.);
#4410=DIMENSIONAL_EXPONENTS(0.,0.,0.,0.,0.,0.,0.);
#4420=DIMENSIONAL_EXPONENTS(0.,0.,0.,0.,0.,0.,0.);
#4430=(LENGTH_UNIT() NAMED_UNIT(*) SI_UNIT(.MILLI.,.METRE.));
#4440=(NAMED_UNIT(*) PLANE_ANGLE_UNIT() SI_UNIT($,.RADIAN.));
#4450=(NAMED_UNIT(*) SI_UNIT($,.STERADIAN.) SOLID_ANGLE_UNIT());
#4460=(GEOMETRIC_REPRESENTATION_CONTEXT(3) 
GLOBAL_UNCERTAINTY_ASSIGNED_CONTEXT((#4470)) 
GLOBAL_UNIT_ASSIGNED_CONTEXT((#4430,#4440,#4450)) REPRESENTATION_CONTEXT
('',''));
#4470=UNCERTAINTY_MEASURE_WITH_UNIT(LENGTH_MEASURE(1.E-6),#4430,
'distance_accuracy_value','maximum gap value');
#4480=ADVANCED_BREP_SHAPE_REPRESENTATION('',(#4300,#4260),#4460);
#4490=SHAPE_DEFINITION_REPRESENTATION(#4390,#4480);
#4500=COLOUR_RGB('',1.,0.878431439399719,0.701960802078247);
#4510=FILL_AREA_STYLE_COLOUR('',#4500);
#4520=FILL_AREA_STYLE('',(#4510));
#4530=SURFACE_STYLE_FILL_AREA(#4520);
#4540=SURFACE_SIDE_STYLE('',(#4530));
#4550=SURFACE_STYLE_USAGE(.BOTH.,#4540);
#4560=PRESENTATION_STYLE_ASSIGNMENT((#4550));
#4570=STYLED_ITEM('',(#4560),#4260);
#4580=DRAUGHTING_MODEL('',(#4570),#4460);
ENDSEC;
END-ISO-10303-21;
