ISO-10303-21;
HEADER;
FILE_DESCRIPTION (( 'STEP AP203' ),
    '1' );
FILE_NAME ('Êðûøêà íà îòâåòâèòåëü Ò-îáðàçíûé âåðòèêàëüíûé TDSA_38398.STEP',
    '2012-11-09T08:44:25',
    ( 'Àñååâ' ),
    ( '' ),
    'SwSTEP 2.0',
    'SolidWorks 2012',
    '' );
FILE_SCHEMA (( 'CONFIG_CONTROL_DESIGN' ));
ENDSEC;

DATA;
#1 = DIRECTION ( 'NONE',  ( 1.000000000000000000, 0.0000000000000000000, 0.0000000000000000000 ) ) ;
#2 = APPLICATION_PROTOCOL_DEFINITION ( 'international standard', 'config_control_design', 1994, #3 ) ;
#3 = APPLICATION_CONTEXT ( 'configuration controlled 3d designs of mechanical parts and assemblies' ) ;
#4 = APPROVAL_ROLE ( '' ) ;
#5 = PERSON_AND_ORGANIZATION_ROLE ( 'design_owner' ) ;
#6 = APPROVAL_STATUS ( 'not_yet_approved' ) ;
#7 = DATE_TIME_ROLE ( 'classification_date' ) ;
#8 = PERSON_AND_ORGANIZATION_ROLE ( 'classification_officer' ) ;
#9 = SECURITY_CLASSIFICATION_LEVEL ( 'unclassified' ) ;
#10 = PERSON_AND_ORGANIZATION_ROLE ( 'design_supplier' ) ;
#11 = PERSON_AND_ORGANIZATION_ROLE ( 'creator' ) ;
#12 = APPROVAL_ROLE ( '' ) ;
#13 = CARTESIAN_POINT ( 'NONE',  ( 0.0000000000000000000, 0.0000000000000000000, 0.0000000000000000000 ) ) ;
#14 = MECHANICAL_CONTEXT ( 'NONE', #15, 'mechanical' ) ;
#15 = APPLICATION_CONTEXT ( 'configuration controlled 3d designs of mechanical parts and assemblies' ) ;
#16 = APPROVAL_STATUS ( 'not_yet_approved' ) ;
#17 =( NAMED_UNIT ( * ) PLANE_ANGLE_UNIT ( ) SI_UNIT ( $, .RADIAN. ) );
#18 =( NAMED_UNIT ( * ) SI_UNIT ( $, .STERADIAN. ) SOLID_ANGLE_UNIT ( ) );
#19 = APPROVAL_STATUS ( 'not_yet_approved' ) ;
#20 =( LENGTH_UNIT ( ) NAMED_UNIT ( * ) SI_UNIT ( .MILLI., .METRE. ) );
#21 = APPLICATION_PROTOCOL_DEFINITION ( 'international standard', 'config_control_design', 1994, #15 ) ;
#22 = PERSON_AND_ORGANIZATION_ROLE ( 'creator' ) ;
#23 = APPROVAL_ROLE ( '' ) ;
#24 = DATE_TIME_ROLE ( 'creation_date' ) ;
#25 = CARTESIAN_POINT ( 'NONE',  ( 0.0000000000000000000, 0.0000000000000000000, 747.5000000000000000 ) ) ;
#26 = DIRECTION ( 'NONE',  ( 0.0000000000000000000, 0.0000000000000000000, 1.000000000000000000 ) ) ;
#27 = AXIS2_PLACEMENT_3D ( 'NONE', #137, #128, #127 ) ;
#28 = AXIS2_PLACEMENT_3D ( 'NONE', #142, #132, #131 ) ;
#29 = AXIS2_PLACEMENT_3D ( 'NONE', #143, #136, #135 ) ;
#30 = AXIS2_PLACEMENT_3D ( 'NONE', #141, #140, #139 ) ;
#31 = AXIS2_PLACEMENT_3D ( 'NONE', #386, #385, #382 ) ;
#32 = AXIS2_PLACEMENT_3D ( 'NONE', #390, #388, #387 ) ;
#33 = AXIS2_PLACEMENT_3D ( 'NONE', #367, #365, #358 ) ;
#34 = AXIS2_PLACEMENT_3D ( 'NONE', #384, #383, #375 ) ;
#35 = EDGE_CURVE ( 'NONE', #324, #322, #246, .T. ) ;
#36 = EDGE_CURVE ( 'NONE', #324, #316, #342, .T. ) ;
#37 = EDGE_CURVE ( 'NONE', #318, #322, #247, .T. ) ;
#38 = EDGE_CURVE ( 'NONE', #326, #318, #244, .T. ) ;
#39 = EDGE_CURVE ( 'NONE', #326, #324, #287, .T. ) ;
#40 = EDGE_CURVE ( 'NONE', #187, #187, #284, .T. ) ;
#41 = EDGE_CURVE ( 'NONE', #186, #186, #282, .T. ) ;
#42 = EDGE_CURVE ( 'NONE', #331, #318, #280, .T. ) ;
#43 = EDGE_CURVE ( 'NONE', #320, #331, #281, .T. ) ;
#44 = EDGE_CURVE ( 'NONE', #320, #326, #286, .T. ) ;
#45 = EDGE_CURVE ( 'NONE', #317, #331, #242, .T. ) ;
#46 = EDGE_CURVE ( 'NONE', #330, #317, #240, .T. ) ;
#47 = EDGE_CURVE ( 'NONE', #330, #320, #297, .T. ) ;
#48 = EDGE_CURVE ( 'NONE', #321, #317, #236, .T. ) ;
#49 = EDGE_CURVE ( 'NONE', #329, #321, #234, .T. ) ;
#50 = EDGE_CURVE ( 'NONE', #329, #330, #238, .T. ) ;
#51 = EDGE_CURVE ( 'NONE', #321, #328, #230, .T. ) ;
#52 = EDGE_CURVE ( 'NONE', #327, #328, #228, .T. ) ;
#53 = EDGE_CURVE ( 'NONE', #329, #327, #232, .T. ) ;
#54 = EDGE_CURVE ( 'NONE', #185, #185, #226, .T. ) ;
#55 = EDGE_CURVE ( 'NONE', #184, #184, #220, .T. ) ;
#56 = EDGE_CURVE ( 'NONE', #328, #325, #222, .T. ) ;
#57 = EDGE_CURVE ( 'NONE', #327, #323, #221, .T. ) ;
#58 = EDGE_CURVE ( 'NONE', #323, #316, #217, .T. ) ;
#59 = EDGE_CURVE ( 'NONE', #325, #319, #216, .T. ) ;
#60 = EDGE_CURVE ( 'NONE', #316, #319, #224, .T. ) ;
#61 = PRODUCT_RELATED_PRODUCT_CATEGORY ( 'detail', '', ( #91 ) ) ;
#62 = CC_DESIGN_SECURITY_CLASSIFICATION ( #67, ( #72 ) ) ;
#63 = CC_DESIGN_APPROVAL ( #64, ( #67 ) ) ;
#64 = APPROVAL ( #6, 'UNSPECIFIED' ) ;
#65 = CC_DESIGN_DATE_AND_TIME_ASSIGNMENT ( #156, #7, ( #67 ) ) ;
#66 = CC_DESIGN_PERSON_AND_ORGANIZATION_ASSIGNMENT ( #160, #8, ( #67 ) ) ;
#67 = SECURITY_CLASSIFICATION ( '', '', #9 ) ;
#68 = CC_DESIGN_PERSON_AND_ORGANIZATION_ASSIGNMENT ( #161, #10, ( #72 ) ) ;
#69 = CC_DESIGN_PERSON_AND_ORGANIZATION_ASSIGNMENT ( #162, #11, ( #72 ) ) ;
#70 = CC_DESIGN_APPROVAL ( #71, ( #72 ) ) ;
#71 = APPROVAL ( #16, 'UNSPECIFIED' ) ;
#72 = PRODUCT_DEFINITION_FORMATION_WITH_SPECIFIED_SOURCE ( 'ANY', '', #91, .NOT_KNOWN. ) ;
#73 = CC_DESIGN_DATE_AND_TIME_ASSIGNMENT ( #170, #24, ( #77 ) ) ;
#74 = CC_DESIGN_PERSON_AND_ORGANIZATION_ASSIGNMENT ( #174, #22, ( #77 ) ) ;
#75 = CC_DESIGN_APPROVAL ( #76, ( #77 ) ) ;
#76 = APPROVAL ( #19, 'UNSPECIFIED' ) ;
#77 = PRODUCT_DEFINITION ( 'UNKNOWN', '', #72, #353 ) ;
#78 = CC_DESIGN_PERSON_AND_ORGANIZATION_ASSIGNMENT ( #182, #5, ( #91 ) ) ;
#79 = AXIS2_PLACEMENT_3D ( 'NONE', #13, #26, #1 ) ;
#80 = AXIS2_PLACEMENT_3D ( 'NONE', #102, #94, #93 ) ;
#81 =( GEOMETRIC_REPRESENTATION_CONTEXT ( 3 ) GLOBAL_UNCERTAINTY_ASSIGNED_CONTEXT ( ( #147 ) ) GLOBAL_UNIT_ASSIGNED_CONTEXT ( ( #20, #17, #18 ) ) REPRESENTATION_CONTEXT ( 'NONE', 'WORKASPACE' ) );
#82 = AXIS2_PLACEMENT_3D ( 'NONE', #109, #97, #96 ) ;
#83 = AXIS2_PLACEMENT_3D ( 'NONE', #106, #101, #100 ) ;
#84 = AXIS2_PLACEMENT_3D ( 'NONE', #111, #112, #105 ) ;
#85 = AXIS2_PLACEMENT_3D ( 'NONE', #114, #117, #118 ) ;
#86 = AXIS2_PLACEMENT_3D ( 'NONE', #120, #116, #115 ) ;
#87 = AXIS2_PLACEMENT_3D ( 'NONE', #121, #125, #123 ) ;
#88 = AXIS2_PLACEMENT_3D ( 'NONE', #126, #133, #122 ) ;
#89 = EDGE_CURVE ( 'NONE', #323, #325, #212, .T. ) ;
#90 = EDGE_CURVE ( 'NONE', #322, #319, #210, .T. ) ;
#91 = PRODUCT ( 'Êðûøêà íà îòâåòâèòåëü Ò-îáðàçíûé âåðòèêàëüíûé TDSA_38398', 'Êðûøêà íà îòâåòâèòåëü Ò-îáðàçíûé âåðòèêàëüíûé TDSA_38398', '', ( #14 ) ) ;
#92 = PERSON ( 'UNSPECIFIED', 'UNSPECIFIED', 'UNSPECIFIED', ('UNSPECIFIED'), ('UNSPECIFIED'), ('UNSPECIFIED') ) ;
#93 = DIRECTION ( 'NONE',  ( -0.0000000000000000000, 0.0000000000000000000, -1.000000000000000000 ) ) ;
#94 = DIRECTION ( 'NONE',  ( 1.000000000000000000, 0.0000000000000000000, -0.0000000000000000000 ) ) ;
#95 = PLANE ( 'NONE',  #80 ) ;
#96 = DIRECTION ( 'NONE',  ( 0.0000000000000000000, -0.0000000000000000000, -1.000000000000000000 ) ) ;
#97 = DIRECTION ( 'NONE',  ( 0.0000000000000000000, -1.000000000000000000, 0.0000000000000000000 ) ) ;
#98 = CARTESIAN_POINT ( 'NONE',  ( 1.734723475976807100E-015, 0.0000000000000000000, 17.49999999999999600 ) ) ;
#99 = PLANE ( 'NONE',  #82 ) ;
#100 = DIRECTION ( 'NONE',  ( -0.0000000000000000000, 0.0000000000000000000, -1.000000000000000000 ) ) ;
#101 = DIRECTION ( 'NONE',  ( 1.000000000000000000, 0.0000000000000000000, -0.0000000000000000000 ) ) ;
#102 = CARTESIAN_POINT ( 'NONE',  ( 151.0000000000000000, 0.0000000000000000000, 760.0000000000000000 ) ) ;
#103 = PLANE ( 'NONE',  #83 ) ;
#104 = CARTESIAN_POINT ( 'NONE',  ( -151.5999999999999900, -14.00000000000000000, 760.0000000000000000 ) ) ;
#105 = DIRECTION ( 'NONE',  ( 0.0000000000000000000, -0.0000000000000000000, 1.000000000000000000 ) ) ;
#106 = CARTESIAN_POINT ( 'NONE',  ( 151.5999999999999900, 0.0000000000000000000, 760.0000000000000000 ) ) ;
#107 = PLANE ( 'NONE',  #84 ) ;
#108 = CARTESIAN_POINT ( 'NONE',  ( -151.0000000000000000, 0.0000000000000000000, 0.0000000000000000000 ) ) ;
#109 = CARTESIAN_POINT ( 'NONE',  ( 151.5999999999999900, -14.00000000000000000, 760.0000000000000000 ) ) ;
#110 = CARTESIAN_POINT ( 'NONE',  ( 1.734723475976807100E-015, 0.5999999999999999800, 17.49999999999999600 ) ) ;
#111 = CARTESIAN_POINT ( 'NONE',  ( -151.0000000000000000, 0.5999999999999999800, 760.0000000000000000 ) ) ;
#112 = DIRECTION ( 'NONE',  ( 0.0000000000000000000, 1.000000000000000000, 0.0000000000000000000 ) ) ;
#113 = CARTESIAN_POINT ( 'NONE',  ( -151.0000000000000000, -14.00000000000000000, 760.0000000000000000 ) ) ;
#114 = CARTESIAN_POINT ( 'NONE',  ( 0.0000000000000000000, -14.00099999999999900, 745.0000000000000000 ) ) ;
#115 = DIRECTION ( 'NONE',  ( -1.000000000000000000, 0.0000000000000000000, 0.0000000000000000000 ) ) ;
#116 = DIRECTION ( 'NONE',  ( -0.0000000000000000000, 0.0000000000000000000, -1.000000000000000000 ) ) ;
#117 = DIRECTION ( 'NONE',  ( -0.0000000000000000000, 1.000000000000000000, -0.0000000000000000000 ) ) ;
#118 = DIRECTION ( 'NONE',  ( 0.0000000000000000000, 0.0000000000000000000, 1.000000000000000000 ) ) ;
#119 = PLANE ( 'NONE',  #86 ) ;
#120 = CARTESIAN_POINT ( 'NONE',  ( 0.0000000000000000000, 0.0000000000000000000, 0.0000000000000000000 ) ) ;
#121 = CARTESIAN_POINT ( 'NONE',  ( 1.734723475976807100E-015, -14.00099999999999900, 14.99999999999999300 ) ) ;
#122 = DIRECTION ( 'NONE',  ( 0.0000000000000000000, -0.0000000000000000000, 1.000000000000000000 ) ) ;
#123 = DIRECTION ( 'NONE',  ( 0.0000000000000000000, 0.0000000000000000000, 1.000000000000000000 ) ) ;
#124 = PLANE ( 'NONE',  #88 ) ;
#125 = DIRECTION ( 'NONE',  ( -0.0000000000000000000, 1.000000000000000000, -0.0000000000000000000 ) ) ;
#126 = CARTESIAN_POINT ( 'NONE',  ( -151.0000000000000000, 0.0000000000000000000, 760.0000000000000000 ) ) ;
#127 = DIRECTION ( 'NONE',  ( -1.000000000000000000, 0.0000000000000000000, 0.0000000000000000000 ) ) ;
#128 = DIRECTION ( 'NONE',  ( -0.0000000000000000000, 0.0000000000000000000, -1.000000000000000000 ) ) ;
#129 = CARTESIAN_POINT ( 'NONE',  ( 0.0000000000000000000, 0.5999999999999999800, 742.4999999999998900 ) ) ;
#130 = PLANE ( 'NONE',  #27 ) ;
#131 = DIRECTION ( 'NONE',  ( 0.0000000000000000000, -0.0000000000000000000, -1.000000000000000000 ) ) ;
#132 = DIRECTION ( 'NONE',  ( 0.0000000000000000000, -1.000000000000000000, 0.0000000000000000000 ) ) ;
#133 = DIRECTION ( 'NONE',  ( 0.0000000000000000000, 1.000000000000000000, 0.0000000000000000000 ) ) ;
#134 = PLANE ( 'NONE',  #28 ) ;
#135 = DIRECTION ( 'NONE',  ( 0.0000000000000000000, 0.0000000000000000000, 1.000000000000000000 ) ) ;
#136 = DIRECTION ( 'NONE',  ( -1.000000000000000000, 0.0000000000000000000, 0.0000000000000000000 ) ) ;
#137 = CARTESIAN_POINT ( 'NONE',  ( 0.0000000000000000000, 0.0000000000000000000, 760.0000000000000000 ) ) ;
#138 = PLANE ( 'NONE',  #29 ) ;
#139 = DIRECTION ( 'NONE',  ( 0.0000000000000000000, 0.0000000000000000000, 1.000000000000000000 ) ) ;
#140 = DIRECTION ( 'NONE',  ( -1.000000000000000000, 0.0000000000000000000, 0.0000000000000000000 ) ) ;
#141 = CARTESIAN_POINT ( 'NONE',  ( -151.5999999999999900, 0.0000000000000000000, 760.0000000000000000 ) ) ;
#142 = CARTESIAN_POINT ( 'NONE',  ( -151.0000000000000000, -14.00000000000000000, 760.0000000000000000 ) ) ;
#143 = CARTESIAN_POINT ( 'NONE',  ( -151.0000000000000000, 0.0000000000000000000, 760.0000000000000000 ) ) ;
#144 = PLANE ( 'NONE',  #30 ) ;
#145 = CARTESIAN_POINT ( 'NONE',  ( -151.5999999999999900, 0.5999999999999999800, 0.0000000000000000000 ) ) ;
#146 = MANIFOLD_SOLID_BREP ( 'Âûðåç-Âûòÿíóòü1', #347 ) ;
#147 = UNCERTAINTY_MEASURE_WITH_UNIT (LENGTH_MEASURE( 1.000000000000000100E-005 ), #20, 'distance_accuracy_value', 'NONE');
#148 = ADVANCED_BREP_SHAPE_REPRESENTATION ( '¦¨v°úð ýð þªòõªòøªõû¹ T-þñ¨ð÷ývù òõ¨ªøúðû¹ývù TDSA_38398', ( #146, #79 ), #81 ) ;
#149 = APPROVAL_DATE_TIME ( #150, #64 ) ;
#150 = DATE_AND_TIME ( #151, #152 ) ;
#151 = CALENDAR_DATE ( 2012, 9, 11 ) ;
#152 = LOCAL_TIME ( 12, 44, 25.00000000000000000, #153 ) ;
#153 = COORDINATED_UNIVERSAL_TIME_OFFSET ( 4, 0, .AHEAD. ) ;
#154 = APPROVAL_PERSON_ORGANIZATION ( #155, #64, #4 ) ;
#155 = PERSON_AND_ORGANIZATION ( #92, #183 ) ;
#156 = DATE_AND_TIME ( #157, #158 ) ;
#157 = CALENDAR_DATE ( 2012, 9, 11 ) ;
#158 = LOCAL_TIME ( 12, 44, 25.00000000000000000, #159 ) ;
#159 = COORDINATED_UNIVERSAL_TIME_OFFSET ( 4, 0, .AHEAD. ) ;
#160 = PERSON_AND_ORGANIZATION ( #92, #183 ) ;
#161 = PERSON_AND_ORGANIZATION ( #92, #183 ) ;
#162 = PERSON_AND_ORGANIZATION ( #92, #183 ) ;
#163 = APPROVAL_DATE_TIME ( #164, #71 ) ;
#164 = DATE_AND_TIME ( #165, #166 ) ;
#165 = CALENDAR_DATE ( 2012, 9, 11 ) ;
#166 = LOCAL_TIME ( 12, 44, 25.00000000000000000, #167 ) ;
#167 = COORDINATED_UNIVERSAL_TIME_OFFSET ( 4, 0, .AHEAD. ) ;
#168 = APPROVAL_PERSON_ORGANIZATION ( #169, #71, #12 ) ;
#169 = PERSON_AND_ORGANIZATION ( #92, #183 ) ;
#170 = DATE_AND_TIME ( #171, #172 ) ;
#171 = CALENDAR_DATE ( 2012, 9, 11 ) ;
#172 = LOCAL_TIME ( 12, 44, 25.00000000000000000, #173 ) ;
#173 = COORDINATED_UNIVERSAL_TIME_OFFSET ( 4, 0, .AHEAD. ) ;
#174 = PERSON_AND_ORGANIZATION ( #92, #183 ) ;
#175 = APPROVAL_DATE_TIME ( #176, #76 ) ;
#176 = DATE_AND_TIME ( #177, #178 ) ;
#177 = CALENDAR_DATE ( 2012, 9, 11 ) ;
#178 = LOCAL_TIME ( 12, 44, 25.00000000000000000, #179 ) ;
#179 = COORDINATED_UNIVERSAL_TIME_OFFSET ( 4, 0, .AHEAD. ) ;
#180 = APPROVAL_PERSON_ORGANIZATION ( #181, #76, #23 ) ;
#181 = PERSON_AND_ORGANIZATION ( #92, #183 ) ;
#182 = PERSON_AND_ORGANIZATION ( #92, #183 ) ;
#183 = ORGANIZATION ( 'UNSPECIFIED', 'UNSPECIFIED', '' ) ;
#184 = VERTEX_POINT ( 'NONE', #98 ) ;
#185 = VERTEX_POINT ( 'NONE', #25 ) ;
#186 = VERTEX_POINT ( 'NONE', #110 ) ;
#187 = VERTEX_POINT ( 'NONE', #129 ) ;
#188 = FACE_OUTER_BOUND ( 'NONE', #336, .T. ) ;
#189 = SHAPE_DEFINITION_REPRESENTATION ( #352, #148 ) ;
#190 = FACE_BOUND ( 'NONE', #339, .T. ) ;
#191 = CYLINDRICAL_SURFACE ( 'NONE', #85, 2.500000000000057700 ) ;
#192 = FACE_OUTER_BOUND ( 'NONE', #338, .T. ) ;
#193 = FACE_OUTER_BOUND ( 'NONE', #345, .T. ) ;
#194 = FACE_OUTER_BOUND ( 'NONE', #332, .T. ) ;
#195 = CYLINDRICAL_SURFACE ( 'NONE', #87, 2.500000000000002200 ) ;
#196 = FACE_BOUND ( 'NONE', #337, .T. ) ;
#197 = FACE_OUTER_BOUND ( 'NONE', #343, .T. ) ;
#198 = FACE_OUTER_BOUND ( 'NONE', #341, .T. ) ;
#199 = FACE_OUTER_BOUND ( 'NONE', #348, .T. ) ;
#200 = FACE_BOUND ( 'NONE', #351, .T. ) ;
#201 = FACE_OUTER_BOUND ( 'NONE', #349, .T. ) ;
#202 = FACE_OUTER_BOUND ( 'NONE', #333, .T. ) ;
#203 = FACE_OUTER_BOUND ( 'NONE', #346, .T. ) ;
#204 = FACE_OUTER_BOUND ( 'NONE', #335, .T. ) ;
#205 = FACE_OUTER_BOUND ( 'NONE', #334, .T. ) ;
#206 = FACE_OUTER_BOUND ( 'NONE', #340, .T. ) ;
#207 = VECTOR ( 'NONE', #366, 1000.000000000000000 ) ;
#208 = FACE_OUTER_BOUND ( 'NONE', #344, .T. ) ;
#209 = VECTOR ( 'NONE', #370, 1000.000000000000000 ) ;
#210 = LINE ( 'NONE', #369, #207 ) ;
#211 = VECTOR ( 'NONE', #372, 1000.000000000000000 ) ;
#212 = LINE ( 'NONE', #371, #209 ) ;
#213 = VECTOR ( 'NONE', #373, 1000.000000000000000 ) ;
#214 = FACE_BOUND ( 'NONE', #350, .T. ) ;
#215 = VECTOR ( 'NONE', #377, 1000.000000000000000 ) ;
#216 = LINE ( 'NONE', #376, #213 ) ;
#217 = LINE ( 'NONE', #378, #215 ) ;
#218 = VECTOR ( 'NONE', #381, 1000.000000000000000 ) ;
#219 = VECTOR ( 'NONE', #379, 1000.000000000000000 ) ;
#220 = CIRCLE ( 'NONE', #31, 2.500000000000002200 ) ;
#221 = LINE ( 'NONE', #393, #219 ) ;
#222 = LINE ( 'NONE', #394, #218 ) ;
#223 = VECTOR ( 'NONE', #398, 1000.000000000000000 ) ;
#224 = LINE ( 'NONE', #380, #211 ) ;
#225 = VECTOR ( 'NONE', #399, 1000.000000000000000 ) ;
#226 = CIRCLE ( 'NONE', #32, 2.500000000000057700 ) ;
#227 = VECTOR ( 'NONE', #404, 1000.000000000000000 ) ;
#228 = LINE ( 'NONE', #403, #225 ) ;
#229 = VECTOR ( 'NONE', #408, 1000.000000000000000 ) ;
#230 = LINE ( 'NONE', #405, #227 ) ;
#231 = VECTOR ( 'NONE', #409, 1000.000000000000000 ) ;
#232 = LINE ( 'NONE', #417, #223 ) ;
#233 = VECTOR ( 'NONE', #412, 1000.000000000000000 ) ;
#234 = LINE ( 'NONE', #411, #231 ) ;
#235 = VECTOR ( 'NONE', #414, 1000.000000000000000 ) ;
#236 = LINE ( 'NONE', #413, #233 ) ;
#237 = VECTOR ( 'NONE', #416, 1000.000000000000000 ) ;
#238 = LINE ( 'NONE', #424, #229 ) ;
#239 = VECTOR ( 'NONE', #419, 1000.000000000000000 ) ;
#240 = LINE ( 'NONE', #418, #237 ) ;
#241 = VECTOR ( 'NONE', #422, 1000.000000000000000 ) ;
#242 = LINE ( 'NONE', #421, #239 ) ;
#243 = VECTOR ( 'NONE', #407, 1000.000000000000000 ) ;
#244 = LINE ( 'NONE', #401, #283 ) ;
#245 = VECTOR ( 'NONE', #420, 1000.000000000000000 ) ;
#246 = LINE ( 'NONE', #415, #245 ) ;
#247 = LINE ( 'NONE', #402, #291 ) ;
#248 = ORIENTED_EDGE ( 'NONE', *, *, #58, .T. ) ;
#249 = ORIENTED_EDGE ( 'NONE', *, *, #59, .T. ) ;
#250 = ORIENTED_EDGE ( 'NONE', *, *, #58, .F. ) ;
#251 = ORIENTED_EDGE ( 'NONE', *, *, #60, .F. ) ;
#252 = ORIENTED_EDGE ( 'NONE', *, *, #36, .T. ) ;
#253 = ORIENTED_EDGE ( 'NONE', *, *, #35, .F. ) ;
#254 = ORIENTED_EDGE ( 'NONE', *, *, #90, .F. ) ;
#255 = ORIENTED_EDGE ( 'NONE', *, *, #89, .T. ) ;
#256 = ORIENTED_EDGE ( 'NONE', *, *, #41, .F. ) ;
#257 = ORIENTED_EDGE ( 'NONE', *, *, #40, .F. ) ;
#258 = ORIENTED_EDGE ( 'NONE', *, *, #39, .T. ) ;
#259 = ORIENTED_EDGE ( 'NONE', *, *, #38, .F. ) ;
#260 = ORIENTED_EDGE ( 'NONE', *, *, #35, .T. ) ;
#261 = ORIENTED_EDGE ( 'NONE', *, *, #37, .F. ) ;
#262 = ORIENTED_EDGE ( 'NONE', *, *, #60, .T. ) ;
#263 = ORIENTED_EDGE ( 'NONE', *, *, #44, .T. ) ;
#264 = ORIENTED_EDGE ( 'NONE', *, *, #38, .T. ) ;
#265 = ORIENTED_EDGE ( 'NONE', *, *, #46, .F. ) ;
#266 = ORIENTED_EDGE ( 'NONE', *, *, #43, .T. ) ;
#267 = ORIENTED_EDGE ( 'NONE', *, *, #47, .T. ) ;
#268 = ORIENTED_EDGE ( 'NONE', *, *, #49, .F. ) ;
#269 = ORIENTED_EDGE ( 'NONE', *, *, #48, .F. ) ;
#270 = ORIENTED_EDGE ( 'NONE', *, *, #46, .T. ) ;
#271 = ORIENTED_EDGE ( 'NONE', *, *, #50, .T. ) ;
#272 = ORIENTED_EDGE ( 'NONE', *, *, #52, .F. ) ;
#273 = ORIENTED_EDGE ( 'NONE', *, *, #51, .T. ) ;
#274 = ORIENTED_EDGE ( 'NONE', *, *, #49, .T. ) ;
#275 = ORIENTED_EDGE ( 'NONE', *, *, #53, .F. ) ;
#276 = ORIENTED_EDGE ( 'NONE', *, *, #55, .F. ) ;
#277 = ORIENTED_EDGE ( 'NONE', *, *, #54, .F. ) ;
#278 = VECTOR ( 'NONE', #355, 1000.000000000000000 ) ;
#279 = VECTOR ( 'NONE', #423, 1000.000000000000000 ) ;
#280 = LINE ( 'NONE', #396, #278 ) ;
#281 = LINE ( 'NONE', #392, #279 ) ;
#282 = CIRCLE ( 'NONE', #33, 2.500000000000002200 ) ;
#283 = VECTOR ( 'NONE', #397, 1000.000000000000000 ) ;
#284 = CIRCLE ( 'NONE', #34, 2.500000000000057700 ) ;
#285 = VECTOR ( 'NONE', #395, 1000.000000000000000 ) ;
#286 = LINE ( 'NONE', #425, #241 ) ;
#287 = LINE ( 'NONE', #410, #285 ) ;
#288 = ORIENTED_EDGE ( 'NONE', *, *, #42, .F. ) ;
#289 = ORIENTED_EDGE ( 'NONE', *, *, #45, .F. ) ;
#290 = ORIENTED_EDGE ( 'NONE', *, *, #43, .F. ) ;
#291 = VECTOR ( 'NONE', #400, 1000.000000000000000 ) ;
#292 = ORIENTED_EDGE ( 'NONE', *, *, #56, .T. ) ;
#293 = ORIENTED_EDGE ( 'NONE', *, *, #57, .F. ) ;
#294 = ORIENTED_EDGE ( 'NONE', *, *, #89, .F. ) ;
#295 = ORIENTED_EDGE ( 'NONE', *, *, #52, .T. ) ;
#296 = ORIENTED_EDGE ( 'NONE', *, *, #39, .F. ) ;
#297 = LINE ( 'NONE', #389, #235 ) ;
#298 = ORIENTED_EDGE ( 'NONE', *, *, #44, .F. ) ;
#299 = ORIENTED_EDGE ( 'NONE', *, *, #50, .F. ) ;
#300 = ORIENTED_EDGE ( 'NONE', *, *, #57, .T. ) ;
#301 = ORIENTED_EDGE ( 'NONE', *, *, #53, .T. ) ;
#302 = ORIENTED_EDGE ( 'NONE', *, *, #56, .F. ) ;
#303 = ORIENTED_EDGE ( 'NONE', *, *, #59, .F. ) ;
#304 = ORIENTED_EDGE ( 'NONE', *, *, #47, .F. ) ;
#305 = ORIENTED_EDGE ( 'NONE', *, *, #36, .F. ) ;
#306 = ORIENTED_EDGE ( 'NONE', *, *, #45, .T. ) ;
#307 = ORIENTED_EDGE ( 'NONE', *, *, #48, .T. ) ;
#308 = ORIENTED_EDGE ( 'NONE', *, *, #42, .T. ) ;
#309 = ORIENTED_EDGE ( 'NONE', *, *, #51, .F. ) ;
#310 = ORIENTED_EDGE ( 'NONE', *, *, #37, .T. ) ;
#311 = ORIENTED_EDGE ( 'NONE', *, *, #90, .T. ) ;
#312 = ORIENTED_EDGE ( 'NONE', *, *, #55, .T. ) ;
#313 = ORIENTED_EDGE ( 'NONE', *, *, #41, .T. ) ;
#314 = ORIENTED_EDGE ( 'NONE', *, *, #40, .T. ) ;
#315 = ORIENTED_EDGE ( 'NONE', *, *, #54, .T. ) ;
#316 = VERTEX_POINT ( 'NONE', #363 ) ;
#317 = VERTEX_POINT ( 'NONE', #364 ) ;
#318 = VERTEX_POINT ( 'NONE', #362 ) ;
#319 = VERTEX_POINT ( 'NONE', #391 ) ;
#320 = VERTEX_POINT ( 'NONE', #361 ) ;
#321 = VERTEX_POINT ( 'NONE', #374 ) ;
#322 = VERTEX_POINT ( 'NONE', #360 ) ;
#323 = VERTEX_POINT ( 'NONE', #368 ) ;
#324 = VERTEX_POINT ( 'NONE', #359 ) ;
#325 = VERTEX_POINT ( 'NONE', #357 ) ;
#326 = VERTEX_POINT ( 'NONE', #356 ) ;
#327 = VERTEX_POINT ( 'NONE', #354 ) ;
#328 = VERTEX_POINT ( 'NONE', #108 ) ;
#329 = VERTEX_POINT ( 'NONE', #113 ) ;
#330 = VERTEX_POINT ( 'NONE', #104 ) ;
#331 = VERTEX_POINT ( 'NONE', #145 ) ;
#332 = EDGE_LOOP ( 'NONE', ( #261, #259, #258, #260 ) ) ;
#333 = EDGE_LOOP ( 'NONE', ( #289, #265, #267, #266 ) ) ;
#334 = EDGE_LOOP ( 'NONE', ( #248, #305, #296, #298, #304, #299, #301, #300 ) ) ;
#335 = EDGE_LOOP ( 'NONE', ( #269, #268, #271, #270 ) ) ;
#336 = EDGE_LOOP ( 'NONE', ( #249, #251, #250, #255 ) ) ;
#337 = EDGE_LOOP ( 'NONE', ( #257 ) ) ;
#338 = EDGE_LOOP ( 'NONE', ( #254, #253, #252, #262 ) ) ;
#339 = EDGE_LOOP ( 'NONE', ( #256 ) ) ;
#340 = EDGE_LOOP ( 'NONE', ( #273, #272, #275, #274 ) ) ;
#341 = EDGE_LOOP ( 'NONE', ( #288, #290, #263, #264 ) ) ;
#342 = LINE ( 'NONE', #406, #243 ) ;
#343 = EDGE_LOOP ( 'NONE', ( #312 ) ) ;
#344 = EDGE_LOOP ( 'NONE', ( #292, #294, #293, #295 ) ) ;
#345 = EDGE_LOOP ( 'NONE', ( #315 ) ) ;
#346 = EDGE_LOOP ( 'NONE', ( #314 ) ) ;
#347 = CLOSED_SHELL ( 'NONE', ( #437, #436, #435, #434, #426, #428, #427, #430, #429, #432, #431, #433 ) ) ;
#348 = EDGE_LOOP ( 'NONE', ( #313 ) ) ;
#349 = EDGE_LOOP ( 'NONE', ( #303, #302, #309, #307, #306, #308, #310, #311 ) ) ;
#350 = EDGE_LOOP ( 'NONE', ( #277 ) ) ;
#351 = EDGE_LOOP ( 'NONE', ( #276 ) ) ;
#352 = PRODUCT_DEFINITION_SHAPE ( 'NONE', 'NONE',  #77 ) ;
#353 = DESIGN_CONTEXT ( 'detailed design', #3, 'design' ) ;
#354 = CARTESIAN_POINT ( 'NONE',  ( -151.0000000000000000, 0.0000000000000000000, 760.0000000000000000 ) ) ;
#355 = DIRECTION ( 'NONE',  ( 1.000000000000000000, 0.0000000000000000000, 0.0000000000000000000 ) ) ;
#356 = CARTESIAN_POINT ( 'NONE',  ( 151.5999999999999900, 0.5999999999999999800, 760.0000000000000000 ) ) ;
#357 = CARTESIAN_POINT ( 'NONE',  ( 151.0000000000000000, 0.0000000000000000000, 0.0000000000000000000 ) ) ;
#358 = DIRECTION ( 'NONE',  ( 0.0000000000000000000, 0.0000000000000000000, 1.000000000000000000 ) ) ;
#359 = CARTESIAN_POINT ( 'NONE',  ( 151.5999999999999900, -14.00000000000000000, 760.0000000000000000 ) ) ;
#360 = CARTESIAN_POINT ( 'NONE',  ( 151.5999999999999900, -14.00000000000000000, 0.0000000000000000000 ) ) ;
#361 = CARTESIAN_POINT ( 'NONE',  ( -151.5999999999999900, 0.5999999999999999800, 760.0000000000000000 ) ) ;
#362 = CARTESIAN_POINT ( 'NONE',  ( 151.5999999999999900, 0.5999999999999999800, 0.0000000000000000000 ) ) ;
#363 = CARTESIAN_POINT ( 'NONE',  ( 151.0000000000000000, -14.00000000000000000, 760.0000000000000000 ) ) ;
#364 = CARTESIAN_POINT ( 'NONE',  ( -151.5999999999999900, -14.00000000000000000, 0.0000000000000000000 ) ) ;
#365 = DIRECTION ( 'NONE',  ( 0.0000000000000000000, 1.000000000000000000, 0.0000000000000000000 ) ) ;
#366 = DIRECTION ( 'NONE',  ( -1.000000000000000000, 0.0000000000000000000, 0.0000000000000000000 ) ) ;
#367 = CARTESIAN_POINT ( 'NONE',  ( 1.734723475976807100E-015, 0.5999999999999999800, 14.99999999999999300 ) ) ;
#368 = CARTESIAN_POINT ( 'NONE',  ( 151.0000000000000000, 0.0000000000000000000, 760.0000000000000000 ) ) ;
#369 = CARTESIAN_POINT ( 'NONE',  ( 151.5999999999999900, -14.00000000000000000, 0.0000000000000000000 ) ) ;
#370 = DIRECTION ( 'NONE',  ( -0.0000000000000000000, -0.0000000000000000000, -1.000000000000000000 ) ) ;
#371 = CARTESIAN_POINT ( 'NONE',  ( 151.0000000000000000, 0.0000000000000000000, 760.0000000000000000 ) ) ;
#372 = DIRECTION ( 'NONE',  ( -0.0000000000000000000, -0.0000000000000000000, -1.000000000000000000 ) ) ;
#373 = DIRECTION ( 'NONE',  ( 0.0000000000000000000, -1.000000000000000000, 0.0000000000000000000 ) ) ;
#374 = CARTESIAN_POINT ( 'NONE',  ( -151.0000000000000000, -14.00000000000000000, 0.0000000000000000000 ) ) ;
#375 = DIRECTION ( 'NONE',  ( 0.0000000000000000000, 0.0000000000000000000, -1.000000000000000000 ) ) ;
#376 = CARTESIAN_POINT ( 'NONE',  ( 151.0000000000000000, 0.0000000000000000000, 0.0000000000000000000 ) ) ;
#377 = DIRECTION ( 'NONE',  ( 0.0000000000000000000, -1.000000000000000000, 0.0000000000000000000 ) ) ;
#378 = CARTESIAN_POINT ( 'NONE',  ( 151.0000000000000000, 0.0000000000000000000, 760.0000000000000000 ) ) ;
#379 = DIRECTION ( 'NONE',  ( 1.000000000000000000, 0.0000000000000000000, 0.0000000000000000000 ) ) ;
#380 = CARTESIAN_POINT ( 'NONE',  ( 151.0000000000000000, -14.00000000000000000, 760.0000000000000000 ) ) ;
#381 = DIRECTION ( 'NONE',  ( 1.000000000000000000, 0.0000000000000000000, 0.0000000000000000000 ) ) ;
#382 = DIRECTION ( 'NONE',  ( 0.0000000000000000000, 0.0000000000000000000, 1.000000000000000000 ) ) ;
#383 = DIRECTION ( 'NONE',  ( -0.0000000000000000000, 1.000000000000000000, -0.0000000000000000000 ) ) ;
#384 = CARTESIAN_POINT ( 'NONE',  ( 0.0000000000000000000, 0.5999999999999999800, 745.0000000000000000 ) ) ;
#385 = DIRECTION ( 'NONE',  ( -0.0000000000000000000, -1.000000000000000000, -0.0000000000000000000 ) ) ;
#386 = CARTESIAN_POINT ( 'NONE',  ( 1.734723475976807100E-015, 0.0000000000000000000, 14.99999999999999300 ) ) ;
#387 = DIRECTION ( 'NONE',  ( 0.0000000000000000000, 0.0000000000000000000, 1.000000000000000000 ) ) ;
#388 = DIRECTION ( 'NONE',  ( -0.0000000000000000000, -1.000000000000000000, -0.0000000000000000000 ) ) ;
#389 = CARTESIAN_POINT ( 'NONE',  ( -151.5999999999999900, 0.0000000000000000000, 760.0000000000000000 ) ) ;
#390 = CARTESIAN_POINT ( 'NONE',  ( 0.0000000000000000000, 0.0000000000000000000, 745.0000000000000000 ) ) ;
#391 = CARTESIAN_POINT ( 'NONE',  ( 151.0000000000000000, -14.00000000000000000, 0.0000000000000000000 ) ) ;
#392 = CARTESIAN_POINT ( 'NONE',  ( -151.5999999999999900, 0.5999999999999999800, 760.0000000000000000 ) ) ;
#393 = CARTESIAN_POINT ( 'NONE',  ( -151.0000000000000000, 0.0000000000000000000, 760.0000000000000000 ) ) ;
#394 = CARTESIAN_POINT ( 'NONE',  ( -151.0000000000000000, 0.0000000000000000000, 0.0000000000000000000 ) ) ;
#395 = DIRECTION ( 'NONE',  ( -0.0000000000000000000, -1.000000000000000000, 0.0000000000000000000 ) ) ;
#396 = CARTESIAN_POINT ( 'NONE',  ( -151.0000000000000000, 0.5999999999999999800, 0.0000000000000000000 ) ) ;
#397 = DIRECTION ( 'NONE',  ( -0.0000000000000000000, -0.0000000000000000000, -1.000000000000000000 ) ) ;
#398 = DIRECTION ( 'NONE',  ( -0.0000000000000000000, 1.000000000000000000, -0.0000000000000000000 ) ) ;
#399 = DIRECTION ( 'NONE',  ( -0.0000000000000000000, -0.0000000000000000000, -1.000000000000000000 ) ) ;
#400 = DIRECTION ( 'NONE',  ( -0.0000000000000000000, -1.000000000000000000, 0.0000000000000000000 ) ) ;
#401 = CARTESIAN_POINT ( 'NONE',  ( 151.5999999999999900, 0.5999999999999999800, 760.0000000000000000 ) ) ;
#402 = CARTESIAN_POINT ( 'NONE',  ( 151.5999999999999900, 0.0000000000000000000, 0.0000000000000000000 ) ) ;
#403 = CARTESIAN_POINT ( 'NONE',  ( -151.0000000000000000, 0.0000000000000000000, 760.0000000000000000 ) ) ;
#404 = DIRECTION ( 'NONE',  ( -0.0000000000000000000, 1.000000000000000000, -0.0000000000000000000 ) ) ;
#405 = CARTESIAN_POINT ( 'NONE',  ( -151.0000000000000000, 0.0000000000000000000, 0.0000000000000000000 ) ) ;
#406 = CARTESIAN_POINT ( 'NONE',  ( 151.5999999999999900, -14.00000000000000000, 760.0000000000000000 ) ) ;
#407 = DIRECTION ( 'NONE',  ( -1.000000000000000000, 0.0000000000000000000, 0.0000000000000000000 ) ) ;
#408 = DIRECTION ( 'NONE',  ( -1.000000000000000000, 0.0000000000000000000, 0.0000000000000000000 ) ) ;
#409 = DIRECTION ( 'NONE',  ( -0.0000000000000000000, -0.0000000000000000000, -1.000000000000000000 ) ) ;
#410 = CARTESIAN_POINT ( 'NONE',  ( 151.5999999999999900, 0.0000000000000000000, 760.0000000000000000 ) ) ;
#411 = CARTESIAN_POINT ( 'NONE',  ( -151.0000000000000000, -14.00000000000000000, 760.0000000000000000 ) ) ;
#412 = DIRECTION ( 'NONE',  ( -1.000000000000000000, 0.0000000000000000000, 0.0000000000000000000 ) ) ;
#413 = CARTESIAN_POINT ( 'NONE',  ( -151.0000000000000000, -14.00000000000000000, 0.0000000000000000000 ) ) ;
#414 = DIRECTION ( 'NONE',  ( 0.0000000000000000000, 1.000000000000000000, 0.0000000000000000000 ) ) ;
#415 = CARTESIAN_POINT ( 'NONE',  ( 151.5999999999999900, -14.00000000000000000, 760.0000000000000000 ) ) ;
#416 = DIRECTION ( 'NONE',  ( -0.0000000000000000000, -0.0000000000000000000, -1.000000000000000000 ) ) ;
#417 = CARTESIAN_POINT ( 'NONE',  ( -151.0000000000000000, 0.0000000000000000000, 760.0000000000000000 ) ) ;
#418 = CARTESIAN_POINT ( 'NONE',  ( -151.5999999999999900, -14.00000000000000000, 760.0000000000000000 ) ) ;
#419 = DIRECTION ( 'NONE',  ( 0.0000000000000000000, 1.000000000000000000, 0.0000000000000000000 ) ) ;
#420 = DIRECTION ( 'NONE',  ( -0.0000000000000000000, -0.0000000000000000000, -1.000000000000000000 ) ) ;
#421 = CARTESIAN_POINT ( 'NONE',  ( -151.5999999999999900, 0.0000000000000000000, 0.0000000000000000000 ) ) ;
#422 = DIRECTION ( 'NONE',  ( 1.000000000000000000, 0.0000000000000000000, 0.0000000000000000000 ) ) ;
#423 = DIRECTION ( 'NONE',  ( -0.0000000000000000000, -0.0000000000000000000, -1.000000000000000000 ) ) ;
#424 = CARTESIAN_POINT ( 'NONE',  ( -151.0000000000000000, -14.00000000000000000, 760.0000000000000000 ) ) ;
#425 = CARTESIAN_POINT ( 'NONE',  ( -151.0000000000000000, 0.5999999999999999800, 760.0000000000000000 ) ) ;
#426 = ADVANCED_FACE ( 'NONE', ( #202 ), #144, .T. ) ;
#427 = ADVANCED_FACE ( 'NONE', ( #206 ), #138, .F. ) ;
#428 = ADVANCED_FACE ( 'NONE', ( #204 ), #134, .T. ) ;
#429 = ADVANCED_FACE ( 'NONE', ( #205 ), #130, .F. ) ;
#430 = ADVANCED_FACE ( 'NONE', ( #214, #200, #208 ), #124, .F. ) ;
#431 = ADVANCED_FACE ( 'NONE', ( #199, #197 ), #195, .F. ) ;
#432 = ADVANCED_FACE ( 'NONE', ( #201 ), #119, .T. ) ;
#433 = ADVANCED_FACE ( 'NONE', ( #203, #193 ), #191, .F. ) ;
#434 = ADVANCED_FACE ( 'NONE', ( #196, #190, #198 ), #107, .T. ) ;
#435 = ADVANCED_FACE ( 'NONE', ( #194 ), #103, .T. ) ;
#436 = ADVANCED_FACE ( 'NONE', ( #192 ), #99, .T. ) ;
#437 = ADVANCED_FACE ( 'NONE', ( #188 ), #95, .F. ) ;
ENDSEC;
END-ISO-10303-21;
