ISO-10303-21;
HEADER;
FILE_DESCRIPTION (( 'STEP AP203' ),
    '1' );
FILE_NAME ('CTA12D-M075-K02 Ìóôòà ñîåäèíèòåëüíàÿ äëÿ äâóñòåííîé òðóáû d75.STEP',
    '2016-06-20T13:41:05',
    ( '' ),
    ( '' ),
    'SwSTEP 2.0',
    'SolidWorks 2014',
    '' );
FILE_SCHEMA (( 'CONFIG_CONTROL_DESIGN' ));
ENDSEC;

DATA;
#1 = DIRECTION ( 'NONE',  ( -0.0000000000000000000, 0.0000000000000000000, 1.000000000000000000 ) ) ;
#2 = DIRECTION ( 'NONE',  ( -1.000000000000000000, -0.0000000000000000000, -0.0000000000000000000 ) ) ;
#3 = DIRECTION ( 'NONE',  ( 0.0000000000000000000, 0.0000000000000000000, 1.000000000000000000 ) ) ;
#4 = CARTESIAN_POINT ( 'NONE',  ( 1.500000000000056800, 0.0000000000000000000, 0.0000000000000000000 ) ) ;
#5 = EDGE_LOOP ( 'NONE', ( #142 ) ) ;
#6 = AXIS2_PLACEMENT_3D ( 'NONE', #16, #2, #32 ) ;
#7 = DIRECTION ( 'NONE',  ( -1.000000000000000000, -0.0000000000000000000, -0.0000000000000000000 ) ) ;
#8 = CARTESIAN_POINT ( 'NONE',  ( -1229.991103041891800, 0.0000000000000000000, 0.0000000000000000000 ) ) ;
#9 = DIRECTION ( 'NONE',  ( 0.0000000000000000000, 0.0000000000000000000, 1.000000000000000000 ) ) ;
#10 = ORIENTED_EDGE ( 'NONE', *, *, #182, .T. ) ;
#11 = CARTESIAN_POINT ( 'NONE',  ( -1229.991103041891800, 0.0000000000000000000, 0.0000000000000000000 ) ) ;
#12 = DIRECTION ( 'NONE',  ( -1.000000000000000000, -0.0000000000000000000, -0.0000000000000000000 ) ) ;
#13 = COORDINATED_UNIVERSAL_TIME_OFFSET ( 3, 0, .AHEAD. ) ;
#14 = DIRECTION ( 'NONE',  ( 0.0000000000000000000, 0.0000000000000000000, 1.000000000000000000 ) ) ;
#15 = EDGE_CURVE ( 'NONE', #111, #111, #115, .T. ) ;
#16 = CARTESIAN_POINT ( 'NONE',  ( -1229.991103041891800, 0.0000000000000000000, 0.0000000000000000000 ) ) ;
#17 = EDGE_LOOP ( 'NONE', ( #208 ) ) ;
#18 = SECURITY_CLASSIFICATION ( '', '', #229 ) ;
#19 = CC_DESIGN_DATE_AND_TIME_ASSIGNMENT ( #155, #245, ( #160 ) ) ;
#20 = DIRECTION ( 'NONE',  ( -1.000000000000000000, -0.0000000000000000000, -0.0000000000000000000 ) ) ;
#21 = CARTESIAN_POINT ( 'NONE',  ( 0.0000000000000000000, 0.0000000000000000000, 0.0000000000000000000 ) ) ;
#22 = ORIENTED_EDGE ( 'NONE', *, *, #224, .T. ) ;
#23 = DIRECTION ( 'NONE',  ( 0.0000000000000000000, 0.0000000000000000000, 1.000000000000000000 ) ) ;
#24 = DIRECTION ( 'NONE',  ( 0.0000000000000000000, 0.0000000000000000000, -1.000000000000000000 ) ) ;
#25 = PLANE ( 'NONE',  #187 ) ;
#26 = LOCAL_TIME ( 16, 41, 5.000000000000000000, #82 ) ;
#27 = APPROVAL ( #174, 'UNSPECIFIED' ) ;
#28 = CC_DESIGN_PERSON_AND_ORGANIZATION_ASSIGNMENT ( #177, #230, ( #199 ) ) ;
#29 = DIRECTION ( 'NONE',  ( -1.000000000000000000, -0.0000000000000000000, -0.0000000000000000000 ) ) ;
#30 = DIRECTION ( 'NONE',  ( 1.000000000000000000, 0.0000000000000000000, 0.0000000000000000000 ) ) ;
#31 = CARTESIAN_POINT ( 'NONE',  ( -1.972948183318390400, 0.0000000000000000000, 0.0000000000000000000 ) ) ;
#32 = DIRECTION ( 'NONE',  ( 0.0000000000000000000, 0.0000000000000000000, 1.000000000000000000 ) ) ;
#33 = AXIS2_PLACEMENT_3D ( 'NONE', #128, #246, #1 ) ;
#34 = FACE_OUTER_BOUND ( 'NONE', #152, .T. ) ;
#35 = CALENDAR_DATE ( 2016, 20, 6 ) ;
#36 = CYLINDRICAL_SURFACE ( 'NONE', #6, 36.00000000000002800 ) ;
#37 = EDGE_CURVE ( 'NONE', #68, #68, #157, .T. ) ;
#38 = EDGE_LOOP ( 'NONE', ( #117 ) ) ;
#39 = CARTESIAN_POINT ( 'NONE',  ( 64.99999999999994300, 0.0000000000000000000, 0.0000000000000000000 ) ) ;
#40 = CC_DESIGN_DATE_AND_TIME_ASSIGNMENT ( #170, #173, ( #18 ) ) ;
#41 = DIRECTION ( 'NONE',  ( 0.0000000000000000000, 0.0000000000000000000, 1.000000000000000000 ) ) ;
#42 = CC_DESIGN_PERSON_AND_ORGANIZATION_ASSIGNMENT ( #44, #235, ( #125 ) ) ;
#43 = DIRECTION ( 'NONE',  ( -1.000000000000000000, -0.0000000000000000000, -0.0000000000000000000 ) ) ;
#44 = PERSON_AND_ORGANIZATION ( #137, #94 ) ;
#45 = CC_DESIGN_APPROVAL ( #72, ( #199 ) ) ;
#46 = DIRECTION ( 'NONE',  ( -1.000000000000000000, -0.0000000000000000000, -0.0000000000000000000 ) ) ;
#47 = CARTESIAN_POINT ( 'NONE',  ( -1229.991103041891800, 0.0000000000000000000, 0.0000000000000000000 ) ) ;
#48 = AXIS2_PLACEMENT_3D ( 'NONE', #31, #29, #23 ) ;
#49 = DIRECTION ( 'NONE',  ( 0.0000000000000000000, 0.0000000000000000000, -1.000000000000000000 ) ) ;
#50 = DIRECTION ( 'NONE',  ( -1.000000000000000000, -0.0000000000000000000, -0.0000000000000000000 ) ) ;
#51 = CARTESIAN_POINT ( 'NONE',  ( -1.500000000000056800, 0.0000000000000000000, 0.0000000000000000000 ) ) ;
#52 = EDGE_CURVE ( 'NONE', #141, #141, #176, .T. ) ;
#53 = DIRECTION ( 'NONE',  ( 0.0000000000000000000, 0.0000000000000000000, 1.000000000000000000 ) ) ;
#54 = CC_DESIGN_PERSON_AND_ORGANIZATION_ASSIGNMENT ( #143, #198, ( #18 ) ) ;
#55 = CC_DESIGN_PERSON_AND_ORGANIZATION_ASSIGNMENT ( #247, #231, ( #199 ) ) ;
#56 = COORDINATED_UNIVERSAL_TIME_OFFSET ( 3, 0, .AHEAD. ) ;
#57 = DIRECTION ( 'NONE',  ( -1.000000000000000000, -0.0000000000000000000, -0.0000000000000000000 ) ) ;
#58 = ORIENTED_EDGE ( 'NONE', *, *, #144, .F. ) ;
#59 = CARTESIAN_POINT ( 'NONE',  ( 1.972948183318390400, 0.0000000000000000000, 0.0000000000000000000 ) ) ;
#60 = AXIS2_PLACEMENT_3D ( 'NONE', #51, #57, #63 ) ;
#61 = VERTEX_POINT ( 'NONE', #212 ) ;
#62 = FACE_OUTER_BOUND ( 'NONE', #17, .T. ) ;
#63 = DIRECTION ( 'NONE',  ( 0.0000000000000000000, 0.0000000000000000000, 1.000000000000000000 ) ) ;
#64 = LOCAL_TIME ( 16, 41, 5.000000000000000000, #109 ) ;
#65 = AXIS2_PLACEMENT_3D ( 'NONE', #151, #50, #14 ) ;
#66 = DIRECTION ( 'NONE',  ( 0.0000000000000000000, 0.0000000000000000000, 1.000000000000000000 ) ) ;
#67 = DIRECTION ( 'NONE',  ( 0.0000000000000000000, 0.0000000000000000000, 1.000000000000000000 ) ) ;
#68 = VERTEX_POINT ( 'NONE', #205 ) ;
#69 = AXIS2_PLACEMENT_3D ( 'NONE', #21, #228, #240 ) ;
#70 = FACE_OUTER_BOUND ( 'NONE', #80, .T. ) ;
#71 = DIRECTION ( 'NONE',  ( 0.0000000000000000000, 0.0000000000000000000, 1.000000000000000000 ) ) ;
#72 = APPROVAL ( #244, 'UNSPECIFIED' ) ;
#73 = APPROVAL_DATE_TIME ( #113, #72 ) ;
#74 = ORIENTED_EDGE ( 'NONE', *, *, #52, .T. ) ;
#75 = AXIS2_PLACEMENT_3D ( 'NONE', #202, #12, #9 ) ;
#76 = CIRCLE ( 'NONE', #60, 36.00000000000002800 ) ;
#77 = CC_DESIGN_SECURITY_CLASSIFICATION ( #18, ( #199 ) ) ;
#78 = ORIENTED_EDGE ( 'NONE', *, *, #52, .F. ) ;
#79 = APPROVAL_PERSON_ORGANIZATION ( #118, #72, #243 ) ;
#80 = EDGE_LOOP ( 'NONE', ( #180 ) ) ;
#81 = APPROVAL ( #238, 'UNSPECIFIED' ) ;
#82 = COORDINATED_UNIVERSAL_TIME_OFFSET ( 3, 0, .AHEAD. ) ;
#83 = ADVANCED_FACE ( 'NONE', ( #112, #108 ), #167, .F. ) ;
#84 = ADVANCED_FACE ( 'NONE', ( #241, #62 ), #135, .F. ) ;
#85 = AXIS2_PLACEMENT_3D ( 'NONE', #204, #227, #226 ) ;
#86 = FACE_OUTER_BOUND ( 'NONE', #116, .T. ) ;
#87 = PRODUCT_RELATED_PRODUCT_CATEGORY ( 'detail', '', ( #125 ) ) ;
#88 = ADVANCED_FACE ( 'NONE', ( #188, #103 ), #138, .T. ) ;
#89 = LOCAL_TIME ( 16, 41, 5.000000000000000000, #126 ) ;
#90 = ADVANCED_FACE ( 'NONE', ( #86, #219 ), #96, .F. ) ;
#91 = ADVANCED_FACE ( 'NONE', ( #169, #195 ), #25, .F. ) ;
#92 = AXIS2_PLACEMENT_3D ( 'NONE', #4, #200, #49 ) ;
#93 = ADVANCED_FACE ( 'NONE', ( #70, #127 ), #36, .F. ) ;
#94 = ORGANIZATION ( 'UNSPECIFIED', 'UNSPECIFIED', '' ) ;
#95 = ADVANCED_FACE ( 'NONE', ( #34, #191 ), #248, .F. ) ;
#96 = CYLINDRICAL_SURFACE ( 'NONE', #166, 37.49999999999999300 ) ;
#97 = EDGE_LOOP ( 'NONE', ( #171 ) ) ;
#98 = ADVANCED_FACE ( 'NONE', ( #163, #130 ), #184, .F. ) ;
#99 = DIRECTION ( 'NONE',  ( -1.000000000000000000, -0.0000000000000000000, -0.0000000000000000000 ) ) ;
#100 = AXIS2_PLACEMENT_3D ( 'NONE', #217, #216, #215 ) ;
#101 = EDGE_LOOP ( 'NONE', ( #74 ) ) ;
#102 = APPROVAL_DATE_TIME ( #133, #27 ) ;
#103 = FACE_OUTER_BOUND ( 'NONE', #156, .T. ) ;
#104 = ORIENTED_EDGE ( 'NONE', *, *, #15, .T. ) ;
#105 = APPROVAL_PERSON_ORGANIZATION ( #139, #27, #175 ) ;
#106 = ORIENTED_EDGE ( 'NONE', *, *, #182, .F. ) ;
#107 = VERTEX_POINT ( 'NONE', #214 ) ;
#108 = FACE_BOUND ( 'NONE', #38, .T. ) ;
#109 = COORDINATED_UNIVERSAL_TIME_OFFSET ( 3, 0, .AHEAD. ) ;
#110 = AXIS2_PLACEMENT_3D ( 'NONE', #59, #46, #53 ) ;
#111 = VERTEX_POINT ( 'NONE', #225 ) ;
#112 = FACE_OUTER_BOUND ( 'NONE', #154, .T. ) ;
#113 = DATE_AND_TIME ( #150, #181 ) ;
#114 = UNCERTAINTY_MEASURE_WITH_UNIT (LENGTH_MEASURE( 1.000000000000000100E-005 ), #222, 'distance_accuracy_value', 'NONE');
#115 = CIRCLE ( 'NONE', #65, 39.00000000000000000 ) ;
#116 = EDGE_LOOP ( 'NONE', ( #122 ) ) ;
#117 = ORIENTED_EDGE ( 'NONE', *, *, #192, .T. ) ;
#118 = PERSON_AND_ORGANIZATION ( #137, #94 ) ;
#119 = AXIS2_PLACEMENT_3D ( 'NONE', #39, #43, #41 ) ;
#120 = DESIGN_CONTEXT ( 'detailed design', #234, 'design' ) ;
#121 = EDGE_LOOP ( 'NONE', ( #106 ) ) ;
#122 = ORIENTED_EDGE ( 'NONE', *, *, #224, .F. ) ;
#123 = PERSON_AND_ORGANIZATION ( #137, #94 ) ;
#124 = ORIENTED_EDGE ( 'NONE', *, *, #144, .T. ) ;
#125 = PRODUCT ( 'CTA12D-M075-K02 Ìóôòà ñîåäèíèòåëüíàÿ äëÿ äâóñòåííîé òðóáû d75', 'CTA12D-M075-K02 Ìóôòà ñîåäèíèòåëüíàÿ äëÿ äâóñòåííîé òðóáû d75', '', ( #239 ) ) ;
#126 = COORDINATED_UNIVERSAL_TIME_OFFSET ( 3, 0, .AHEAD. ) ;
#127 = FACE_OUTER_BOUND ( 'NONE', #146, .T. ) ;
#128 = CARTESIAN_POINT ( 'NONE',  ( 64.99999999999997200, 37.49999999999999300, 0.0000000000000000000 ) ) ;
#129 = DIRECTION ( 'NONE',  ( -1.000000000000000000, -0.0000000000000000000, -0.0000000000000000000 ) ) ;
#130 = FACE_OUTER_BOUND ( 'NONE', #164, .T. ) ;
#131 = EDGE_LOOP ( 'NONE', ( #58 ) ) ;
#132 = CC_DESIGN_APPROVAL ( #81, ( #160 ) ) ;
#133 = DATE_AND_TIME ( #165, #203 ) ;
#134 = AXIS2_PLACEMENT_3D ( 'NONE', #11, #7, #66 ) ;
#135 = CYLINDRICAL_SURFACE ( 'NONE', #134, 37.49999999999999300 ) ;
#136 = VERTEX_POINT ( 'NONE', #207 ) ;
#137 = PERSON ( 'UNSPECIFIED', 'UNSPECIFIED', 'UNSPECIFIED', ('UNSPECIFIED'), ('UNSPECIFIED'), ('UNSPECIFIED') ) ;
#138 = CYLINDRICAL_SURFACE ( 'NONE', #145, 39.00000000000000000 ) ;
#139 = PERSON_AND_ORGANIZATION ( #137, #94 ) ;
#140 = CLOSED_SHELL ( 'NONE', ( #84, #98, #93, #83, #90, #95, #88, #91 ) ) ;
#141 = VERTEX_POINT ( 'NONE', #218 ) ;
#142 = ORIENTED_EDGE ( 'NONE', *, *, #197, .F. ) ;
#143 = PERSON_AND_ORGANIZATION ( #137, #94 ) ;
#144 = EDGE_CURVE ( 'NONE', #107, #107, #159, .T. ) ;
#145 = AXIS2_PLACEMENT_3D ( 'NONE', #8, #99, #67 ) ;
#146 = EDGE_LOOP ( 'NONE', ( #10 ) ) ;
#147 = CIRCLE ( 'NONE', #85, 37.49999999999999300 ) ;
#148 = ADVANCED_BREP_SHAPE_REPRESENTATION ( 'CTA12D-M075-K02 ¦º¯ªð ¸þõôøýøªõû¹ýð  ôû  ôòº¸ªõýýþù ª¨ºñv d75', ( #206, #69 ), #178 ) ;
#149 = ORIENTED_EDGE ( 'NONE', *, *, #37, .T. ) ;
#150 = CALENDAR_DATE ( 2016, 20, 6 ) ;
#151 = CARTESIAN_POINT ( 'NONE',  ( -64.99999999999994300, 0.0000000000000000000, 0.0000000000000000000 ) ) ;
#152 = EDGE_LOOP ( 'NONE', ( #161 ) ) ;
#153 = CIRCLE ( 'NONE', #100, 37.49999999999999300 ) ;
#154 = EDGE_LOOP ( 'NONE', ( #78 ) ) ;
#155 = DATE_AND_TIME ( #186, #26 ) ;
#156 = EDGE_LOOP ( 'NONE', ( #149 ) ) ;
#157 = CIRCLE ( 'NONE', #119, 39.00000000000000000 ) ;
#158 = APPROVAL_DATE_TIME ( #189, #81 ) ;
#159 = CIRCLE ( 'NONE', #48, 37.49999999999999300 ) ;
#160 = PRODUCT_DEFINITION ( 'UNKNOWN', '', #199, #120 ) ;
#161 = ORIENTED_EDGE ( 'NONE', *, *, #37, .F. ) ;
#162 = APPROVAL_PERSON_ORGANIZATION ( #194, #81, #237 ) ;
#163 = FACE_BOUND ( 'NONE', #121, .T. ) ;
#164 = EDGE_LOOP ( 'NONE', ( #124 ) ) ;
#165 = CALENDAR_DATE ( 2016, 20, 6 ) ;
#166 = AXIS2_PLACEMENT_3D ( 'NONE', #47, #129, #71 ) ;
#167 = CONICAL_SURFACE ( 'NONE', #92, 36.00000000000002800, 1.265363707695967200 ) ;
#168 = VERTEX_POINT ( 'NONE', #210 ) ;
#169 = FACE_BOUND ( 'NONE', #5, .T. ) ;
#170 = DATE_AND_TIME ( #223, #64 ) ;
#171 = ORIENTED_EDGE ( 'NONE', *, *, #15, .F. ) ;
#172 = SHAPE_DEFINITION_REPRESENTATION ( #193, #148 ) ;
#173 = DATE_TIME_ROLE ( 'classification_date' ) ;
#174 = APPROVAL_STATUS ( 'not_yet_approved' ) ;
#175 = APPROVAL_ROLE ( '' ) ;
#176 = CIRCLE ( 'NONE', #110, 37.49999999999999300 ) ;
#177 = PERSON_AND_ORGANIZATION ( #137, #94 ) ;
#178 =( GEOMETRIC_REPRESENTATION_CONTEXT ( 3 ) GLOBAL_UNCERTAINTY_ASSIGNED_CONTEXT ( ( #114 ) ) GLOBAL_UNIT_ASSIGNED_CONTEXT ( ( #222, #221, #220 ) ) REPRESENTATION_CONTEXT ( 'NONE', 'WORKASPACE' ) );
#179 = CIRCLE ( 'NONE', #75, 36.00000000000002800 ) ;
#180 = ORIENTED_EDGE ( 'NONE', *, *, #192, .F. ) ;
#181 = LOCAL_TIME ( 16, 41, 5.000000000000000000, #13 ) ;
#182 = EDGE_CURVE ( 'NONE', #61, #61, #76, .T. ) ;
#183 = EDGE_LOOP ( 'NONE', ( #104 ) ) ;
#184 = CONICAL_SURFACE ( 'NONE', #209, 37.49999999999999300, 1.265363707695967200 ) ;
#185 = CC_DESIGN_PERSON_AND_ORGANIZATION_ASSIGNMENT ( #123, #236, ( #160 ) ) ;
#186 = CALENDAR_DATE ( 2016, 20, 6 ) ;
#187 = AXIS2_PLACEMENT_3D ( 'NONE', #190, #30, #24 ) ;
#188 = FACE_OUTER_BOUND ( 'NONE', #97, .T. ) ;
#189 = DATE_AND_TIME ( #35, #89 ) ;
#190 = CARTESIAN_POINT ( 'NONE',  ( -64.99999999999997200, 37.49999999999999300, 0.0000000000000000000 ) ) ;
#191 = FACE_BOUND ( 'NONE', #196, .T. ) ;
#192 = EDGE_CURVE ( 'NONE', #213, #213, #179, .T. ) ;
#193 = PRODUCT_DEFINITION_SHAPE ( 'NONE', 'NONE',  #160 ) ;
#194 = PERSON_AND_ORGANIZATION ( #137, #94 ) ;
#195 = FACE_OUTER_BOUND ( 'NONE', #183, .T. ) ;
#196 = EDGE_LOOP ( 'NONE', ( #22 ) ) ;
#197 = EDGE_CURVE ( 'NONE', #168, #168, #147, .T. ) ;
#198 = PERSON_AND_ORGANIZATION_ROLE ( 'classification_officer' ) ;
#199 = PRODUCT_DEFINITION_FORMATION_WITH_SPECIFIED_SOURCE ( 'ANY', '', #125, .NOT_KNOWN. ) ;
#200 = DIRECTION ( 'NONE',  ( 1.000000000000000000, 0.0000000000000000000, 0.0000000000000000000 ) ) ;
#201 = CC_DESIGN_APPROVAL ( #27, ( #18 ) ) ;
#202 = CARTESIAN_POINT ( 'NONE',  ( 1.500000000000056800, 0.0000000000000000000, 0.0000000000000000000 ) ) ;
#203 = LOCAL_TIME ( 16, 41, 5.000000000000000000, #56 ) ;
#204 = CARTESIAN_POINT ( 'NONE',  ( -64.99999999999994300, 0.0000000000000000000, 0.0000000000000000000 ) ) ;
#205 = CARTESIAN_POINT ( 'NONE',  ( 64.99999999999994300, 0.0000000000000000000, 39.00000000000000000 ) ) ;
#206 = MANIFOLD_SOLID_BREP ( 'Ïîâåðíóòü1', #140 ) ;
#207 = CARTESIAN_POINT ( 'NONE',  ( 64.99999999999994300, 0.0000000000000000000, 37.49999999999999300 ) ) ;
#208 = ORIENTED_EDGE ( 'NONE', *, *, #197, .T. ) ;
#209 = AXIS2_PLACEMENT_3D ( 'NONE', #249, #20, #3 ) ;
#210 = CARTESIAN_POINT ( 'NONE',  ( -64.99999999999994300, 0.0000000000000000000, 37.49999999999999300 ) ) ;
#211 = CARTESIAN_POINT ( 'NONE',  ( 1.500000000000056800, 0.0000000000000000000, 36.00000000000002800 ) ) ;
#212 = CARTESIAN_POINT ( 'NONE',  ( -1.500000000000056800, 0.0000000000000000000, 36.00000000000002800 ) ) ;
#213 = VERTEX_POINT ( 'NONE', #211 ) ;
#214 = CARTESIAN_POINT ( 'NONE',  ( -1.972948183318390400, 0.0000000000000000000, 37.49999999999999300 ) ) ;
#215 = DIRECTION ( 'NONE',  ( 0.0000000000000000000, 0.0000000000000000000, 1.000000000000000000 ) ) ;
#216 = DIRECTION ( 'NONE',  ( -1.000000000000000000, -0.0000000000000000000, -0.0000000000000000000 ) ) ;
#217 = CARTESIAN_POINT ( 'NONE',  ( 64.99999999999994300, 0.0000000000000000000, 0.0000000000000000000 ) ) ;
#218 = CARTESIAN_POINT ( 'NONE',  ( 1.972948183318390400, 0.0000000000000000000, 37.49999999999999300 ) ) ;
#219 = FACE_OUTER_BOUND ( 'NONE', #101, .T. ) ;
#220 =( NAMED_UNIT ( * ) SI_UNIT ( $, .STERADIAN. ) SOLID_ANGLE_UNIT ( ) );
#221 =( NAMED_UNIT ( * ) PLANE_ANGLE_UNIT ( ) SI_UNIT ( $, .RADIAN. ) );
#222 =( LENGTH_UNIT ( ) NAMED_UNIT ( * ) SI_UNIT ( .MILLI., .METRE. ) );
#223 = CALENDAR_DATE ( 2016, 20, 6 ) ;
#224 = EDGE_CURVE ( 'NONE', #136, #136, #153, .T. ) ;
#225 = CARTESIAN_POINT ( 'NONE',  ( -64.99999999999994300, 0.0000000000000000000, 39.00000000000000000 ) ) ;
#226 = DIRECTION ( 'NONE',  ( 0.0000000000000000000, 0.0000000000000000000, 1.000000000000000000 ) ) ;
#227 = DIRECTION ( 'NONE',  ( -1.000000000000000000, -0.0000000000000000000, -0.0000000000000000000 ) ) ;
#228 = DIRECTION ( 'NONE',  ( 0.0000000000000000000, 0.0000000000000000000, 1.000000000000000000 ) ) ;
#229 = SECURITY_CLASSIFICATION_LEVEL ( 'unclassified' ) ;
#230 = PERSON_AND_ORGANIZATION_ROLE ( 'design_supplier' ) ;
#231 = PERSON_AND_ORGANIZATION_ROLE ( 'creator' ) ;
#232 = APPLICATION_PROTOCOL_DEFINITION ( 'international standard', 'config_control_design', 1994, #242 ) ;
#233 = APPLICATION_PROTOCOL_DEFINITION ( 'international standard', 'config_control_design', 1994, #234 ) ;
#234 = APPLICATION_CONTEXT ( 'configuration controlled 3d designs of mechanical parts and assemblies' ) ;
#235 = PERSON_AND_ORGANIZATION_ROLE ( 'design_owner' ) ;
#236 = PERSON_AND_ORGANIZATION_ROLE ( 'creator' ) ;
#237 = APPROVAL_ROLE ( '' ) ;
#238 = APPROVAL_STATUS ( 'not_yet_approved' ) ;
#239 = MECHANICAL_CONTEXT ( 'NONE', #242, 'mechanical' ) ;
#240 = DIRECTION ( 'NONE',  ( 1.000000000000000000, 0.0000000000000000000, 0.0000000000000000000 ) ) ;
#241 = FACE_OUTER_BOUND ( 'NONE', #131, .T. ) ;
#242 = APPLICATION_CONTEXT ( 'configuration controlled 3d designs of mechanical parts and assemblies' ) ;
#243 = APPROVAL_ROLE ( '' ) ;
#244 = APPROVAL_STATUS ( 'not_yet_approved' ) ;
#245 = DATE_TIME_ROLE ( 'creation_date' ) ;
#246 = DIRECTION ( 'NONE',  ( -1.000000000000000000, 0.0000000000000000000, -0.0000000000000000000 ) ) ;
#247 = PERSON_AND_ORGANIZATION ( #137, #94 ) ;
#248 = PLANE ( 'NONE',  #33 ) ;
#249 = CARTESIAN_POINT ( 'NONE',  ( -1.972948183318390400, 0.0000000000000000000, 0.0000000000000000000 ) ) ;
ENDSEC;
END-ISO-10303-21;
