ISO-10303-21;
HEADER;
FILE_DESCRIPTION (( 'STEP AP203' ),
    '1' );
FILE_NAME ('Êðûøêà íà îòâåòâèòåëü Ò-îáðàçíûé âåðòèêàëüíûé TD_38309.STEP',
    '2012-11-15T11:28:06',
    ( 'Àñååâ' ),
    ( '' ),
    'SwSTEP 2.0',
    'SolidWorks 2012',
    '' );
FILE_SCHEMA (( 'CONFIG_CONTROL_DESIGN' ));
ENDSEC;

DATA;
#1 = LINE ( 'NONE', #245, #9 ) ;
#2 = FACE_BOUND ( 'NONE', #374, .T. ) ;
#3 = VECTOR ( 'NONE', #248, 1000.000000000000000 ) ;
#4 = LINE ( 'NONE', #242, #7 ) ;
#5 = LINE ( 'NONE', #247, #3 ) ;
#6 = LINE ( 'NONE', #246, #11 ) ;
#7 = VECTOR ( 'NONE', #250, 1000.000000000000000 ) ;
#8 = LINE ( 'NONE', #249, #17 ) ;
#9 = VECTOR ( 'NONE', #251, 1000.000000000000000 ) ;
#10 = LINE ( 'NONE', #254, #13 ) ;
#11 = VECTOR ( 'NONE', #253, 1000.000000000000000 ) ;
#12 = LINE ( 'NONE', #256, #15 ) ;
#13 = VECTOR ( 'NONE', #255, 1000.000000000000000 ) ;
#14 = LINE ( 'NONE', #252, #23 ) ;
#15 = VECTOR ( 'NONE', #257, 1000.000000000000000 ) ;
#16 = LINE ( 'NONE', #259, #19 ) ;
#17 = VECTOR ( 'NONE', #258, 1000.000000000000000 ) ;
#18 = LINE ( 'NONE', #261, #21 ) ;
#19 = VECTOR ( 'NONE', #260, 1000.000000000000000 ) ;
#20 = VERTEX_POINT ( 'NONE', #296 ) ;
#21 = VECTOR ( 'NONE', #263, 1000.000000000000000 ) ;
#22 = CIRCLE ( 'NONE', #80, 2.500000000000002200 ) ;
#23 = VECTOR ( 'NONE', #264, 1000.000000000000000 ) ;
#24 = LINE ( 'NONE', #262, #28 ) ;
#25 = LINE ( 'NONE', #265, #27 ) ;
#26 = CIRCLE ( 'NONE', #77, 2.500000000000002200 ) ;
#27 = VECTOR ( 'NONE', #275, 1000.000000000000000 ) ;
#28 = VECTOR ( 'NONE', #273, 1000.000000000000000 ) ;
#29 = LINE ( 'NONE', #276, #31 ) ;
#30 = VERTEX_POINT ( 'NONE', #295 ) ;
#31 = VECTOR ( 'NONE', #278, 1000.000000000000000 ) ;
#32 = VERTEX_POINT ( 'NONE', #293 ) ;
#33 = VERTEX_POINT ( 'NONE', #292 ) ;
#34 = SHAPE_DEFINITION_REPRESENTATION ( #185, #151 ) ;
#35 = ORGANIZATION ( 'UNSPECIFIED', 'UNSPECIFIED', '' ) ;
#36 = PERSON_AND_ORGANIZATION ( #182, #35 ) ;
#37 = PERSON_AND_ORGANIZATION ( #182, #35 ) ;
#38 = APPROVAL_PERSON_ORGANIZATION ( #37, #72, #131 ) ;
#39 = COORDINATED_UNIVERSAL_TIME_OFFSET ( 4, 0, .AHEAD. ) ;
#40 = LOCAL_TIME ( 15, 28, 6.000000000000000000, #39 ) ;
#41 = CALENDAR_DATE ( 2012, 15, 11 ) ;
#42 = DATE_AND_TIME ( #41, #40 ) ;
#43 = APPROVAL_DATE_TIME ( #42, #72 ) ;
#44 = PERSON_AND_ORGANIZATION ( #182, #35 ) ;
#45 = COORDINATED_UNIVERSAL_TIME_OFFSET ( 4, 0, .AHEAD. ) ;
#46 = LOCAL_TIME ( 15, 28, 6.000000000000000000, #45 ) ;
#47 = CALENDAR_DATE ( 2012, 15, 11 ) ;
#48 = DATE_AND_TIME ( #47, #46 ) ;
#49 = PERSON_AND_ORGANIZATION ( #182, #35 ) ;
#50 = APPROVAL_PERSON_ORGANIZATION ( #49, #86, #135 ) ;
#51 = COORDINATED_UNIVERSAL_TIME_OFFSET ( 4, 0, .AHEAD. ) ;
#52 = LOCAL_TIME ( 15, 28, 6.000000000000000000, #51 ) ;
#53 = CALENDAR_DATE ( 2012, 15, 11 ) ;
#54 = DATE_AND_TIME ( #53, #52 ) ;
#55 = APPROVAL_DATE_TIME ( #54, #86 ) ;
#56 = PERSON_AND_ORGANIZATION ( #182, #35 ) ;
#57 = PERSON_AND_ORGANIZATION ( #182, #35 ) ;
#58 = PERSON_AND_ORGANIZATION ( #182, #35 ) ;
#59 = COORDINATED_UNIVERSAL_TIME_OFFSET ( 4, 0, .AHEAD. ) ;
#60 = LOCAL_TIME ( 15, 28, 6.000000000000000000, #59 ) ;
#61 = CALENDAR_DATE ( 2012, 15, 11 ) ;
#62 = DATE_AND_TIME ( #61, #60 ) ;
#63 = PERSON_AND_ORGANIZATION ( #182, #35 ) ;
#64 = APPROVAL_PERSON_ORGANIZATION ( #63, #90, #142 ) ;
#65 = COORDINATED_UNIVERSAL_TIME_OFFSET ( 4, 0, .AHEAD. ) ;
#66 = LOCAL_TIME ( 15, 28, 6.000000000000000000, #65 ) ;
#67 = CALENDAR_DATE ( 2012, 15, 11 ) ;
#68 = DATE_AND_TIME ( #67, #66 ) ;
#69 = APPROVAL_DATE_TIME ( #68, #90 ) ;
#70 = CC_DESIGN_APPROVAL ( #72, ( #73 ) ) ;
#71 = CC_DESIGN_PERSON_AND_ORGANIZATION_ASSIGNMENT ( #44, #132, ( #73 ) ) ;
#72 = APPROVAL ( #130, 'UNSPECIFIED' ) ;
#73 = PRODUCT_DEFINITION ( 'UNKNOWN', '', #84, #186 ) ;
#74 = CC_DESIGN_PERSON_AND_ORGANIZATION_ASSIGNMENT ( #36, #127, ( #183 ) ) ;
#75 = AXIS2_PLACEMENT_3D ( 'NONE', #294, #297, #125 ) ;
#76 =( GEOMETRIC_REPRESENTATION_CONTEXT ( 3 ) GLOBAL_UNCERTAINTY_ASSIGNED_CONTEXT ( ( #152 ) ) GLOBAL_UNIT_ASSIGNED_CONTEXT ( ( #120, #121, #122 ) ) REPRESENTATION_CONTEXT ( 'NONE', 'WORKASPACE' ) );
#77 = AXIS2_PLACEMENT_3D ( 'NONE', #270, #271, #272 ) ;
#78 = AXIS2_PLACEMENT_3D ( 'NONE', #240, #243, #244 ) ;
#79 = EDGE_CURVE ( 'NONE', #383, #386, #302, .T. ) ;
#80 = AXIS2_PLACEMENT_3D ( 'NONE', #267, #268, #269 ) ;
#81 = EDGE_CURVE ( 'NONE', #33, #33, #389, .T. ) ;
#82 = AXIS2_PLACEMENT_3D ( 'NONE', #237, #238, #239 ) ;
#83 = AXIS2_PLACEMENT_3D ( 'NONE', #203, #234, #235 ) ;
#84 = PRODUCT_DEFINITION_FORMATION_WITH_SPECIFIED_SOURCE ( 'ANY', '', #183, .NOT_KNOWN. ) ;
#85 = CC_DESIGN_DATE_AND_TIME_ASSIGNMENT ( #48, #133, ( #73 ) ) ;
#86 = APPROVAL ( #134, 'UNSPECIFIED' ) ;
#87 = CC_DESIGN_APPROVAL ( #86, ( #84 ) ) ;
#88 = CC_DESIGN_PERSON_AND_ORGANIZATION_ASSIGNMENT ( #56, #136, ( #84 ) ) ;
#89 = CC_DESIGN_PERSON_AND_ORGANIZATION_ASSIGNMENT ( #57, #137, ( #84 ) ) ;
#90 = APPROVAL ( #141, 'UNSPECIFIED' ) ;
#91 = CC_DESIGN_DATE_AND_TIME_ASSIGNMENT ( #62, #140, ( #93 ) ) ;
#92 = CC_DESIGN_PERSON_AND_ORGANIZATION_ASSIGNMENT ( #58, #139, ( #93 ) ) ;
#93 = SECURITY_CLASSIFICATION ( '', '', #138 ) ;
#94 = CC_DESIGN_APPROVAL ( #90, ( #93 ) ) ;
#95 = PRODUCT_RELATED_PRODUCT_CATEGORY ( 'detail', '', ( #183 ) ) ;
#96 = CC_DESIGN_SECURITY_CLASSIFICATION ( #93, ( #84 ) ) ;
#97 = AXIS2_PLACEMENT_3D ( 'NONE', #119, #403, #177 ) ;
#98 = AXIS2_PLACEMENT_3D ( 'NONE', #204, #227, #147 ) ;
#99 = AXIS2_PLACEMENT_3D ( 'NONE', #199, #153, #154 ) ;
#100 = EDGE_CURVE ( 'NONE', #387, #394, #393, .T. ) ;
#101 = AXIS2_PLACEMENT_3D ( 'NONE', #180, #179, #143 ) ;
#102 = EDGE_CURVE ( 'NONE', #30, #30, #160, .T. ) ;
#103 = EDGE_CURVE ( 'NONE', #391, #378, #173, .T. ) ;
#104 = EDGE_CURVE ( 'NONE', #387, #299, #165, .T. ) ;
#105 = AXIS2_PLACEMENT_3D ( 'NONE', #148, #146, #181 ) ;
#106 = AXIS2_PLACEMENT_3D ( 'NONE', #230, #228, #149 ) ;
#107 = EDGE_CURVE ( 'NONE', #390, #392, #159, .T. ) ;
#108 = EDGE_CURVE ( 'NONE', #381, #378, #164, .T. ) ;
#109 = AXIS2_PLACEMENT_3D ( 'NONE', #229, #233, #231 ) ;
#110 = EDGE_CURVE ( 'NONE', #299, #381, #158, .T. ) ;
#111 = EDGE_CURVE ( 'NONE', #394, #391, #162, .T. ) ;
#112 = AXIS2_PLACEMENT_3D ( 'NONE', #407, #402, #232 ) ;
#113 = EDGE_CURVE ( 'NONE', #299, #391, #161, .T. ) ;
#114 = AXIS2_PLACEMENT_3D ( 'NONE', #412, #406, #419 ) ;
#115 = EDGE_CURVE ( 'NONE', #390, #381, #169, .T. ) ;
#116 = AXIS2_PLACEMENT_3D ( 'NONE', #429, #428, #427 ) ;
#117 = AXIS2_PLACEMENT_3D ( 'NONE', #434, #433, #432 ) ;
#118 = EDGE_CURVE ( 'NONE', #392, #378, #156, .T. ) ;
#119 = CARTESIAN_POINT ( 'NONE',  ( 301.5999999999999700, -14.00000000000000000, 347.0000000000000000 ) ) ;
#120 =( LENGTH_UNIT ( ) NAMED_UNIT ( * ) SI_UNIT ( .MILLI., .METRE. ) );
#121 =( NAMED_UNIT ( * ) PLANE_ANGLE_UNIT ( ) SI_UNIT ( $, .RADIAN. ) );
#122 =( NAMED_UNIT ( * ) SI_UNIT ( $, .STERADIAN. ) SOLID_ANGLE_UNIT ( ) );
#123 = APPLICATION_PROTOCOL_DEFINITION ( 'international standard', 'config_control_design', 1994, #124 ) ;
#124 = APPLICATION_CONTEXT ( 'configuration controlled 3d designs of mechanical parts and assemblies' ) ;
#125 = DIRECTION ( 'NONE',  ( 1.000000000000000000, 0.0000000000000000000, 0.0000000000000000000 ) ) ;
#126 = MECHANICAL_CONTEXT ( 'NONE', #124, 'mechanical' ) ;
#127 = PERSON_AND_ORGANIZATION_ROLE ( 'design_owner' ) ;
#128 = APPLICATION_CONTEXT ( 'configuration controlled 3d designs of mechanical parts and assemblies' ) ;
#129 = APPLICATION_PROTOCOL_DEFINITION ( 'international standard', 'config_control_design', 1994, #128 ) ;
#130 = APPROVAL_STATUS ( 'not_yet_approved' ) ;
#131 = APPROVAL_ROLE ( '' ) ;
#132 = PERSON_AND_ORGANIZATION_ROLE ( 'creator' ) ;
#133 = DATE_TIME_ROLE ( 'creation_date' ) ;
#134 = APPROVAL_STATUS ( 'not_yet_approved' ) ;
#135 = APPROVAL_ROLE ( '' ) ;
#136 = PERSON_AND_ORGANIZATION_ROLE ( 'creator' ) ;
#137 = PERSON_AND_ORGANIZATION_ROLE ( 'design_supplier' ) ;
#138 = SECURITY_CLASSIFICATION_LEVEL ( 'unclassified' ) ;
#139 = PERSON_AND_ORGANIZATION_ROLE ( 'classification_officer' ) ;
#140 = DATE_TIME_ROLE ( 'classification_date' ) ;
#141 = APPROVAL_STATUS ( 'not_yet_approved' ) ;
#142 = APPROVAL_ROLE ( '' ) ;
#143 = DIRECTION ( 'NONE',  ( -1.000000000000000000, 0.0000000000000000000, 0.0000000000000000000 ) ) ;
#144 = PLANE ( 'NONE',  #101 ) ;
#145 = PLANE ( 'NONE',  #105 ) ;
#146 = DIRECTION ( 'NONE',  ( 0.0000000000000000000, 1.000000000000000000, 0.0000000000000000000 ) ) ;
#147 = DIRECTION ( 'NONE',  ( 0.0000000000000000000, 0.0000000000000000000, 1.000000000000000000 ) ) ;
#148 = CARTESIAN_POINT ( 'NONE',  ( -301.0000000000000000, 0.0000000000000000000, 347.0000000000000000 ) ) ;
#149 = DIRECTION ( 'NONE',  ( 0.0000000000000000000, 0.0000000000000000000, 1.000000000000000000 ) ) ;
#150 = MANIFOLD_SOLID_BREP ( 'Âûðåç-Âûòÿíóòü1', #388 ) ;
#151 = ADVANCED_BREP_SHAPE_REPRESENTATION ( '¦¨v°úð ýð þªòõªòøªõû¹ T-þñ¨ð÷ývù òõ¨ªøúðû¹ývù TD_38309', ( #150, #75 ), #76 ) ;
#152 = UNCERTAINTY_MEASURE_WITH_UNIT (LENGTH_MEASURE( 1.000000000000000100E-005 ), #120, 'distance_accuracy_value', 'NONE');
#153 = DIRECTION ( 'NONE',  ( 0.0000000000000000000, -1.000000000000000000, 0.0000000000000000000 ) ) ;
#154 = DIRECTION ( 'NONE',  ( 0.0000000000000000000, -0.0000000000000000000, -1.000000000000000000 ) ) ;
#155 = VECTOR ( 'NONE', #420, 1000.000000000000000 ) ;
#156 = LINE ( 'NONE', #421, #176 ) ;
#157 = VECTOR ( 'NONE', #418, 1000.000000000000000 ) ;
#158 = LINE ( 'NONE', #424, #157 ) ;
#159 = LINE ( 'NONE', #425, #172 ) ;
#160 = CIRCLE ( 'NONE', #116, 2.500000000000002200 ) ;
#161 = LINE ( 'NONE', #415, #168 ) ;
#162 = LINE ( 'NONE', #417, #171 ) ;
#163 = VECTOR ( 'NONE', #426, 1000.000000000000000 ) ;
#164 = LINE ( 'NONE', #430, #155 ) ;
#165 = LINE ( 'NONE', #435, #170 ) ;
#166 = FACE_OUTER_BOUND ( 'NONE', #311, .T. ) ;
#167 = VECTOR ( 'NONE', #431, 1000.000000000000000 ) ;
#168 = VECTOR ( 'NONE', #414, 1000.000000000000000 ) ;
#169 = LINE ( 'NONE', #413, #175 ) ;
#170 = VECTOR ( 'NONE', #423, 1000.000000000000000 ) ;
#171 = VECTOR ( 'NONE', #416, 1000.000000000000000 ) ;
#172 = VECTOR ( 'NONE', #422, 1000.000000000000000 ) ;
#173 = LINE ( 'NONE', #437, #163 ) ;
#174 = FACE_OUTER_BOUND ( 'NONE', #314, .T. ) ;
#175 = VECTOR ( 'NONE', #411, 1000.000000000000000 ) ;
#176 = VECTOR ( 'NONE', #408, 1000.000000000000000 ) ;
#177 = DIRECTION ( 'NONE',  ( 0.0000000000000000000, -0.0000000000000000000, -1.000000000000000000 ) ) ;
#178 = PLANE ( 'NONE',  #83 ) ;
#179 = DIRECTION ( 'NONE',  ( -0.0000000000000000000, 0.0000000000000000000, -1.000000000000000000 ) ) ;
#180 = CARTESIAN_POINT ( 'NONE',  ( 0.0000000000000000000, 0.0000000000000000000, 347.0000000000000000 ) ) ;
#181 = DIRECTION ( 'NONE',  ( 0.0000000000000000000, -0.0000000000000000000, 1.000000000000000000 ) ) ;
#182 = PERSON ( 'UNSPECIFIED', 'UNSPECIFIED', 'UNSPECIFIED', ('UNSPECIFIED'), ('UNSPECIFIED'), ('UNSPECIFIED') ) ;
#183 = PRODUCT ( 'Êðûøêà íà îòâåòâèòåëü Ò-îáðàçíûé âåðòèêàëüíûé TD_38309', 'Êðûøêà íà îòâåòâèòåëü Ò-îáðàçíûé âåðòèêàëüíûé TD_38309', '', ( #126 ) ) ;
#184 = FACE_OUTER_BOUND ( 'NONE', #375, .T. ) ;
#185 = PRODUCT_DEFINITION_SHAPE ( 'NONE', 'NONE',  #73 ) ;
#186 = DESIGN_CONTEXT ( 'detailed design', #128, 'design' ) ;
#187 = ADVANCED_FACE ( 'NONE', ( #166, #174 ), #399, .F. ) ;
#188 = ADVANCED_FACE ( 'NONE', ( #396 ), #405, .F. ) ;
#189 = ADVANCED_FACE ( 'NONE', ( #397 ), #404, .T. ) ;
#190 = ADVANCED_FACE ( 'NONE', ( #395, #225 ), #221, .F. ) ;
#191 = ADVANCED_FACE ( 'NONE', ( #400, #223, #398 ), #145, .F. ) ;
#192 = ADVANCED_FACE ( 'NONE', ( #401 ), #144, .F. ) ;
#193 = ADVANCED_FACE ( 'NONE', ( #222 ), #200, .T. ) ;
#194 = ADVANCED_FACE ( 'NONE', ( #224 ), #202, .T. ) ;
#195 = ADVANCED_FACE ( 'NONE', ( #300 ), #201, .T. ) ;
#196 = ADVANCED_FACE ( 'NONE', ( #220 ), #178, .F. ) ;
#197 = ADVANCED_FACE ( 'NONE', ( #184 ), #236, .T. ) ;
#198 = ADVANCED_FACE ( 'NONE', ( #226, #2, #303 ), #241, .T. ) ;
#199 = CARTESIAN_POINT ( 'NONE',  ( -301.0000000000000000, -14.00000000000000000, 347.0000000000000000 ) ) ;
#200 = PLANE ( 'NONE',  #99 ) ;
#201 = PLANE ( 'NONE',  #97 ) ;
#202 = PLANE ( 'NONE',  #98 ) ;
#203 = CARTESIAN_POINT ( 'NONE',  ( -301.0000000000000000, 0.0000000000000000000, 347.0000000000000000 ) ) ;
#204 = CARTESIAN_POINT ( 'NONE',  ( -301.5999999999999700, 0.0000000000000000000, 347.0000000000000000 ) ) ;
#205 = EDGE_CURVE ( 'NONE', #386, #394, #5, .T. ) ;
#206 = EDGE_CURVE ( 'NONE', #298, #386, #4, .T. ) ;
#207 = EDGE_CURVE ( 'NONE', #384, #383, #1, .T. ) ;
#208 = EDGE_CURVE ( 'NONE', #384, #298, #6, .T. ) ;
#209 = EDGE_CURVE ( 'NONE', #385, #383, #10, .T. ) ;
#210 = EDGE_CURVE ( 'NONE', #380, #385, #12, .T. ) ;
#211 = EDGE_CURVE ( 'NONE', #380, #384, #8, .T. ) ;
#212 = EDGE_CURVE ( 'NONE', #385, #382, #16, .T. ) ;
#213 = EDGE_CURVE ( 'NONE', #379, #382, #18, .T. ) ;
#214 = EDGE_CURVE ( 'NONE', #380, #379, #14, .T. ) ;
#215 = EDGE_CURVE ( 'NONE', #32, #32, #22, .T. ) ;
#216 = EDGE_CURVE ( 'NONE', #20, #20, #26, .T. ) ;
#217 = EDGE_CURVE ( 'NONE', #382, #392, #24, .T. ) ;
#218 = EDGE_CURVE ( 'NONE', #379, #390, #25, .T. ) ;
#219 = EDGE_CURVE ( 'NONE', #298, #387, #29, .T. ) ;
#220 = FACE_OUTER_BOUND ( 'NONE', #308, .T. ) ;
#221 = CYLINDRICAL_SURFACE ( 'NONE', #106, 2.500000000000002200 ) ;
#222 = FACE_OUTER_BOUND ( 'NONE', #309, .T. ) ;
#223 = FACE_BOUND ( 'NONE', #310, .T. ) ;
#224 = FACE_OUTER_BOUND ( 'NONE', #305, .T. ) ;
#225 = FACE_OUTER_BOUND ( 'NONE', #316, .T. ) ;
#226 = FACE_BOUND ( 'NONE', #377, .T. ) ;
#227 = DIRECTION ( 'NONE',  ( -1.000000000000000000, 0.0000000000000000000, 0.0000000000000000000 ) ) ;
#228 = DIRECTION ( 'NONE',  ( -0.0000000000000000000, 1.000000000000000000, -0.0000000000000000000 ) ) ;
#229 = CARTESIAN_POINT ( 'NONE',  ( 0.0000000000000000000, 0.0000000000000000000, 0.0000000000000000000 ) ) ;
#230 = CARTESIAN_POINT ( 'NONE',  ( 1.734723475976807100E-015, -14.00099999999999900, 14.99999999999999300 ) ) ;
#231 = DIRECTION ( 'NONE',  ( -1.000000000000000000, 0.0000000000000000000, 0.0000000000000000000 ) ) ;
#232 = DIRECTION ( 'NONE',  ( -0.0000000000000000000, 0.0000000000000000000, -1.000000000000000000 ) ) ;
#233 = DIRECTION ( 'NONE',  ( -0.0000000000000000000, 0.0000000000000000000, -1.000000000000000000 ) ) ;
#234 = DIRECTION ( 'NONE',  ( -1.000000000000000000, 0.0000000000000000000, 0.0000000000000000000 ) ) ;
#235 = DIRECTION ( 'NONE',  ( 0.0000000000000000000, 0.0000000000000000000, 1.000000000000000000 ) ) ;
#236 = PLANE ( 'NONE',  #82 ) ;
#237 = CARTESIAN_POINT ( 'NONE',  ( 301.5999999999999700, 0.0000000000000000000, 347.0000000000000000 ) ) ;
#238 = DIRECTION ( 'NONE',  ( 1.000000000000000000, 0.0000000000000000000, -0.0000000000000000000 ) ) ;
#239 = DIRECTION ( 'NONE',  ( -0.0000000000000000000, 0.0000000000000000000, -1.000000000000000000 ) ) ;
#240 = CARTESIAN_POINT ( 'NONE',  ( -301.0000000000000000, 0.5999999999999999800, 347.0000000000000000 ) ) ;
#241 = PLANE ( 'NONE',  #78 ) ;
#242 = CARTESIAN_POINT ( 'NONE',  ( -301.5999999999999700, 0.5999999999999999800, 347.0000000000000000 ) ) ;
#243 = DIRECTION ( 'NONE',  ( 0.0000000000000000000, 1.000000000000000000, 0.0000000000000000000 ) ) ;
#244 = DIRECTION ( 'NONE',  ( 0.0000000000000000000, -0.0000000000000000000, 1.000000000000000000 ) ) ;
#245 = CARTESIAN_POINT ( 'NONE',  ( -301.5999999999999700, -14.00000000000000000, 347.0000000000000000 ) ) ;
#246 = CARTESIAN_POINT ( 'NONE',  ( -301.5999999999999700, 0.0000000000000000000, 347.0000000000000000 ) ) ;
#247 = CARTESIAN_POINT ( 'NONE',  ( -301.0000000000000000, 0.5999999999999999800, 0.0000000000000000000 ) ) ;
#248 = DIRECTION ( 'NONE',  ( 1.000000000000000000, 0.0000000000000000000, 0.0000000000000000000 ) ) ;
#249 = CARTESIAN_POINT ( 'NONE',  ( -301.0000000000000000, -14.00000000000000000, 347.0000000000000000 ) ) ;
#250 = DIRECTION ( 'NONE',  ( -0.0000000000000000000, -0.0000000000000000000, -1.000000000000000000 ) ) ;
#251 = DIRECTION ( 'NONE',  ( -0.0000000000000000000, -0.0000000000000000000, -1.000000000000000000 ) ) ;
#252 = CARTESIAN_POINT ( 'NONE',  ( -301.0000000000000000, 0.0000000000000000000, 347.0000000000000000 ) ) ;
#253 = DIRECTION ( 'NONE',  ( 0.0000000000000000000, 1.000000000000000000, 0.0000000000000000000 ) ) ;
#254 = CARTESIAN_POINT ( 'NONE',  ( -301.0000000000000000, -14.00000000000000000, 0.0000000000000000000 ) ) ;
#255 = DIRECTION ( 'NONE',  ( -1.000000000000000000, 0.0000000000000000000, 0.0000000000000000000 ) ) ;
#256 = CARTESIAN_POINT ( 'NONE',  ( -301.0000000000000000, -14.00000000000000000, 347.0000000000000000 ) ) ;
#257 = DIRECTION ( 'NONE',  ( -0.0000000000000000000, -0.0000000000000000000, -1.000000000000000000 ) ) ;
#258 = DIRECTION ( 'NONE',  ( -1.000000000000000000, 0.0000000000000000000, 0.0000000000000000000 ) ) ;
#259 = CARTESIAN_POINT ( 'NONE',  ( -301.0000000000000000, 0.0000000000000000000, 0.0000000000000000000 ) ) ;
#260 = DIRECTION ( 'NONE',  ( -0.0000000000000000000, 1.000000000000000000, -0.0000000000000000000 ) ) ;
#261 = CARTESIAN_POINT ( 'NONE',  ( -301.0000000000000000, 0.0000000000000000000, 347.0000000000000000 ) ) ;
#262 = CARTESIAN_POINT ( 'NONE',  ( -301.0000000000000000, 0.0000000000000000000, 0.0000000000000000000 ) ) ;
#263 = DIRECTION ( 'NONE',  ( -0.0000000000000000000, -0.0000000000000000000, -1.000000000000000000 ) ) ;
#264 = DIRECTION ( 'NONE',  ( -0.0000000000000000000, 1.000000000000000000, -0.0000000000000000000 ) ) ;
#265 = CARTESIAN_POINT ( 'NONE',  ( -301.0000000000000000, 0.0000000000000000000, 347.0000000000000000 ) ) ;
#266 = CARTESIAN_POINT ( 'NONE',  ( -301.5999999999999700, 0.5999999999999999800, 347.0000000000000000 ) ) ;
#267 = CARTESIAN_POINT ( 'NONE',  ( 2.653208575337321500E-015, 0.0000000000000000000, 331.9999999999999400 ) ) ;
#268 = DIRECTION ( 'NONE',  ( -0.0000000000000000000, -1.000000000000000000, -0.0000000000000000000 ) ) ;
#269 = DIRECTION ( 'NONE',  ( 0.0000000000000000000, 0.0000000000000000000, 1.000000000000000000 ) ) ;
#270 = CARTESIAN_POINT ( 'NONE',  ( 1.734723475976807100E-015, 0.0000000000000000000, 14.99999999999999300 ) ) ;
#271 = DIRECTION ( 'NONE',  ( -0.0000000000000000000, -1.000000000000000000, -0.0000000000000000000 ) ) ;
#272 = DIRECTION ( 'NONE',  ( 0.0000000000000000000, 0.0000000000000000000, 1.000000000000000000 ) ) ;
#273 = DIRECTION ( 'NONE',  ( 1.000000000000000000, 0.0000000000000000000, 0.0000000000000000000 ) ) ;
#274 = CARTESIAN_POINT ( 'NONE',  ( 301.0000000000000000, -14.00000000000000000, 347.0000000000000000 ) ) ;
#275 = DIRECTION ( 'NONE',  ( 1.000000000000000000, 0.0000000000000000000, 0.0000000000000000000 ) ) ;
#276 = CARTESIAN_POINT ( 'NONE',  ( -301.0000000000000000, 0.5999999999999999800, 347.0000000000000000 ) ) ;
#277 = CARTESIAN_POINT ( 'NONE',  ( 301.5999999999999700, -14.00000000000000000, 347.0000000000000000 ) ) ;
#278 = DIRECTION ( 'NONE',  ( 1.000000000000000000, 0.0000000000000000000, 0.0000000000000000000 ) ) ;
#279 = CARTESIAN_POINT ( 'NONE',  ( -301.0000000000000000, 0.0000000000000000000, 347.0000000000000000 ) ) ;
#280 = CARTESIAN_POINT ( 'NONE',  ( -301.0000000000000000, -14.00000000000000000, 0.0000000000000000000 ) ) ;
#281 = CARTESIAN_POINT ( 'NONE',  ( 301.0000000000000000, -14.00000000000000000, 0.0000000000000000000 ) ) ;
#282 = CARTESIAN_POINT ( 'NONE',  ( -301.5999999999999700, -14.00000000000000000, 0.0000000000000000000 ) ) ;
#283 = CARTESIAN_POINT ( 'NONE',  ( -301.0000000000000000, -14.00000000000000000, 347.0000000000000000 ) ) ;
#284 = CARTESIAN_POINT ( 'NONE',  ( -301.0000000000000000, 0.0000000000000000000, 0.0000000000000000000 ) ) ;
#285 = CARTESIAN_POINT ( 'NONE',  ( -301.5999999999999700, -14.00000000000000000, 347.0000000000000000 ) ) ;
#286 = CARTESIAN_POINT ( 'NONE',  ( -301.5999999999999700, 0.5999999999999999800, 0.0000000000000000000 ) ) ;
#287 = CARTESIAN_POINT ( 'NONE',  ( 301.5999999999999700, 0.5999999999999999800, 347.0000000000000000 ) ) ;
#288 = CARTESIAN_POINT ( 'NONE',  ( 301.0000000000000000, 0.0000000000000000000, 347.0000000000000000 ) ) ;
#289 = CARTESIAN_POINT ( 'NONE',  ( 301.5999999999999700, -14.00000000000000000, 0.0000000000000000000 ) ) ;
#290 = CARTESIAN_POINT ( 'NONE',  ( 301.0000000000000000, 0.0000000000000000000, 0.0000000000000000000 ) ) ;
#291 = CARTESIAN_POINT ( 'NONE',  ( 301.5999999999999700, 0.5999999999999999800, 0.0000000000000000000 ) ) ;
#292 = CARTESIAN_POINT ( 'NONE',  ( 1.734723475976807100E-015, 0.5999999999999999800, 17.49999999999999600 ) ) ;
#293 = CARTESIAN_POINT ( 'NONE',  ( 2.653208575337321500E-015, 0.0000000000000000000, 334.4999999999999400 ) ) ;
#294 = CARTESIAN_POINT ( 'NONE',  ( 0.0000000000000000000, 0.0000000000000000000, 0.0000000000000000000 ) ) ;
#295 = CARTESIAN_POINT ( 'NONE',  ( 2.653208575337321500E-015, 0.5999999999999999800, 329.4999999999999400 ) ) ;
#296 = CARTESIAN_POINT ( 'NONE',  ( 1.734723475976807100E-015, 0.0000000000000000000, 17.49999999999999600 ) ) ;
#297 = DIRECTION ( 'NONE',  ( 0.0000000000000000000, 0.0000000000000000000, 1.000000000000000000 ) ) ;
#298 = VERTEX_POINT ( 'NONE', #266 ) ;
#299 = VERTEX_POINT ( 'NONE', #277 ) ;
#300 = FACE_OUTER_BOUND ( 'NONE', #376, .T. ) ;
#301 = VECTOR ( 'NONE', #410, 1000.000000000000000 ) ;
#302 = LINE ( 'NONE', #409, #301 ) ;
#303 = FACE_OUTER_BOUND ( 'NONE', #306, .T. ) ;
#304 = EDGE_LOOP ( 'NONE', ( #362 ) ) ;
#305 = EDGE_LOOP ( 'NONE', ( #349, #350, #351, #352 ) ) ;
#306 = EDGE_LOOP ( 'NONE', ( #345, #346, #347, #348 ) ) ;
#307 = EDGE_LOOP ( 'NONE', ( #368, #369, #370, #371, #372, #373, #320, #339 ) ) ;
#308 = EDGE_LOOP ( 'NONE', ( #357, #358, #359, #360 ) ) ;
#309 = EDGE_LOOP ( 'NONE', ( #353, #354, #355, #356 ) ) ;
#310 = EDGE_LOOP ( 'NONE', ( #363 ) ) ;
#311 = EDGE_LOOP ( 'NONE', ( #338 ) ) ;
#312 = EDGE_LOOP ( 'NONE', ( #364, #365, #366, #367 ) ) ;
#313 = EDGE_LOOP ( 'NONE', ( #344, #361, #318, #319, #321, #323, #324, #326 ) ) ;
#314 = EDGE_LOOP ( 'NONE', ( #343 ) ) ;
#315 = EDGE_LOOP ( 'NONE', ( #328 ) ) ;
#316 = EDGE_LOOP ( 'NONE', ( #332 ) ) ;
#317 = EDGE_LOOP ( 'NONE', ( #322, #327, #325, #329 ) ) ;
#318 = ORIENTED_EDGE ( 'NONE', *, *, #212, .F. ) ;
#319 = ORIENTED_EDGE ( 'NONE', *, *, #209, .T. ) ;
#320 = ORIENTED_EDGE ( 'NONE', *, *, #214, .T. ) ;
#321 = ORIENTED_EDGE ( 'NONE', *, *, #79, .T. ) ;
#322 = ORIENTED_EDGE ( 'NONE', *, *, #118, .T. ) ;
#323 = ORIENTED_EDGE ( 'NONE', *, *, #205, .T. ) ;
#324 = ORIENTED_EDGE ( 'NONE', *, *, #111, .T. ) ;
#325 = ORIENTED_EDGE ( 'NONE', *, *, #115, .F. ) ;
#326 = ORIENTED_EDGE ( 'NONE', *, *, #103, .T. ) ;
#327 = ORIENTED_EDGE ( 'NONE', *, *, #108, .F. ) ;
#328 = ORIENTED_EDGE ( 'NONE', *, *, #81, .T. ) ;
#329 = ORIENTED_EDGE ( 'NONE', *, *, #107, .T. ) ;
#330 = ORIENTED_EDGE ( 'NONE', *, *, #103, .F. ) ;
#331 = ORIENTED_EDGE ( 'NONE', *, *, #113, .F. ) ;
#332 = ORIENTED_EDGE ( 'NONE', *, *, #216, .T. ) ;
#333 = ORIENTED_EDGE ( 'NONE', *, *, #110, .T. ) ;
#334 = ORIENTED_EDGE ( 'NONE', *, *, #108, .T. ) ;
#335 = ORIENTED_EDGE ( 'NONE', *, *, #111, .F. ) ;
#336 = ORIENTED_EDGE ( 'NONE', *, *, #100, .F. ) ;
#337 = ORIENTED_EDGE ( 'NONE', *, *, #104, .T. ) ;
#338 = ORIENTED_EDGE ( 'NONE', *, *, #102, .T. ) ;
#339 = ORIENTED_EDGE ( 'NONE', *, *, #218, .T. ) ;
#340 = ORIENTED_EDGE ( 'NONE', *, *, #113, .T. ) ;
#341 = ORIENTED_EDGE ( 'NONE', *, *, #102, .F. ) ;
#342 = ORIENTED_EDGE ( 'NONE', *, *, #81, .F. ) ;
#343 = ORIENTED_EDGE ( 'NONE', *, *, #215, .T. ) ;
#344 = ORIENTED_EDGE ( 'NONE', *, *, #118, .F. ) ;
#345 = ORIENTED_EDGE ( 'NONE', *, *, #205, .F. ) ;
#346 = ORIENTED_EDGE ( 'NONE', *, *, #206, .F. ) ;
#347 = ORIENTED_EDGE ( 'NONE', *, *, #219, .T. ) ;
#348 = ORIENTED_EDGE ( 'NONE', *, *, #100, .T. ) ;
#349 = ORIENTED_EDGE ( 'NONE', *, *, #79, .F. ) ;
#350 = ORIENTED_EDGE ( 'NONE', *, *, #207, .F. ) ;
#351 = ORIENTED_EDGE ( 'NONE', *, *, #208, .T. ) ;
#352 = ORIENTED_EDGE ( 'NONE', *, *, #206, .T. ) ;
#353 = ORIENTED_EDGE ( 'NONE', *, *, #209, .F. ) ;
#354 = ORIENTED_EDGE ( 'NONE', *, *, #210, .F. ) ;
#355 = ORIENTED_EDGE ( 'NONE', *, *, #211, .T. ) ;
#356 = ORIENTED_EDGE ( 'NONE', *, *, #207, .T. ) ;
#357 = ORIENTED_EDGE ( 'NONE', *, *, #212, .T. ) ;
#358 = ORIENTED_EDGE ( 'NONE', *, *, #213, .F. ) ;
#359 = ORIENTED_EDGE ( 'NONE', *, *, #214, .F. ) ;
#360 = ORIENTED_EDGE ( 'NONE', *, *, #210, .T. ) ;
#361 = ORIENTED_EDGE ( 'NONE', *, *, #217, .F. ) ;
#362 = ORIENTED_EDGE ( 'NONE', *, *, #215, .F. ) ;
#363 = ORIENTED_EDGE ( 'NONE', *, *, #216, .F. ) ;
#364 = ORIENTED_EDGE ( 'NONE', *, *, #217, .T. ) ;
#365 = ORIENTED_EDGE ( 'NONE', *, *, #107, .F. ) ;
#366 = ORIENTED_EDGE ( 'NONE', *, *, #218, .F. ) ;
#367 = ORIENTED_EDGE ( 'NONE', *, *, #213, .T. ) ;
#368 = ORIENTED_EDGE ( 'NONE', *, *, #115, .T. ) ;
#369 = ORIENTED_EDGE ( 'NONE', *, *, #110, .F. ) ;
#370 = ORIENTED_EDGE ( 'NONE', *, *, #104, .F. ) ;
#371 = ORIENTED_EDGE ( 'NONE', *, *, #219, .F. ) ;
#372 = ORIENTED_EDGE ( 'NONE', *, *, #208, .F. ) ;
#373 = ORIENTED_EDGE ( 'NONE', *, *, #211, .F. ) ;
#374 = EDGE_LOOP ( 'NONE', ( #342 ) ) ;
#375 = EDGE_LOOP ( 'NONE', ( #335, #336, #337, #340 ) ) ;
#376 = EDGE_LOOP ( 'NONE', ( #330, #331, #333, #334 ) ) ;
#377 = EDGE_LOOP ( 'NONE', ( #341 ) ) ;
#378 = VERTEX_POINT ( 'NONE', #281 ) ;
#379 = VERTEX_POINT ( 'NONE', #279 ) ;
#380 = VERTEX_POINT ( 'NONE', #283 ) ;
#381 = VERTEX_POINT ( 'NONE', #274 ) ;
#382 = VERTEX_POINT ( 'NONE', #284 ) ;
#383 = VERTEX_POINT ( 'NONE', #282 ) ;
#384 = VERTEX_POINT ( 'NONE', #285 ) ;
#385 = VERTEX_POINT ( 'NONE', #280 ) ;
#386 = VERTEX_POINT ( 'NONE', #286 ) ;
#387 = VERTEX_POINT ( 'NONE', #287 ) ;
#388 = CLOSED_SHELL ( 'NONE', ( #188, #195, #197, #198, #194, #193, #196, #191, #192, #189, #190, #187 ) ) ;
#389 = CIRCLE ( 'NONE', #117, 2.500000000000002200 ) ;
#390 = VERTEX_POINT ( 'NONE', #288 ) ;
#391 = VERTEX_POINT ( 'NONE', #289 ) ;
#392 = VERTEX_POINT ( 'NONE', #290 ) ;
#393 = LINE ( 'NONE', #436, #167 ) ;
#394 = VERTEX_POINT ( 'NONE', #291 ) ;
#395 = FACE_OUTER_BOUND ( 'NONE', #315, .T. ) ;
#396 = FACE_OUTER_BOUND ( 'NONE', #317, .T. ) ;
#397 = FACE_OUTER_BOUND ( 'NONE', #313, .T. ) ;
#398 = FACE_OUTER_BOUND ( 'NONE', #312, .T. ) ;
#399 = CYLINDRICAL_SURFACE ( 'NONE', #114, 2.500000000000002200 ) ;
#400 = FACE_BOUND ( 'NONE', #304, .T. ) ;
#401 = FACE_OUTER_BOUND ( 'NONE', #307, .T. ) ;
#402 = DIRECTION ( 'NONE',  ( 1.000000000000000000, 0.0000000000000000000, -0.0000000000000000000 ) ) ;
#403 = DIRECTION ( 'NONE',  ( 0.0000000000000000000, -1.000000000000000000, 0.0000000000000000000 ) ) ;
#404 = PLANE ( 'NONE',  #109 ) ;
#405 = PLANE ( 'NONE',  #112 ) ;
#406 = DIRECTION ( 'NONE',  ( -0.0000000000000000000, 1.000000000000000000, -0.0000000000000000000 ) ) ;
#407 = CARTESIAN_POINT ( 'NONE',  ( 301.0000000000000000, 0.0000000000000000000, 347.0000000000000000 ) ) ;
#408 = DIRECTION ( 'NONE',  ( 0.0000000000000000000, -1.000000000000000000, 0.0000000000000000000 ) ) ;
#409 = CARTESIAN_POINT ( 'NONE',  ( -301.5999999999999700, 0.0000000000000000000, 0.0000000000000000000 ) ) ;
#410 = DIRECTION ( 'NONE',  ( 0.0000000000000000000, 1.000000000000000000, 0.0000000000000000000 ) ) ;
#411 = DIRECTION ( 'NONE',  ( 0.0000000000000000000, -1.000000000000000000, 0.0000000000000000000 ) ) ;
#412 = CARTESIAN_POINT ( 'NONE',  ( 2.653208575337321500E-015, -14.00099999999999900, 331.9999999999999400 ) ) ;
#413 = CARTESIAN_POINT ( 'NONE',  ( 301.0000000000000000, 0.0000000000000000000, 347.0000000000000000 ) ) ;
#414 = DIRECTION ( 'NONE',  ( -0.0000000000000000000, -0.0000000000000000000, -1.000000000000000000 ) ) ;
#415 = CARTESIAN_POINT ( 'NONE',  ( 301.5999999999999700, -14.00000000000000000, 347.0000000000000000 ) ) ;
#416 = DIRECTION ( 'NONE',  ( -0.0000000000000000000, -1.000000000000000000, 0.0000000000000000000 ) ) ;
#417 = CARTESIAN_POINT ( 'NONE',  ( 301.5999999999999700, 0.0000000000000000000, 0.0000000000000000000 ) ) ;
#418 = DIRECTION ( 'NONE',  ( -1.000000000000000000, 0.0000000000000000000, 0.0000000000000000000 ) ) ;
#419 = DIRECTION ( 'NONE',  ( 0.0000000000000000000, 0.0000000000000000000, 1.000000000000000000 ) ) ;
#420 = DIRECTION ( 'NONE',  ( -0.0000000000000000000, -0.0000000000000000000, -1.000000000000000000 ) ) ;
#421 = CARTESIAN_POINT ( 'NONE',  ( 301.0000000000000000, 0.0000000000000000000, 0.0000000000000000000 ) ) ;
#422 = DIRECTION ( 'NONE',  ( -0.0000000000000000000, -0.0000000000000000000, -1.000000000000000000 ) ) ;
#423 = DIRECTION ( 'NONE',  ( -0.0000000000000000000, -1.000000000000000000, 0.0000000000000000000 ) ) ;
#424 = CARTESIAN_POINT ( 'NONE',  ( 301.5999999999999700, -14.00000000000000000, 347.0000000000000000 ) ) ;
#425 = CARTESIAN_POINT ( 'NONE',  ( 301.0000000000000000, 0.0000000000000000000, 347.0000000000000000 ) ) ;
#426 = DIRECTION ( 'NONE',  ( -1.000000000000000000, 0.0000000000000000000, 0.0000000000000000000 ) ) ;
#427 = DIRECTION ( 'NONE',  ( 0.0000000000000000000, 0.0000000000000000000, -1.000000000000000000 ) ) ;
#428 = DIRECTION ( 'NONE',  ( -0.0000000000000000000, 1.000000000000000000, -0.0000000000000000000 ) ) ;
#429 = CARTESIAN_POINT ( 'NONE',  ( 2.653208575337321500E-015, 0.5999999999999999800, 331.9999999999999400 ) ) ;
#430 = CARTESIAN_POINT ( 'NONE',  ( 301.0000000000000000, -14.00000000000000000, 347.0000000000000000 ) ) ;
#431 = DIRECTION ( 'NONE',  ( -0.0000000000000000000, -0.0000000000000000000, -1.000000000000000000 ) ) ;
#432 = DIRECTION ( 'NONE',  ( 0.0000000000000000000, 0.0000000000000000000, 1.000000000000000000 ) ) ;
#433 = DIRECTION ( 'NONE',  ( 0.0000000000000000000, 1.000000000000000000, 0.0000000000000000000 ) ) ;
#434 = CARTESIAN_POINT ( 'NONE',  ( 1.734723475976807100E-015, 0.5999999999999999800, 14.99999999999999300 ) ) ;
#435 = CARTESIAN_POINT ( 'NONE',  ( 301.5999999999999700, 0.0000000000000000000, 347.0000000000000000 ) ) ;
#436 = CARTESIAN_POINT ( 'NONE',  ( 301.5999999999999700, 0.5999999999999999800, 347.0000000000000000 ) ) ;
#437 = CARTESIAN_POINT ( 'NONE',  ( 301.5999999999999700, -14.00000000000000000, 0.0000000000000000000 ) ) ;
ENDSEC;
END-ISO-10303-21;
