ISO-10303-21;
HEADER;
FILE_DESCRIPTION (( 'STEP AP203' ),
    '1' );
FILE_NAME ('CTR10-040-K41-024I Òðóáà ãëàäêàÿ æåñòêàÿ ÏÂÕ d40 ÈÝÊ ñåðàÿ (24ì),3ì.STEP',
    '2016-04-27T08:16:42',
    ( '' ),
    ( '' ),
    'SwSTEP 2.0',
    'SolidWorks 2014',
    '' );
FILE_SCHEMA (( 'CONFIG_CONTROL_DESIGN' ));
ENDSEC;

DATA;
#1 = DIRECTION ( 'NONE',  ( 0.0000000000000000000, 0.0000000000000000000, -1.000000000000000000 ) ) ;
#2 = DIRECTION ( 'NONE',  ( 0.0000000000000000000, 0.0000000000000000000, 1.000000000000000000 ) ) ;
#3 = AXIS2_PLACEMENT_3D ( 'NONE', #31, #14, #2 ) ;
#4 = SECURITY_CLASSIFICATION_LEVEL ( 'unclassified' ) ;
#5 = DIRECTION ( 'NONE',  ( 1.000000000000000000, 0.0000000000000000000, 0.0000000000000000000 ) ) ;
#6 = ORIENTED_EDGE ( 'NONE', *, *, #53, .T. ) ;
#7 = DIRECTION ( 'NONE',  ( 1.000000000000000000, 0.0000000000000000000, 0.0000000000000000000 ) ) ;
#8 = CC_DESIGN_SECURITY_CLASSIFICATION ( #130, ( #86 ) ) ;
#9 = FACE_OUTER_BOUND ( 'NONE', #135, .T. ) ;
#10 = PERSON_AND_ORGANIZATION ( #12, #149 ) ;
#11 = EDGE_LOOP ( 'NONE', ( #123 ) ) ;
#12 = PERSON ( 'UNSPECIFIED', 'UNSPECIFIED', 'UNSPECIFIED', ('UNSPECIFIED'), ('UNSPECIFIED'), ('UNSPECIFIED') ) ;
#13 = DESIGN_CONTEXT ( 'detailed design', #162, 'design' ) ;
#14 = DIRECTION ( 'NONE',  ( -1.000000000000000000, -0.0000000000000000000, -0.0000000000000000000 ) ) ;
#15 = CARTESIAN_POINT ( 'NONE',  ( 3000.000000000000000, 0.0000000000000000000, -18.75000000000000400 ) ) ;
#16 = FACE_OUTER_BOUND ( 'NONE', #42, .T. ) ;
#17 = COORDINATED_UNIVERSAL_TIME_OFFSET ( 3, 0, .AHEAD. ) ;
#18 = PRODUCT_RELATED_PRODUCT_CATEGORY ( 'detail', '', ( #156 ) ) ;
#19 = CARTESIAN_POINT ( 'NONE',  ( 3000.000000000000000, 0.0000000000000000000, 0.0000000000000000000 ) ) ;
#20 = EDGE_LOOP ( 'NONE', ( #85 ) ) ;
#21 =( NAMED_UNIT ( * ) PLANE_ANGLE_UNIT ( ) SI_UNIT ( $, .RADIAN. ) );
#22 = PERSON_AND_ORGANIZATION ( #12, #149 ) ;
#23 = EDGE_LOOP ( 'NONE', ( #168 ) ) ;
#24 = LOCAL_TIME ( 11, 16, 42.00000000000000000, #57 ) ;
#25 = VERTEX_POINT ( 'NONE', #15 ) ;
#26 = CARTESIAN_POINT ( 'NONE',  ( 0.0000000000000000000, 0.0000000000000000000, -18.75000000000000400 ) ) ;
#27 = PERSON_AND_ORGANIZATION ( #12, #149 ) ;
#28 = AXIS2_PLACEMENT_3D ( 'NONE', #88, #128, #54 ) ;
#29 = APPLICATION_PROTOCOL_DEFINITION ( 'international standard', 'config_control_design', 1994, #162 ) ;
#30 = DATE_AND_TIME ( #61, #98 ) ;
#31 = CARTESIAN_POINT ( 'NONE',  ( 3000.000000000000000, 0.0000000000000000000, 0.0000000000000000000 ) ) ;
#32 = CC_DESIGN_PERSON_AND_ORGANIZATION_ASSIGNMENT ( #115, #68, ( #156 ) ) ;
#33 = PERSON_AND_ORGANIZATION ( #12, #149 ) ;
#34 = VERTEX_POINT ( 'NONE', #117 ) ;
#35 = EDGE_LOOP ( 'NONE', ( #73 ) ) ;
#36 = CARTESIAN_POINT ( 'NONE',  ( 0.0000000000000000000, 0.0000000000000000000, -20.00000000000000000 ) ) ;
#37 = EDGE_CURVE ( 'NONE', #99, #99, #82, .T. ) ;
#38 = APPROVAL_ROLE ( '' ) ;
#39 = CIRCLE ( 'NONE', #90, 18.75000000000000400 ) ;
#40 = ADVANCED_FACE ( 'NONE', ( #59, #113 ), #52, .F. ) ;
#41 = DATE_AND_TIME ( #89, #125 ) ;
#42 = EDGE_LOOP ( 'NONE', ( #151 ) ) ;
#43 = PRODUCT_DEFINITION ( 'UNKNOWN', '', #86, #13 ) ;
#44 = FACE_OUTER_BOUND ( 'NONE', #23, .T. ) ;
#45 = EDGE_CURVE ( 'NONE', #25, #25, #39, .T. ) ;
#46 = APPROVAL_PERSON_ORGANIZATION ( #81, #50, #38 ) ;
#47 = UNCERTAINTY_MEASURE_WITH_UNIT (LENGTH_MEASURE( 1.000000000000000100E-005 ), #163, 'distance_accuracy_value', 'NONE');
#48 = CARTESIAN_POINT ( 'NONE',  ( 0.0000000000000000000, 0.0000000000000000000, 0.0000000000000000000 ) ) ;
#49 = EDGE_LOOP ( 'NONE', ( #154 ) ) ;
#50 = APPROVAL ( #120, 'UNSPECIFIED' ) ;
#51 = DATE_TIME_ROLE ( 'creation_date' ) ;
#52 = PLANE ( 'NONE',  #101 ) ;
#53 = EDGE_CURVE ( 'NONE', #34, #34, #139, .T. ) ;
#54 = DIRECTION ( 'NONE',  ( 1.000000000000000000, 0.0000000000000000000, 0.0000000000000000000 ) ) ;
#55 = DIRECTION ( 'NONE',  ( 0.0000000000000000000, 0.0000000000000000000, -1.000000000000000000 ) ) ;
#56 = DATE_TIME_ROLE ( 'classification_date' ) ;
#57 = COORDINATED_UNIVERSAL_TIME_OFFSET ( 3, 0, .AHEAD. ) ;
#58 = APPROVAL_DATE_TIME ( #95, #50 ) ;
#59 = FACE_OUTER_BOUND ( 'NONE', #20, .T. ) ;
#60 = CC_DESIGN_APPROVAL ( #50, ( #43 ) ) ;
#61 = CALENDAR_DATE ( 2016, 27, 4 ) ;
#62 = ADVANCED_BREP_SHAPE_REPRESENTATION ( 'CTR10-040-K41-024I T¨ºñð óûðôúð  öõ¸ªúð  ¦T- d40 L¦¦ ¸õ¨ð  (24ü),3ü', ( #77, #28 ), #133 ) ;
#63 = CYLINDRICAL_SURFACE ( 'NONE', #165, 20.00000000000000000 ) ;
#64 = DIRECTION ( 'NONE',  ( 1.000000000000000000, 0.0000000000000000000, 0.0000000000000000000 ) ) ;
#65 = EDGE_CURVE ( 'NONE', #87, #87, #105, .T. ) ;
#66 = APPROVAL_ROLE ( '' ) ;
#67 = DIRECTION ( 'NONE',  ( 1.000000000000000000, 0.0000000000000000000, 0.0000000000000000000 ) ) ;
#68 = PERSON_AND_ORGANIZATION_ROLE ( 'design_owner' ) ;
#69 = CC_DESIGN_PERSON_AND_ORGANIZATION_ASSIGNMENT ( #27, #129, ( #43 ) ) ;
#70 = DATE_AND_TIME ( #104, #137 ) ;
#71 = FACE_BOUND ( 'NONE', #49, .T. ) ;
#72 = APPROVAL_ROLE ( '' ) ;
#73 = ORIENTED_EDGE ( 'NONE', *, *, #45, .T. ) ;
#74 = AXIS2_PLACEMENT_3D ( 'NONE', #141, #64, #153 ) ;
#75 = FACE_OUTER_BOUND ( 'NONE', #142, .T. ) ;
#76 = DIRECTION ( 'NONE',  ( 1.000000000000000000, 0.0000000000000000000, 0.0000000000000000000 ) ) ;
#77 = MANIFOLD_SOLID_BREP ( 'Áîáûøêà-Âûòÿíóòü1', #164 ) ;
#78 = CC_DESIGN_DATE_AND_TIME_ASSIGNMENT ( #41, #51, ( #43 ) ) ;
#79 = PERSON_AND_ORGANIZATION_ROLE ( 'design_supplier' ) ;
#80 = DIRECTION ( 'NONE',  ( -1.000000000000000000, -0.0000000000000000000, -0.0000000000000000000 ) ) ;
#81 = PERSON_AND_ORGANIZATION ( #12, #149 ) ;
#82 = CIRCLE ( 'NONE', #74, 18.75000000000000400 ) ;
#83 = CARTESIAN_POINT ( 'NONE',  ( 3000.000000000000000, 0.0000000000000000000, 0.0000000000000000000 ) ) ;
#84 = COORDINATED_UNIVERSAL_TIME_OFFSET ( 3, 0, .AHEAD. ) ;
#85 = ORIENTED_EDGE ( 'NONE', *, *, #65, .F. ) ;
#86 = PRODUCT_DEFINITION_FORMATION_WITH_SPECIFIED_SOURCE ( 'ANY', '', #156, .NOT_KNOWN. ) ;
#87 = VERTEX_POINT ( 'NONE', #36 ) ;
#88 = CARTESIAN_POINT ( 'NONE',  ( 0.0000000000000000000, 0.0000000000000000000, 0.0000000000000000000 ) ) ;
#89 = CALENDAR_DATE ( 2016, 27, 4 ) ;
#90 = AXIS2_PLACEMENT_3D ( 'NONE', #100, #132, #55 ) ;
#91 = DIRECTION ( 'NONE',  ( 0.0000000000000000000, 0.0000000000000000000, -1.000000000000000000 ) ) ;
#92 = ADVANCED_FACE ( 'NONE', ( #9, #71 ), #147, .T. ) ;
#93 = APPROVAL_PERSON_ORGANIZATION ( #33, #157, #72 ) ;
#94 = CYLINDRICAL_SURFACE ( 'NONE', #3, 18.75000000000000400 ) ;
#95 = DATE_AND_TIME ( #127, #167 ) ;
#96 = DIRECTION ( 'NONE',  ( 0.0000000000000000000, 0.0000000000000000000, -1.000000000000000000 ) ) ;
#97 = APPROVAL ( #144, 'UNSPECIFIED' ) ;
#98 = LOCAL_TIME ( 11, 16, 42.00000000000000000, #108 ) ;
#99 = VERTEX_POINT ( 'NONE', #26 ) ;
#100 = CARTESIAN_POINT ( 'NONE',  ( 3000.000000000000000, 0.0000000000000000000, 0.0000000000000000000 ) ) ;
#101 = AXIS2_PLACEMENT_3D ( 'NONE', #48, #76, #1 ) ;
#102 = APPROVAL_DATE_TIME ( #136, #157 ) ;
#103 = CC_DESIGN_APPROVAL ( #97, ( #86 ) ) ;
#104 = CALENDAR_DATE ( 2016, 27, 4 ) ;
#105 = CIRCLE ( 'NONE', #118, 20.00000000000000000 ) ;
#106 = PRODUCT_DEFINITION_SHAPE ( 'NONE', 'NONE',  #43 ) ;
#107 = ADVANCED_FACE ( 'NONE', ( #75, #16 ), #63, .T. ) ;
#108 = COORDINATED_UNIVERSAL_TIME_OFFSET ( 3, 0, .AHEAD. ) ;
#109 = ORIENTED_EDGE ( 'NONE', *, *, #53, .F. ) ;
#110 =( NAMED_UNIT ( * ) SI_UNIT ( $, .STERADIAN. ) SOLID_ANGLE_UNIT ( ) );
#111 = AXIS2_PLACEMENT_3D ( 'NONE', #83, #7, #96 ) ;
#112 = CARTESIAN_POINT ( 'NONE',  ( 3000.000000000000000, 0.0000000000000000000, 0.0000000000000000000 ) ) ;
#113 = FACE_BOUND ( 'NONE', #11, .T. ) ;
#114 = CC_DESIGN_PERSON_AND_ORGANIZATION_ASSIGNMENT ( #22, #155, ( #86 ) ) ;
#115 = PERSON_AND_ORGANIZATION ( #12, #149 ) ;
#116 = FACE_OUTER_BOUND ( 'NONE', #35, .T. ) ;
#117 = CARTESIAN_POINT ( 'NONE',  ( 3000.000000000000000, 0.0000000000000000000, -20.00000000000000000 ) ) ;
#118 = AXIS2_PLACEMENT_3D ( 'NONE', #145, #67, #158 ) ;
#119 = PERSON_AND_ORGANIZATION ( #12, #149 ) ;
#120 = APPROVAL_STATUS ( 'not_yet_approved' ) ;
#121 = DIRECTION ( 'NONE',  ( 0.0000000000000000000, 0.0000000000000000000, 1.000000000000000000 ) ) ;
#122 = APPLICATION_PROTOCOL_DEFINITION ( 'international standard', 'config_control_design', 1994, #131 ) ;
#123 = ORIENTED_EDGE ( 'NONE', *, *, #37, .T. ) ;
#124 = CC_DESIGN_PERSON_AND_ORGANIZATION_ASSIGNMENT ( #152, #79, ( #86 ) ) ;
#125 = LOCAL_TIME ( 11, 16, 42.00000000000000000, #161 ) ;
#126 = SHAPE_DEFINITION_REPRESENTATION ( #106, #62 ) ;
#127 = CALENDAR_DATE ( 2016, 27, 4 ) ;
#128 = DIRECTION ( 'NONE',  ( 0.0000000000000000000, 0.0000000000000000000, 1.000000000000000000 ) ) ;
#129 = PERSON_AND_ORGANIZATION_ROLE ( 'creator' ) ;
#130 = SECURITY_CLASSIFICATION ( '', '', #4 ) ;
#131 = APPLICATION_CONTEXT ( 'configuration controlled 3d designs of mechanical parts and assemblies' ) ;
#132 = DIRECTION ( 'NONE',  ( 1.000000000000000000, 0.0000000000000000000, 0.0000000000000000000 ) ) ;
#133 =( GEOMETRIC_REPRESENTATION_CONTEXT ( 3 ) GLOBAL_UNCERTAINTY_ASSIGNED_CONTEXT ( ( #47 ) ) GLOBAL_UNIT_ASSIGNED_CONTEXT ( ( #163, #21, #110 ) ) REPRESENTATION_CONTEXT ( 'NONE', 'WORKASPACE' ) );
#134 = PERSON_AND_ORGANIZATION_ROLE ( 'classification_officer' ) ;
#135 = EDGE_LOOP ( 'NONE', ( #6 ) ) ;
#136 = DATE_AND_TIME ( #160, #24 ) ;
#137 = LOCAL_TIME ( 11, 16, 42.00000000000000000, #84 ) ;
#138 = CC_DESIGN_PERSON_AND_ORGANIZATION_ASSIGNMENT ( #119, #134, ( #130 ) ) ;
#139 = CIRCLE ( 'NONE', #111, 20.00000000000000000 ) ;
#140 = APPROVAL_PERSON_ORGANIZATION ( #10, #97, #66 ) ;
#141 = CARTESIAN_POINT ( 'NONE',  ( 0.0000000000000000000, 0.0000000000000000000, 0.0000000000000000000 ) ) ;
#142 = EDGE_LOOP ( 'NONE', ( #109 ) ) ;
#143 = AXIS2_PLACEMENT_3D ( 'NONE', #112, #5, #91 ) ;
#144 = APPROVAL_STATUS ( 'not_yet_approved' ) ;
#145 = CARTESIAN_POINT ( 'NONE',  ( 0.0000000000000000000, 0.0000000000000000000, 0.0000000000000000000 ) ) ;
#146 = MECHANICAL_CONTEXT ( 'NONE', #131, 'mechanical' ) ;
#147 = PLANE ( 'NONE',  #143 ) ;
#148 = CC_DESIGN_DATE_AND_TIME_ASSIGNMENT ( #70, #56, ( #130 ) ) ;
#149 = ORGANIZATION ( 'UNSPECIFIED', 'UNSPECIFIED', '' ) ;
#150 = APPROVAL_STATUS ( 'not_yet_approved' ) ;
#151 = ORIENTED_EDGE ( 'NONE', *, *, #65, .T. ) ;
#152 = PERSON_AND_ORGANIZATION ( #12, #149 ) ;
#153 = DIRECTION ( 'NONE',  ( 0.0000000000000000000, 0.0000000000000000000, -1.000000000000000000 ) ) ;
#154 = ORIENTED_EDGE ( 'NONE', *, *, #45, .F. ) ;
#155 = PERSON_AND_ORGANIZATION_ROLE ( 'creator' ) ;
#156 = PRODUCT ( 'CTR10-040-K41-024I Òðóáà ãëàäêàÿ æåñòêàÿ ÏÂÕ d40 ÈÝÊ ñåðàÿ (24ì),3ì', 'CTR10-040-K41-024I Òðóáà ãëàäêàÿ æåñòêàÿ ÏÂÕ d40 ÈÝÊ ñåðàÿ (24ì),3ì', '', ( #146 ) ) ;
#157 = APPROVAL ( #150, 'UNSPECIFIED' ) ;
#158 = DIRECTION ( 'NONE',  ( 0.0000000000000000000, 0.0000000000000000000, -1.000000000000000000 ) ) ;
#159 = ADVANCED_FACE ( 'NONE', ( #116, #44 ), #94, .F. ) ;
#160 = CALENDAR_DATE ( 2016, 27, 4 ) ;
#161 = COORDINATED_UNIVERSAL_TIME_OFFSET ( 3, 0, .AHEAD. ) ;
#162 = APPLICATION_CONTEXT ( 'configuration controlled 3d designs of mechanical parts and assemblies' ) ;
#163 =( LENGTH_UNIT ( ) NAMED_UNIT ( * ) SI_UNIT ( .MILLI., .METRE. ) );
#164 = CLOSED_SHELL ( 'NONE', ( #92, #40, #107, #159 ) ) ;
#165 = AXIS2_PLACEMENT_3D ( 'NONE', #19, #80, #121 ) ;
#166 = APPROVAL_DATE_TIME ( #30, #97 ) ;
#167 = LOCAL_TIME ( 11, 16, 42.00000000000000000, #17 ) ;
#168 = ORIENTED_EDGE ( 'NONE', *, *, #37, .F. ) ;
#169 = CC_DESIGN_APPROVAL ( #157, ( #130 ) ) ;
ENDSEC;
END-ISO-10303-21;
