ISO-10303-21;
HEADER;
FILE_DESCRIPTION (( 'STEP AP203' ),
    '1' );
FILE_NAME ('Ñîåäèíèòåëüíûå ïëàñòèíû ê ÂÀ-99Ñ (Compact NS) EKF PROxima  400õ630À) (öåíòðàëüíÿÿ).STEP',
    '2016-11-02T19:27:12',
    ( '' ),
    ( '' ),
    'SwSTEP 2.0',
    'SolidWorks 2014',
    '' );
FILE_SCHEMA (( 'CONFIG_CONTROL_DESIGN' ));
ENDSEC;

DATA;
#1 = DIRECTION ( 'NONE',  ( -1.000000000000000000, -0.0000000000000000000, -0.0000000000000000000 ) ) ;
#2 = DIRECTION ( 'NONE',  ( 1.000000000000000000, 0.0000000000000000000, 0.0000000000000000000 ) ) ;
#3 = CYLINDRICAL_SURFACE ( 'NONE', #146, 6.000000000000002700 ) ;
#4 = FACE_OUTER_BOUND ( 'NONE', #147, .T. ) ;
#5 = SECURITY_CLASSIFICATION ( '', '', #139 ) ;
#6 = CARTESIAN_POINT ( 'NONE',  ( 0.0000000000000000000, -19.50000000000002100, -8.673617379884035500E-015 ) ) ;
#7 = APPROVAL_DATE_TIME ( #120, #111 ) ;
#8 = EDGE_CURVE ( 'NONE', #271, #30, #279, .T. ) ;
#9 = CARTESIAN_POINT ( 'NONE',  ( 0.0000000000000000000, 34.49999999999999300, -15.00000000000000700 ) ) ;
#10 = ORIENTED_EDGE ( 'NONE', *, *, #254, .T. ) ;
#11 = CARTESIAN_POINT ( 'NONE',  ( 6.000000000000000000, 34.49999999999999300, -15.00000000000000700 ) ) ;
#12 = ORIENTED_EDGE ( 'NONE', *, *, #270, .F. ) ;
#13 = FACE_OUTER_BOUND ( 'NONE', #258, .T. ) ;
#14 = ADVANCED_FACE ( 'NONE', ( #13 ), #324, .F. ) ;
#15 = FACE_BOUND ( 'NONE', #202, .T. ) ;
#16 = ADVANCED_FACE ( 'NONE', ( #297 ), #3, .F. ) ;
#17 = PLANE ( 'NONE',  #40 ) ;
#18 = PERSON_AND_ORGANIZATION ( #351, #32 ) ;
#19 = APPROVAL_STATUS ( 'not_yet_approved' ) ;
#20 = AXIS2_PLACEMENT_3D ( 'NONE', #77, #285, #51 ) ;
#21 = VECTOR ( 'NONE', #97, 1000.000000000000000 ) ;
#22 = ORIENTED_EDGE ( 'NONE', *, *, #302, .T. ) ;
#23 = EDGE_CURVE ( 'NONE', #261, #157, #99, .T. ) ;
#24 = PLANE ( 'NONE',  #47 ) ;
#25 = FACE_OUTER_BOUND ( 'NONE', #382, .T. ) ;
#26 = DIRECTION ( 'NONE',  ( -1.000000000000000000, -0.0000000000000000000, -0.0000000000000000000 ) ) ;
#27 = DIRECTION ( 'NONE',  ( 0.0000000000000000000, 0.0000000000000000000, 1.000000000000000000 ) ) ;
#28 = ORIENTED_EDGE ( 'NONE', *, *, #366, .T. ) ;
#29 = MECHANICAL_CONTEXT ( 'NONE', #345, 'mechanical' ) ;
#30 = VERTEX_POINT ( 'NONE', #201 ) ;
#31 = DIRECTION ( 'NONE',  ( 1.000000000000000000, 0.0000000000000000000, 0.0000000000000000000 ) ) ;
#32 = ORGANIZATION ( 'UNSPECIFIED', 'UNSPECIFIED', '' ) ;
#33 = AXIS2_PLACEMENT_3D ( 'NONE', #282, #337, #192 ) ;
#34 = DIRECTION ( 'NONE',  ( 0.0000000000000000000, 1.000000000000000000, 0.0000000000000000000 ) ) ;
#35 = DIRECTION ( 'NONE',  ( 1.000000000000000000, 0.0000000000000000000, 0.0000000000000000000 ) ) ;
#36 = DIRECTION ( 'NONE',  ( 0.0000000000000000000, 0.0000000000000000000, -1.000000000000000000 ) ) ;
#37 = AXIS2_PLACEMENT_3D ( 'NONE', #350, #63, #175 ) ;
#38 = FACE_BOUND ( 'NONE', #119, .T. ) ;
#39 = ORIENTED_EDGE ( 'NONE', *, *, #254, .F. ) ;
#40 = AXIS2_PLACEMENT_3D ( 'NONE', #48, #281, #110 ) ;
#41 = CARTESIAN_POINT ( 'NONE',  ( 0.0000000000000000000, 0.0000000000000000000, 0.0000000000000000000 ) ) ;
#42 = EDGE_CURVE ( 'NONE', #30, #194, #90, .T. ) ;
#43 = ORIENTED_EDGE ( 'NONE', *, *, #193, .T. ) ;
#44 = CIRCLE ( 'NONE', #33, 6.000000000000000900 ) ;
#45 = LOCAL_TIME ( 22, 27, 12.00000000000000000, #315 ) ;
#46 = CARTESIAN_POINT ( 'NONE',  ( 0.0000000000000000000, 19.49999999999998600, -8.673617379884035500E-015 ) ) ;
#47 = AXIS2_PLACEMENT_3D ( 'NONE', #372, #54, #112 ) ;
#48 = CARTESIAN_POINT ( 'NONE',  ( 6.000000000000000000, 34.49999999999999300, -15.00000000000000700 ) ) ;
#49 = APPROVAL_ROLE ( '' ) ;
#50 = DATE_TIME_ROLE ( 'classification_date' ) ;
#51 = DIRECTION ( 'NONE',  ( 0.0000000000000000000, 0.0000000000000000000, 1.000000000000000000 ) ) ;
#52 = AXIS2_PLACEMENT_3D ( 'NONE', #361, #267, #233 ) ;
#53 = CLOSED_SHELL ( 'NONE', ( #301, #212, #364, #335, #276, #14, #129, #243, #16, #236 ) ) ;
#54 = DIRECTION ( 'NONE',  ( 0.0000000000000000000, 0.0000000000000000000, -1.000000000000000000 ) ) ;
#55 = AXIS2_PLACEMENT_3D ( 'NONE', #138, #213, #163 ) ;
#56 = MANIFOLD_SOLID_BREP ( 'Áîáûøêà-Âûòÿíóòü1', #53 ) ;
#57 = CARTESIAN_POINT ( 'NONE',  ( 0.0000000000000000000, 34.49999999999998600, 14.99999999999999100 ) ) ;
#58 = LOCAL_TIME ( 22, 27, 12.00000000000000000, #346 ) ;
#59 = CARTESIAN_POINT ( 'NONE',  ( 0.0000000000000000000, 34.49999999999999300, -15.00000000000000700 ) ) ;
#60 = LINE ( 'NONE', #11, #21 ) ;
#61 = CYLINDRICAL_SURFACE ( 'NONE', #55, 6.000000000000002700 ) ;
#62 = CARTESIAN_POINT ( 'NONE',  ( 6.000000000000000000, -34.50000000000001400, -15.00000000000000700 ) ) ;
#63 = DIRECTION ( 'NONE',  ( 0.0000000000000000000, 1.000000000000000000, 0.0000000000000000000 ) ) ;
#64 = CC_DESIGN_PERSON_AND_ORGANIZATION_ASSIGNMENT ( #98, #367, ( #5 ) ) ;
#65 = EDGE_CURVE ( 'NONE', #144, #287, #231, .T. ) ;
#66 = DIRECTION ( 'NONE',  ( -0.0000000000000000000, 0.0000000000000000000, -1.000000000000000000 ) ) ;
#67 = ORIENTED_EDGE ( 'NONE', *, *, #65, .F. ) ;
#68 = AXIS2_PLACEMENT_3D ( 'NONE', #41, #238, #66 ) ;
#69 = CARTESIAN_POINT ( 'NONE',  ( 6.000000000000000000, 19.49999999999998600, 5.999999999999993800 ) ) ;
#70 = AXIS2_PLACEMENT_3D ( 'NONE', #143, #221, #170 ) ;
#71 = EDGE_LOOP ( 'NONE', ( #299, #74, #121, #171 ) ) ;
#72 = ORIENTED_EDGE ( 'NONE', *, *, #383, .T. ) ;
#73 = AXIS2_PLACEMENT_3D ( 'NONE', #227, #35, #230 ) ;
#74 = ORIENTED_EDGE ( 'NONE', *, *, #42, .T. ) ;
#75 = VECTOR ( 'NONE', #318, 1000.000000000000000 ) ;
#76 = APPROVAL_ROLE ( '' ) ;
#77 = CARTESIAN_POINT ( 'NONE',  ( 6.000000000000000000, -19.50000000000002100, -8.673617379884035500E-015 ) ) ;
#78 = VERTEX_POINT ( 'NONE', #59 ) ;
#79 = ORIENTED_EDGE ( 'NONE', *, *, #193, .F. ) ;
#80 = DIRECTION ( 'NONE',  ( 0.0000000000000000000, 0.0000000000000000000, -1.000000000000000000 ) ) ;
#81 = VECTOR ( 'NONE', #34, 1000.000000000000000 ) ;
#82 = DIRECTION ( 'NONE',  ( -1.000000000000000000, -0.0000000000000000000, -0.0000000000000000000 ) ) ;
#83 = CARTESIAN_POINT ( 'NONE',  ( 6.000000000000000000, -19.50000000000002100, -6.000000000000009800 ) ) ;
#84 = CC_DESIGN_PERSON_AND_ORGANIZATION_ASSIGNMENT ( #320, #107, ( #360 ) ) ;
#85 = LOCAL_TIME ( 22, 27, 12.00000000000000000, #362 ) ;
#86 = ORIENTED_EDGE ( 'NONE', *, *, #286, .F. ) ;
#87 = DIRECTION ( 'NONE',  ( -0.0000000000000000000, -0.0000000000000000000, -1.000000000000000000 ) ) ;
#88 = ORIENTED_EDGE ( 'NONE', *, *, #363, .T. ) ;
#89 = CARTESIAN_POINT ( 'NONE',  ( 6.000000000000000000, -34.50000000000001400, 14.99999999999999100 ) ) ;
#90 = LINE ( 'NONE', #263, #317 ) ;
#91 = AXIS2_PLACEMENT_3D ( 'NONE', #196, #27, #259 ) ;
#92 = VERTEX_POINT ( 'NONE', #173 ) ;
#93 = LINE ( 'NONE', #69, #371 ) ;
#94 = PLANE ( 'NONE',  #244 ) ;
#95 = PERSON_AND_ORGANIZATION ( #351, #32 ) ;
#96 = ORIENTED_EDGE ( 'NONE', *, *, #319, .T. ) ;
#97 = DIRECTION ( 'NONE',  ( 0.0000000000000000000, -2.312964634635743000E-016, 1.000000000000000000 ) ) ;
#98 = PERSON_AND_ORGANIZATION ( #351, #32 ) ;
#99 = LINE ( 'NONE', #62, #81 ) ;
#100 = VERTEX_POINT ( 'NONE', #265 ) ;
#101 = CIRCLE ( 'NONE', #73, 6.000000000000000900 ) ;
#102 = VECTOR ( 'NONE', #344, 1000.000000000000000 ) ;
#103 = DIRECTION ( 'NONE',  ( 1.000000000000000000, 0.0000000000000000000, 0.0000000000000000000 ) ) ;
#104 = ORIENTED_EDGE ( 'NONE', *, *, #274, .T. ) ;
#105 = CARTESIAN_POINT ( 'NONE',  ( 0.0000000000000000000, -34.50000000000001400, -15.00000000000000700 ) ) ;
#106 = EDGE_CURVE ( 'NONE', #237, #135, #203, .T. ) ;
#107 = PERSON_AND_ORGANIZATION_ROLE ( 'creator' ) ;
#108 = DIRECTION ( 'NONE',  ( 1.000000000000000000, 0.0000000000000000000, 0.0000000000000000000 ) ) ;
#109 = DATE_AND_TIME ( #284, #85 ) ;
#110 = DIRECTION ( 'NONE',  ( 0.0000000000000000000, 2.312964634635743000E-016, -1.000000000000000000 ) ) ;
#111 = APPROVAL ( #339, 'UNSPECIFIED' ) ;
#112 = DIRECTION ( 'NONE',  ( -1.000000000000000000, 0.0000000000000000000, -0.0000000000000000000 ) ) ;
#113 = ORIENTED_EDGE ( 'NONE', *, *, #106, .F. ) ;
#114 = FACE_OUTER_BOUND ( 'NONE', #255, .T. ) ;
#115 = LINE ( 'NONE', #200, #75 ) ;
#116 = ORIENTED_EDGE ( 'NONE', *, *, #229, .T. ) ;
#117 = APPROVAL_DATE_TIME ( #292, #134 ) ;
#118 = LINE ( 'NONE', #312, #130 ) ;
#119 = EDGE_LOOP ( 'NONE', ( #79, #240 ) ) ;
#120 = DATE_AND_TIME ( #191, #161 ) ;
#121 = ORIENTED_EDGE ( 'NONE', *, *, #223, .F. ) ;
#122 = VECTOR ( 'NONE', #145, 1000.000000000000000 ) ;
#123 = CARTESIAN_POINT ( 'NONE',  ( 6.000000000000000000, 34.49999999999999300, -15.00000000000000700 ) ) ;
#124 = APPROVAL_PERSON_ORGANIZATION ( #95, #134, #49 ) ;
#125 = VECTOR ( 'NONE', #87, 1000.000000000000000 ) ;
#126 = CARTESIAN_POINT ( 'NONE',  ( 0.0000000000000000000, -34.50000000000001400, 14.99999999999999100 ) ) ;
#127 = EDGE_LOOP ( 'NONE', ( #250, #116, #177, #228 ) ) ;
#128 = COORDINATED_UNIVERSAL_TIME_OFFSET ( 3, 0, .AHEAD. ) ;
#129 = ADVANCED_FACE ( 'NONE', ( #4 ), #94, .F. ) ;
#130 = VECTOR ( 'NONE', #137, 1000.000000000000000 ) ;
#131 = ORIENTED_EDGE ( 'NONE', *, *, #65, .T. ) ;
#132 = DIRECTION ( 'NONE',  ( -1.000000000000000000, -0.0000000000000000000, -0.0000000000000000000 ) ) ;
#133 = LINE ( 'NONE', #126, #182 ) ;
#134 = APPROVAL ( #19, 'UNSPECIFIED' ) ;
#135 = VERTEX_POINT ( 'NONE', #89 ) ;
#136 = CYLINDRICAL_SURFACE ( 'NONE', #20, 6.000000000000000900 ) ;
#137 = DIRECTION ( 'NONE',  ( -1.000000000000000000, -0.0000000000000000000, -0.0000000000000000000 ) ) ;
#138 = CARTESIAN_POINT ( 'NONE',  ( 6.000000000000000000, 19.49999999999998600, -8.673617379884035500E-015 ) ) ;
#140 = DATE_AND_TIME ( #262, #58 ) ;
#139 = SECURITY_CLASSIFICATION_LEVEL ( 'unclassified' ) ;
#141 = PRODUCT_RELATED_PRODUCT_CATEGORY ( 'detail', '', ( #291 ) ) ;
#142 = DIRECTION ( 'NONE',  ( 0.0000000000000000000, 0.0000000000000000000, -1.000000000000000000 ) ) ;
#143 = CARTESIAN_POINT ( 'NONE',  ( 6.000000000000000000, 0.0000000000000000000, 0.0000000000000000000 ) ) ;
#144 = VERTEX_POINT ( 'NONE', #149 ) ;
#145 = DIRECTION ( 'NONE',  ( -0.0000000000000000000, -1.000000000000000000, -0.0000000000000000000 ) ) ;
#146 = AXIS2_PLACEMENT_3D ( 'NONE', #266, #384, #293 ) ;
#147 = EDGE_LOOP ( 'NONE', ( #165, #226, #179, #349 ) ) ;
#148 = CARTESIAN_POINT ( 'NONE',  ( 6.000000000000000000, 19.49999999999998600, -8.673617379884035500E-015 ) ) ;
#149 = CARTESIAN_POINT ( 'NONE',  ( 0.0000000000000000000, -34.50000000000001400, 14.99999999999999100 ) ) ;
#150 = CC_DESIGN_APPROVAL ( #134, ( #380 ) ) ;
#151 = LINE ( 'NONE', #105, #102 ) ;
#152 = CARTESIAN_POINT ( 'NONE',  ( 0.0000000000000000000, 19.49999999999998600, 5.999999999999993800 ) ) ;
#153 = ORIENTED_EDGE ( 'NONE', *, *, #229, .F. ) ;
#154 = LINE ( 'NONE', #222, #166 ) ;
#155 = ORIENTED_EDGE ( 'NONE', *, *, #383, .F. ) ;
#156 = CARTESIAN_POINT ( 'NONE',  ( 6.000000000000000000, -19.50000000000002100, 5.999999999999992000 ) ) ;
#157 = VERTEX_POINT ( 'NONE', #123 ) ;
#158 = FACE_BOUND ( 'NONE', #329, .T. ) ;
#159 = CARTESIAN_POINT ( 'NONE',  ( 6.000000000000000000, 34.49999999999999300, -15.00000000000000700 ) ) ;
#160 = APPROVAL ( #248, 'UNSPECIFIED' ) ;
#161 = LOCAL_TIME ( 22, 27, 12.00000000000000000, #128 ) ;
#162 = CARTESIAN_POINT ( 'NONE',  ( 6.000000000000000000, 19.49999999999998600, -8.673617379884035500E-015 ) ) ;
#163 = DIRECTION ( 'NONE',  ( 0.0000000000000000000, 0.0000000000000000000, 1.000000000000000000 ) ) ;
#164 = APPROVAL_ROLE ( '' ) ;
#165 = ORIENTED_EDGE ( 'NONE', *, *, #277, .T. ) ;
#166 = VECTOR ( 'NONE', #348, 1000.000000000000000 ) ;
#167 = CARTESIAN_POINT ( 'NONE',  ( 6.000000000000000000, -19.50000000000002100, -8.673617379884035500E-015 ) ) ;
#168 = ORIENTED_EDGE ( 'NONE', *, *, #181, .F. ) ;
#169 = CC_DESIGN_SECURITY_CLASSIFICATION ( #5, ( #360 ) ) ;
#170 = DIRECTION ( 'NONE',  ( -0.0000000000000000000, 0.0000000000000000000, -1.000000000000000000 ) ) ;
#171 = ORIENTED_EDGE ( 'NONE', *, *, #332, .F. ) ;
#172 = DIRECTION ( 'NONE',  ( 0.0000000000000000000, 0.0000000000000000000, -1.000000000000000000 ) ) ;
#173 = CARTESIAN_POINT ( 'NONE',  ( 6.000000000000000000, -19.50000000000002100, -6.000000000000009800 ) ) ;
#174 = ORIENTED_EDGE ( 'NONE', *, *, #296, .T. ) ;
#175 = DIRECTION ( 'NONE',  ( 0.0000000000000000000, -0.0000000000000000000, 1.000000000000000000 ) ) ;
#176 = FACE_OUTER_BOUND ( 'NONE', #333, .T. ) ;
#177 = ORIENTED_EDGE ( 'NONE', *, *, #332, .T. ) ;
#178 = LINE ( 'NONE', #340, #376 ) ;
#179 = ORIENTED_EDGE ( 'NONE', *, *, #23, .F. ) ;
#180 = DIRECTION ( 'NONE',  ( -0.0000000000000000000, -1.000000000000000000, -0.0000000000000000000 ) ) ;
#181 = EDGE_CURVE ( 'NONE', #100, #188, #101, .T. ) ;
#182 = VECTOR ( 'NONE', #180, 1000.000000000000000 ) ;
#183 = APPROVAL_PERSON_ORGANIZATION ( #18, #160, #76 ) ;
#184 = ORIENTED_EDGE ( 'NONE', *, *, #8, .F. ) ;
#185 = CIRCLE ( 'NONE', #220, 6.000000000000002700 ) ;
#186 = CALENDAR_DATE ( 2016, 2, 11 ) ;
#187 = CARTESIAN_POINT ( 'NONE',  ( 0.0000000000000000000, 19.49999999999998600, -6.000000000000011500 ) ) ;
#188 = VERTEX_POINT ( 'NONE', #225 ) ;
#189 = DIRECTION ( 'NONE',  ( -1.000000000000000000, -0.0000000000000000000, -0.0000000000000000000 ) ) ;
#190 = DATE_TIME_ROLE ( 'creation_date' ) ;
#191 = CALENDAR_DATE ( 2016, 2, 11 ) ;
#192 = DIRECTION ( 'NONE',  ( 0.0000000000000000000, 0.0000000000000000000, -1.000000000000000000 ) ) ;
#193 = EDGE_CURVE ( 'NONE', #359, #92, #44, .T. ) ;
#194 = VERTEX_POINT ( 'NONE', #187 ) ;
#195 = CARTESIAN_POINT ( 'NONE',  ( 0.0000000000000000000, -34.50000000000001400, -15.00000000000000700 ) ) ;
#196 = CARTESIAN_POINT ( 'NONE',  ( 0.0000000000000000000, 0.0000000000000000000, 0.0000000000000000000 ) ) ;
#197 = ORIENTED_EDGE ( 'NONE', *, *, #363, .F. ) ;
#198 = APPLICATION_PROTOCOL_DEFINITION ( 'international standard', 'config_control_design', 1994, #345 ) ;
#199 = CARTESIAN_POINT ( 'NONE',  ( 6.000000000000000000, -34.50000000000001400, -15.00000000000000700 ) ) ;
#200 = CARTESIAN_POINT ( 'NONE',  ( 6.000000000000000000, -34.50000000000001400, 14.99999999999999100 ) ) ;
#201 = CARTESIAN_POINT ( 'NONE',  ( 6.000000000000000000, 19.49999999999998600, -6.000000000000011500 ) ) ;
#202 = EDGE_LOOP ( 'NONE', ( #264, #325 ) ) ;
#203 = LINE ( 'NONE', #321, #122 ) ;
#204 = DIRECTION ( 'NONE',  ( 1.000000000000000000, 0.0000000000000000000, -0.0000000000000000000 ) ) ;
#205 = AXIS2_PLACEMENT_3D ( 'NONE', #167, #256, #80 ) ;
#206 = ORIENTED_EDGE ( 'NONE', *, *, #298, .F. ) ;
#207 = PRODUCT_DEFINITION_SHAPE ( 'NONE', 'NONE',  #380 ) ;
#208 = LINE ( 'NONE', #316, #260 ) ;
#209 = EDGE_CURVE ( 'NONE', #194, #322, #326, .T. ) ;
#210 = DATE_AND_TIME ( #186, #45 ) ;
#211 = ORIENTED_EDGE ( 'NONE', *, *, #23, .T. ) ;
#212 = ADVANCED_FACE ( 'NONE', ( #343 ), #61, .F. ) ;
#213 = DIRECTION ( 'NONE',  ( -1.000000000000000000, -0.0000000000000000000, -0.0000000000000000000 ) ) ;
#214 = CC_DESIGN_DATE_AND_TIME_ASSIGNMENT ( #109, #50, ( #5 ) ) ;
#215 = APPLICATION_PROTOCOL_DEFINITION ( 'international standard', 'config_control_design', 1994, #283 ) ;
#216 = PERSON_AND_ORGANIZATION_ROLE ( 'creator' ) ;
#217 = ORIENTED_EDGE ( 'NONE', *, *, #106, .T. ) ;
#218 = CARTESIAN_POINT ( 'NONE',  ( 6.000000000000000000, 34.49999999999998600, 14.99999999999999100 ) ) ;
#219 =( NAMED_UNIT ( * ) SI_UNIT ( $, .STERADIAN. ) SOLID_ANGLE_UNIT ( ) );
#220 = AXIS2_PLACEMENT_3D ( 'NONE', #46, #108, #309 ) ;
#221 = DIRECTION ( 'NONE',  ( 1.000000000000000000, 0.0000000000000000000, -0.0000000000000000000 ) ) ;
#222 = CARTESIAN_POINT ( 'NONE',  ( 6.000000000000000000, -34.50000000000001400, -15.00000000000000700 ) ) ;
#223 = EDGE_CURVE ( 'NONE', #322, #194, #185, .T. ) ;
#224 = SHAPE_DEFINITION_REPRESENTATION ( #207, #352 ) ;
#225 = CARTESIAN_POINT ( 'NONE',  ( 0.0000000000000000000, -19.50000000000002100, -6.000000000000009800 ) ) ;
#226 = ORIENTED_EDGE ( 'NONE', *, *, #274, .F. ) ;
#227 = CARTESIAN_POINT ( 'NONE',  ( 0.0000000000000000000, -19.50000000000002100, -8.673617379884035500E-015 ) ) ;
#228 = ORIENTED_EDGE ( 'NONE', *, *, #209, .F. ) ;
#229 = EDGE_CURVE ( 'NONE', #30, #271, #295, .T. ) ;
#230 = DIRECTION ( 'NONE',  ( 0.0000000000000000000, 0.0000000000000000000, -1.000000000000000000 ) ) ;
#231 = LINE ( 'NONE', #354, #125 ) ;
#232 = FACE_OUTER_BOUND ( 'NONE', #356, .T. ) ;
#233 = DIRECTION ( 'NONE',  ( 0.0000000000000000000, 0.0000000000000000000, 1.000000000000000000 ) ) ;
#234 = DIRECTION ( 'NONE',  ( 0.0000000000000000000, -2.312964634635743000E-016, 1.000000000000000000 ) ) ;
#235 = PERSON_AND_ORGANIZATION ( #351, #32 ) ;
#236 = ADVANCED_FACE ( 'NONE', ( #288 ), #136, .F. ) ;
#237 = VERTEX_POINT ( 'NONE', #218 ) ;
#238 = DIRECTION ( 'NONE',  ( 1.000000000000000000, 0.0000000000000000000, -0.0000000000000000000 ) ) ;
#239 = VECTOR ( 'NONE', #82, 1000.000000000000000 ) ;
#240 = ORIENTED_EDGE ( 'NONE', *, *, #296, .F. ) ;
#241 = CYLINDRICAL_SURFACE ( 'NONE', #52, 6.000000000000000900 ) ;
#242 = EDGE_LOOP ( 'NONE', ( #217, #72, #211, #303 ) ) ;
#243 = ADVANCED_FACE ( 'NONE', ( #232 ), #17, .F. ) ;
#244 = AXIS2_PLACEMENT_3D ( 'NONE', #199, #381, #204 ) ;
#245 = APPROVAL_DATE_TIME ( #140, #160 ) ;
#246 = DIRECTION ( 'NONE',  ( 0.0000000000000000000, 0.0000000000000000000, -1.000000000000000000 ) ) ;
#247 = CARTESIAN_POINT ( 'NONE',  ( 0.0000000000000000000, 19.49999999999998600, -8.673617379884035500E-015 ) ) ;
#248 = APPROVAL_STATUS ( 'not_yet_approved' ) ;
#249 = CIRCLE ( 'NONE', #205, 6.000000000000000900 ) ;
#250 = ORIENTED_EDGE ( 'NONE', *, *, #42, .F. ) ;
#251 = DIRECTION ( 'NONE',  ( 1.000000000000000000, 0.0000000000000000000, 0.0000000000000000000 ) ) ;
#252 = AXIS2_PLACEMENT_3D ( 'NONE', #6, #2, #36 ) ;
#253 = ORIENTED_EDGE ( 'NONE', *, *, #181, .T. ) ;
#254 = EDGE_CURVE ( 'NONE', #359, #100, #118, .T. ) ;
#255 = EDGE_LOOP ( 'NONE', ( #43, #28, #168, #39 ) ) ;
#256 = DIRECTION ( 'NONE',  ( 1.000000000000000000, 0.0000000000000000000, 0.0000000000000000000 ) ) ;
#257 = VECTOR ( 'NONE', #189, 1000.000000000000000 ) ;
#258 = EDGE_LOOP ( 'NONE', ( #131, #12, #155, #88 ) ) ;
#259 = DIRECTION ( 'NONE',  ( 1.000000000000000000, 0.0000000000000000000, 0.0000000000000000000 ) ) ;
#260 = VECTOR ( 'NONE', #26, 1000.000000000000000 ) ;
#261 = VERTEX_POINT ( 'NONE', #341 ) ;
#262 = CALENDAR_DATE ( 2016, 2, 11 ) ;
#263 = CARTESIAN_POINT ( 'NONE',  ( 6.000000000000000000, 19.49999999999998600, -6.000000000000011500 ) ) ;
#264 = ORIENTED_EDGE ( 'NONE', *, *, #223, .T. ) ;
#265 = CARTESIAN_POINT ( 'NONE',  ( 0.0000000000000000000, -19.50000000000002100, 5.999999999999992000 ) ) ;
#266 = CARTESIAN_POINT ( 'NONE',  ( 6.000000000000000000, 19.49999999999998600, -8.673617379884035500E-015 ) ) ;
#267 = DIRECTION ( 'NONE',  ( -1.000000000000000000, -0.0000000000000000000, -0.0000000000000000000 ) ) ;
#268 =( GEOMETRIC_REPRESENTATION_CONTEXT ( 3 ) GLOBAL_UNCERTAINTY_ASSIGNED_CONTEXT ( ( #300 ) ) GLOBAL_UNIT_ASSIGNED_CONTEXT ( ( #373, #290, #219 ) ) REPRESENTATION_CONTEXT ( 'NONE', 'WORKASPACE' ) );
#269 = COORDINATED_UNIVERSAL_TIME_OFFSET ( 3, 0, .AHEAD. ) ;
#270 = EDGE_CURVE ( 'NONE', #261, #287, #178, .T. ) ;
#271 = VERTEX_POINT ( 'NONE', #280 ) ;
#272 = LOCAL_TIME ( 22, 27, 12.00000000000000000, #269 ) ;
#273 = CIRCLE ( 'NONE', #252, 6.000000000000000900 ) ;
#274 = EDGE_CURVE ( 'NONE', #157, #78, #305, .T. ) ;
#275 = PLANE ( 'NONE',  #68 ) ;
#276 = ADVANCED_FACE ( 'NONE', ( #176 ), #24, .F. ) ;
#277 = EDGE_CURVE ( 'NONE', #287, #78, #151, .T. ) ;
#278 = FACE_OUTER_BOUND ( 'NONE', #242, .T. ) ;
#279 = CIRCLE ( 'NONE', #358, 6.000000000000002700 ) ;
#280 = CARTESIAN_POINT ( 'NONE',  ( 6.000000000000000000, 19.49999999999998600, 5.999999999999993800 ) ) ;
#281 = DIRECTION ( 'NONE',  ( 0.0000000000000000000, -1.000000000000000000, -2.312964634635743000E-016 ) ) ;
#282 = CARTESIAN_POINT ( 'NONE',  ( 6.000000000000000000, -19.50000000000002100, -8.673617379884035500E-015 ) ) ;
#283 = APPLICATION_CONTEXT ( 'configuration controlled 3d designs of mechanical parts and assemblies' ) ;
#284 = CALENDAR_DATE ( 2016, 2, 11 ) ;
#285 = DIRECTION ( 'NONE',  ( -1.000000000000000000, -0.0000000000000000000, -0.0000000000000000000 ) ) ;
#286 = EDGE_CURVE ( 'NONE', #237, #377, #208, .T. ) ;
#287 = VERTEX_POINT ( 'NONE', #195 ) ;
#288 = FACE_OUTER_BOUND ( 'NONE', #304, .T. ) ;
#289 = AXIS2_PLACEMENT_3D ( 'NONE', #162, #251, #142 ) ;
#290 =( NAMED_UNIT ( * ) PLANE_ANGLE_UNIT ( ) SI_UNIT ( $, .RADIAN. ) );
#291 = PRODUCT ( 'Ñîåäèíèòåëüíûå ïëàñòèíû ê ÂÀ-99Ñ (Compact NS) EKF PROxima  400õ630À) (öåíòðàëüíÿÿ)', 'Ñîåäèíèòåëüíûå ïëàñòèíû ê ÂÀ-99Ñ (Compact NS) EKF PROxima  400õ630À) (öåíòðàëüíÿÿ)', '', ( #29 ) ) ;
#292 = DATE_AND_TIME ( #331, #272 ) ;
#293 = DIRECTION ( 'NONE',  ( 0.0000000000000000000, 0.0000000000000000000, 1.000000000000000000 ) ) ;
#294 = ORIENTED_EDGE ( 'NONE', *, *, #357, .F. ) ;
#295 = CIRCLE ( 'NONE', #289, 6.000000000000002700 ) ;
#296 = EDGE_CURVE ( 'NONE', #92, #359, #249, .T. ) ;
#297 = FACE_OUTER_BOUND ( 'NONE', #127, .T. ) ;
#298 = EDGE_CURVE ( 'NONE', #188, #100, #273, .T. ) ;
#299 = ORIENTED_EDGE ( 'NONE', *, *, #8, .T. ) ;
#300 = UNCERTAINTY_MEASURE_WITH_UNIT (LENGTH_MEASURE( 1.000000000000000100E-005 ), #373, 'distance_accuracy_value', 'NONE');
#301 = ADVANCED_FACE ( 'NONE', ( #114 ), #241, .F. ) ;
#302 = EDGE_CURVE ( 'NONE', #78, #377, #374, .T. ) ;
#303 = ORIENTED_EDGE ( 'NONE', *, *, #357, .T. ) ;
#304 = EDGE_LOOP ( 'NONE', ( #338, #174, #10, #206 ) ) ;
#305 = LINE ( 'NONE', #159, #257 ) ;
#306 = CC_DESIGN_PERSON_AND_ORGANIZATION_ASSIGNMENT ( #379, #216, ( #380 ) ) ;
#307 = DIRECTION ( 'NONE',  ( -1.000000000000000000, -0.0000000000000000000, -0.0000000000000000000 ) ) ;
#308 = LINE ( 'NONE', #83, #239 ) ;
#309 = DIRECTION ( 'NONE',  ( 0.0000000000000000000, 0.0000000000000000000, -1.000000000000000000 ) ) ;
#310 = PERSON_AND_ORGANIZATION_ROLE ( 'design_supplier' ) ;
#311 = EDGE_LOOP ( 'NONE', ( #184, #153 ) ) ;
#312 = CARTESIAN_POINT ( 'NONE',  ( 6.000000000000000000, -19.50000000000002100, 5.999999999999992000 ) ) ;
#313 = AXIS2_PLACEMENT_3D ( 'NONE', #247, #103, #246 ) ;
#314 = ORIENTED_EDGE ( 'NONE', *, *, #302, .F. ) ;
#315 = COORDINATED_UNIVERSAL_TIME_OFFSET ( 3, 0, .AHEAD. ) ;
#316 = CARTESIAN_POINT ( 'NONE',  ( 6.000000000000000000, 34.49999999999998600, 14.99999999999999100 ) ) ;
#317 = VECTOR ( 'NONE', #1, 1000.000000000000000 ) ;
#318 = DIRECTION ( 'NONE',  ( -1.000000000000000000, -0.0000000000000000000, -0.0000000000000000000 ) ) ;
#319 = EDGE_CURVE ( 'NONE', #377, #144, #133, .T. ) ;
#320 = PERSON_AND_ORGANIZATION ( #351, #32 ) ;
#321 = CARTESIAN_POINT ( 'NONE',  ( 6.000000000000000000, -34.50000000000001400, 14.99999999999999100 ) ) ;
#322 = VERTEX_POINT ( 'NONE', #152 ) ;
#323 = ORIENTED_EDGE ( 'NONE', *, *, #319, .F. ) ;
#324 = PLANE ( 'NONE',  #37 ) ;
#325 = ORIENTED_EDGE ( 'NONE', *, *, #209, .T. ) ;
#326 = CIRCLE ( 'NONE', #313, 6.000000000000002700 ) ;
#327 = DESIGN_CONTEXT ( 'detailed design', #283, 'design' ) ;
#328 = PERSON_AND_ORGANIZATION ( #351, #32 ) ;
#329 = EDGE_LOOP ( 'NONE', ( #253, #370 ) ) ;
#330 = CC_DESIGN_DATE_AND_TIME_ASSIGNMENT ( #210, #190, ( #380 ) ) ;
#331 = CALENDAR_DATE ( 2016, 2, 11 ) ;
#332 = EDGE_CURVE ( 'NONE', #271, #322, #93, .T. ) ;
#333 = EDGE_LOOP ( 'NONE', ( #96, #197, #113, #342 ) ) ;
#334 = VECTOR ( 'NONE', #234, 1000.000000000000000 ) ;
#335 = ADVANCED_FACE ( 'NONE', ( #15, #25, #158 ), #275, .F. ) ;
#336 = PERSON_AND_ORGANIZATION ( #351, #32 ) ;
#337 = DIRECTION ( 'NONE',  ( 1.000000000000000000, 0.0000000000000000000, 0.0000000000000000000 ) ) ;
#338 = ORIENTED_EDGE ( 'NONE', *, *, #366, .F. ) ;
#339 = APPROVAL_STATUS ( 'not_yet_approved' ) ;
#340 = CARTESIAN_POINT ( 'NONE',  ( 6.000000000000000000, -34.50000000000001400, -15.00000000000000700 ) ) ;
#341 = CARTESIAN_POINT ( 'NONE',  ( 6.000000000000000000, -34.50000000000001400, -15.00000000000000700 ) ) ;
#342 = ORIENTED_EDGE ( 'NONE', *, *, #286, .T. ) ;
#343 = FACE_OUTER_BOUND ( 'NONE', #71, .T. ) ;
#344 = DIRECTION ( 'NONE',  ( 0.0000000000000000000, 1.000000000000000000, 0.0000000000000000000 ) ) ;
#345 = APPLICATION_CONTEXT ( 'configuration controlled 3d designs of mechanical parts and assemblies' ) ;
#346 = COORDINATED_UNIVERSAL_TIME_OFFSET ( 3, 0, .AHEAD. ) ;
#347 = CC_DESIGN_APPROVAL ( #160, ( #360 ) ) ;
#348 = DIRECTION ( 'NONE',  ( -0.0000000000000000000, -0.0000000000000000000, -1.000000000000000000 ) ) ;
#349 = ORIENTED_EDGE ( 'NONE', *, *, #270, .T. ) ;
#350 = CARTESIAN_POINT ( 'NONE',  ( 6.000000000000000000, -34.50000000000001400, -15.00000000000000700 ) ) ;
#351 = PERSON ( 'UNSPECIFIED', 'UNSPECIFIED', 'UNSPECIFIED', ('UNSPECIFIED'), ('UNSPECIFIED'), ('UNSPECIFIED') ) ;
#352 = ADVANCED_BREP_SHAPE_REPRESENTATION ( 'Tþõôøýøªõû¹ývõ ÿûð¸ªøýv ú TL-99T (Compact NS) EKF PROxima  400¿630L) (¡õýª¨ðû¹ý  )', ( #56, #91 ), #268 ) ;
#353 = APPROVAL_PERSON_ORGANIZATION ( #235, #111, #164 ) ;
#354 = CARTESIAN_POINT ( 'NONE',  ( 0.0000000000000000000, -34.50000000000001400, -15.00000000000000700 ) ) ;
#355 = CC_DESIGN_APPROVAL ( #111, ( #5 ) ) ;
#356 = EDGE_LOOP ( 'NONE', ( #22, #86, #294, #104 ) ) ;
#357 = EDGE_CURVE ( 'NONE', #157, #237, #60, .T. ) ;
#358 = AXIS2_PLACEMENT_3D ( 'NONE', #148, #31, #172 ) ;
#359 = VERTEX_POINT ( 'NONE', #156 ) ;
#360 = PRODUCT_DEFINITION_FORMATION_WITH_SPECIFIED_SOURCE ( 'ANY', '', #291, .NOT_KNOWN. ) ;
#361 = CARTESIAN_POINT ( 'NONE',  ( 6.000000000000000000, -19.50000000000002100, -8.673617379884035500E-015 ) ) ;
#362 = COORDINATED_UNIVERSAL_TIME_OFFSET ( 3, 0, .AHEAD. ) ;
#363 = EDGE_CURVE ( 'NONE', #135, #144, #115, .T. ) ;
#364 = ADVANCED_FACE ( 'NONE', ( #368, #278, #38 ), #378, .T. ) ;
#365 = CC_DESIGN_PERSON_AND_ORGANIZATION_ASSIGNMENT ( #336, #310, ( #360 ) ) ;
#366 = EDGE_CURVE ( 'NONE', #92, #188, #308, .T. ) ;
#367 = PERSON_AND_ORGANIZATION_ROLE ( 'classification_officer' ) ;
#368 = FACE_BOUND ( 'NONE', #311, .T. ) ;
#369 = CC_DESIGN_PERSON_AND_ORGANIZATION_ASSIGNMENT ( #328, #375, ( #291 ) ) ;
#370 = ORIENTED_EDGE ( 'NONE', *, *, #298, .T. ) ;
#371 = VECTOR ( 'NONE', #132, 1000.000000000000000 ) ;
#372 = CARTESIAN_POINT ( 'NONE',  ( 6.000000000000000000, -34.50000000000001400, 14.99999999999999100 ) ) ;
#373 =( LENGTH_UNIT ( ) NAMED_UNIT ( * ) SI_UNIT ( .MILLI., .METRE. ) );
#374 = LINE ( 'NONE', #9, #334 ) ;
#375 = PERSON_AND_ORGANIZATION_ROLE ( 'design_owner' ) ;
#376 = VECTOR ( 'NONE', #307, 1000.000000000000000 ) ;
#377 = VERTEX_POINT ( 'NONE', #57 ) ;
#378 = PLANE ( 'NONE',  #70 ) ;
#379 = PERSON_AND_ORGANIZATION ( #351, #32 ) ;
#380 = PRODUCT_DEFINITION ( 'UNKNOWN', '', #360, #327 ) ;
#381 = DIRECTION ( 'NONE',  ( 0.0000000000000000000, 0.0000000000000000000, 1.000000000000000000 ) ) ;
#382 = EDGE_LOOP ( 'NONE', ( #323, #314, #385, #67 ) ) ;
#383 = EDGE_CURVE ( 'NONE', #135, #261, #154, .T. ) ;
#384 = DIRECTION ( 'NONE',  ( -1.000000000000000000, -0.0000000000000000000, -0.0000000000000000000 ) ) ;
#385 = ORIENTED_EDGE ( 'NONE', *, *, #277, .F. ) ;
ENDSEC;
END-ISO-10303-21;
