ISO-10303-21;
HEADER;
FILE_DESCRIPTION (( 'STEP AP203' ),
    '1' );
FILE_NAME ('Êðûøêà íà îòâåòâèòåëü Ò-îáðàçíûé âåðòèêàëüíûé TDSR_38402.STEP',
    '2012-11-09T08:44:28',
    ( 'Àñååâ' ),
    ( '' ),
    'SwSTEP 2.0',
    'SolidWorks 2012',
    '' );
FILE_SCHEMA (( 'CONFIG_CONTROL_DESIGN' ));
ENDSEC;

DATA;
#1 = CARTESIAN_POINT ( 'NONE',  ( 101.6000000000000100, -14.00000000000000000, 410.0000000000000000 ) ) ;
#2 = CARTESIAN_POINT ( 'NONE',  ( 1.734723475976807100E-015, 0.0000000000000000000, 17.49999999999999600 ) ) ;
#3 = CARTESIAN_POINT ( 'NONE',  ( 0.0000000000000000000, 0.0000000000000000000, 397.5000000000000000 ) ) ;
#4 = CARTESIAN_POINT ( 'NONE',  ( 1.734723475976807100E-015, 0.5999999999999999800, 17.49999999999999600 ) ) ;
#5 = CARTESIAN_POINT ( 'NONE',  ( 0.0000000000000000000, 0.0000000000000000000, 0.0000000000000000000 ) ) ;
#6 = CARTESIAN_POINT ( 'NONE',  ( 0.0000000000000000000, 0.5999999999999999800, 392.5000000000000000 ) ) ;
#7 = PLANE ( 'NONE',  #194 ) ;
#8 = CARTESIAN_POINT ( 'NONE',  ( -101.0000000000000000, 0.0000000000000000000, 410.0000000000000000 ) ) ;
#9 = CARTESIAN_POINT ( 'NONE',  ( -101.0000000000000000, -14.00000000000000000, 0.0000000000000000000 ) ) ;
#10 = CARTESIAN_POINT ( 'NONE',  ( 101.0000000000000000, -14.00000000000000000, 410.0000000000000000 ) ) ;
#11 = CARTESIAN_POINT ( 'NONE',  ( -101.0000000000000000, -14.00000000000000000, 410.0000000000000000 ) ) ;
#12 = CARTESIAN_POINT ( 'NONE',  ( 101.0000000000000000, 0.0000000000000000000, 410.0000000000000000 ) ) ;
#13 = DIRECTION ( 'NONE',  ( 0.0000000000000000000, 0.0000000000000000000, 1.000000000000000000 ) ) ;
#14 = CARTESIAN_POINT ( 'NONE',  ( 101.6000000000000100, -14.00000000000000000, 410.0000000000000000 ) ) ;
#15 = CARTESIAN_POINT ( 'NONE',  ( 101.0000000000000000, -14.00000000000000000, 0.0000000000000000000 ) ) ;
#16 = CARTESIAN_POINT ( 'NONE',  ( 101.6000000000000100, 0.5999999999999999800, 0.0000000000000000000 ) ) ;
#17 = CARTESIAN_POINT ( 'NONE',  ( 101.6000000000000100, -14.00000000000000000, 0.0000000000000000000 ) ) ;
#18 = CARTESIAN_POINT ( 'NONE',  ( -101.6000000000000100, 0.5999999999999999800, 0.0000000000000000000 ) ) ;
#19 = CARTESIAN_POINT ( 'NONE',  ( 101.0000000000000000, 0.0000000000000000000, 0.0000000000000000000 ) ) ;
#20 = CARTESIAN_POINT ( 'NONE',  ( -101.0000000000000000, 0.0000000000000000000, 410.0000000000000000 ) ) ;
#21 = CARTESIAN_POINT ( 'NONE',  ( -101.6000000000000100, 0.5999999999999999800, 410.0000000000000000 ) ) ;
#22 = CARTESIAN_POINT ( 'NONE',  ( -101.6000000000000100, -14.00000000000000000, 410.0000000000000000 ) ) ;
#23 = DIRECTION ( 'NONE',  ( 0.0000000000000000000, 0.0000000000000000000, 1.000000000000000000 ) ) ;
#24 = DIRECTION ( 'NONE',  ( -1.000000000000000000, 0.0000000000000000000, 0.0000000000000000000 ) ) ;
#25 = DIRECTION ( 'NONE',  ( -1.000000000000000000, 0.0000000000000000000, 0.0000000000000000000 ) ) ;
#26 = CARTESIAN_POINT ( 'NONE',  ( -101.0000000000000000, 0.0000000000000000000, 0.0000000000000000000 ) ) ;
#27 = CARTESIAN_POINT ( 'NONE',  ( 101.6000000000000100, -14.00000000000000000, 0.0000000000000000000 ) ) ;
#28 = PLANE ( 'NONE',  #140 ) ;
#29 = DIRECTION ( 'NONE',  ( -0.0000000000000000000, -0.0000000000000000000, -1.000000000000000000 ) ) ;
#30 = CARTESIAN_POINT ( 'NONE',  ( 101.0000000000000000, 0.0000000000000000000, 410.0000000000000000 ) ) ;
#31 = DIRECTION ( 'NONE',  ( 0.0000000000000000000, -1.000000000000000000, 0.0000000000000000000 ) ) ;
#32 = DIRECTION ( 'NONE',  ( 0.0000000000000000000, -1.000000000000000000, 0.0000000000000000000 ) ) ;
#33 = CARTESIAN_POINT ( 'NONE',  ( -101.6000000000000100, -14.00000000000000000, 0.0000000000000000000 ) ) ;
#34 = CARTESIAN_POINT ( 'NONE',  ( 101.0000000000000000, 0.0000000000000000000, 0.0000000000000000000 ) ) ;
#35 = DIRECTION ( 'NONE',  ( 1.000000000000000000, 0.0000000000000000000, 0.0000000000000000000 ) ) ;
#36 = DIRECTION ( 'NONE',  ( 0.0000000000000000000, 0.0000000000000000000, 1.000000000000000000 ) ) ;
#37 = DIRECTION ( 'NONE',  ( -1.000000000000000000, 0.0000000000000000000, 0.0000000000000000000 ) ) ;
#38 = CARTESIAN_POINT ( 'NONE',  ( 101.0000000000000000, 0.0000000000000000000, 410.0000000000000000 ) ) ;
#39 = DIRECTION ( 'NONE',  ( 1.000000000000000000, 0.0000000000000000000, 0.0000000000000000000 ) ) ;
#40 = DIRECTION ( 'NONE',  ( 0.0000000000000000000, 0.0000000000000000000, 1.000000000000000000 ) ) ;
#41 = DIRECTION ( 'NONE',  ( 0.0000000000000000000, 1.000000000000000000, 0.0000000000000000000 ) ) ;
#42 = DIRECTION ( 'NONE',  ( -0.0000000000000000000, -1.000000000000000000, -0.0000000000000000000 ) ) ;
#43 = PLANE ( 'NONE',  #144 ) ;
#44 = CARTESIAN_POINT ( 'NONE',  ( 1.734723475976807100E-015, 0.0000000000000000000, 14.99999999999999300 ) ) ;
#45 = DIRECTION ( 'NONE',  ( 0.0000000000000000000, 0.0000000000000000000, 1.000000000000000000 ) ) ;
#46 = DIRECTION ( 'NONE',  ( -0.0000000000000000000, -1.000000000000000000, -0.0000000000000000000 ) ) ;
#47 = CARTESIAN_POINT ( 'NONE',  ( 0.0000000000000000000, 0.0000000000000000000, 395.0000000000000000 ) ) ;
#48 = CARTESIAN_POINT ( 'NONE',  ( 101.6000000000000100, 0.5999999999999999800, 410.0000000000000000 ) ) ;
#49 = CARTESIAN_POINT ( 'NONE',  ( -101.0000000000000000, 0.0000000000000000000, 410.0000000000000000 ) ) ;
#50 = DIRECTION ( 'NONE',  ( 0.0000000000000000000, -0.0000000000000000000, 1.000000000000000000 ) ) ;
#51 = CARTESIAN_POINT ( 'NONE',  ( -101.6000000000000100, 0.0000000000000000000, 410.0000000000000000 ) ) ;
#52 = CARTESIAN_POINT ( 'NONE',  ( -101.0000000000000000, 0.0000000000000000000, 0.0000000000000000000 ) ) ;
#53 = DIRECTION ( 'NONE',  ( -0.0000000000000000000, 1.000000000000000000, -0.0000000000000000000 ) ) ;
#54 = DIRECTION ( 'NONE',  ( -0.0000000000000000000, -0.0000000000000000000, -1.000000000000000000 ) ) ;
#55 = CARTESIAN_POINT ( 'NONE',  ( -101.0000000000000000, 0.0000000000000000000, 410.0000000000000000 ) ) ;
#56 = PLANE ( 'NONE',  #145 ) ;
#57 = DIRECTION ( 'NONE',  ( -0.0000000000000000000, -0.0000000000000000000, -1.000000000000000000 ) ) ;
#58 = CARTESIAN_POINT ( 'NONE',  ( 101.6000000000000100, -14.00000000000000000, 410.0000000000000000 ) ) ;
#59 = DIRECTION ( 'NONE',  ( -0.0000000000000000000, -0.0000000000000000000, -1.000000000000000000 ) ) ;
#60 = CARTESIAN_POINT ( 'NONE',  ( -101.0000000000000000, 0.0000000000000000000, 410.0000000000000000 ) ) ;
#61 = CARTESIAN_POINT ( 'NONE',  ( 101.0000000000000000, -14.00000000000000000, 410.0000000000000000 ) ) ;
#62 = DIRECTION ( 'NONE',  ( -0.0000000000000000000, 1.000000000000000000, -0.0000000000000000000 ) ) ;
#63 = CARTESIAN_POINT ( 'NONE',  ( -101.0000000000000000, 0.5999999999999999800, 410.0000000000000000 ) ) ;
#64 = DIRECTION ( 'NONE',  ( 0.0000000000000000000, 1.000000000000000000, 0.0000000000000000000 ) ) ;
#65 = CARTESIAN_POINT ( 'NONE',  ( -101.0000000000000000, 0.0000000000000000000, 0.0000000000000000000 ) ) ;
#66 = DIRECTION ( 'NONE',  ( -0.0000000000000000000, -1.000000000000000000, 0.0000000000000000000 ) ) ;
#67 = DIRECTION ( 'NONE',  ( -1.000000000000000000, 0.0000000000000000000, 0.0000000000000000000 ) ) ;
#68 = CARTESIAN_POINT ( 'NONE',  ( 101.6000000000000100, -14.00000000000000000, 410.0000000000000000 ) ) ;
#69 = DIRECTION ( 'NONE',  ( -1.000000000000000000, 0.0000000000000000000, 0.0000000000000000000 ) ) ;
#70 = DIRECTION ( 'NONE',  ( -0.0000000000000000000, -0.0000000000000000000, -1.000000000000000000 ) ) ;
#71 = CARTESIAN_POINT ( 'NONE',  ( -101.0000000000000000, 0.0000000000000000000, 410.0000000000000000 ) ) ;
#72 = CARTESIAN_POINT ( 'NONE',  ( -101.0000000000000000, -14.00000000000000000, 410.0000000000000000 ) ) ;
#73 = DIRECTION ( 'NONE',  ( -1.000000000000000000, 0.0000000000000000000, 0.0000000000000000000 ) ) ;
#74 = CARTESIAN_POINT ( 'NONE',  ( -101.0000000000000000, -14.00000000000000000, 0.0000000000000000000 ) ) ;
#75 = DIRECTION ( 'NONE',  ( 0.0000000000000000000, 1.000000000000000000, 0.0000000000000000000 ) ) ;
#76 = DIRECTION ( 'NONE',  ( -0.0000000000000000000, -0.0000000000000000000, -1.000000000000000000 ) ) ;
#77 = CARTESIAN_POINT ( 'NONE',  ( 101.6000000000000100, 0.0000000000000000000, 0.0000000000000000000 ) ) ;
#78 = CARTESIAN_POINT ( 'NONE',  ( -101.6000000000000100, -14.00000000000000000, 410.0000000000000000 ) ) ;
#79 = CARTESIAN_POINT ( 'NONE',  ( 0.0000000000000000000, -14.00099999999999900, 395.0000000000000000 ) ) ;
#80 = DIRECTION ( 'NONE',  ( 0.0000000000000000000, 1.000000000000000000, 0.0000000000000000000 ) ) ;
#81 = DIRECTION ( 'NONE',  ( -0.0000000000000000000, 0.0000000000000000000, -1.000000000000000000 ) ) ;
#82 = DIRECTION ( 'NONE',  ( 1.000000000000000000, 0.0000000000000000000, -0.0000000000000000000 ) ) ;
#83 = PLANE ( 'NONE',  #151 ) ;
#84 = DIRECTION ( 'NONE',  ( -0.0000000000000000000, 1.000000000000000000, -0.0000000000000000000 ) ) ;
#85 = CARTESIAN_POINT ( 'NONE',  ( -101.6000000000000100, 0.0000000000000000000, 0.0000000000000000000 ) ) ;
#86 = DIRECTION ( 'NONE',  ( 1.000000000000000000, 0.0000000000000000000, 0.0000000000000000000 ) ) ;
#87 = CARTESIAN_POINT ( 'NONE',  ( -101.0000000000000000, -14.00000000000000000, 410.0000000000000000 ) ) ;
#88 = CARTESIAN_POINT ( 'NONE',  ( -101.6000000000000100, 0.5999999999999999800, 410.0000000000000000 ) ) ;
#89 = PLANE ( 'NONE',  #148 ) ;
#90 = DIRECTION ( 'NONE',  ( 1.000000000000000000, 0.0000000000000000000, 0.0000000000000000000 ) ) ;
#91 = DIRECTION ( 'NONE',  ( 0.0000000000000000000, 0.0000000000000000000, 1.000000000000000000 ) ) ;
#92 = DIRECTION ( 'NONE',  ( 0.0000000000000000000, 1.000000000000000000, 0.0000000000000000000 ) ) ;
#93 = CARTESIAN_POINT ( 'NONE',  ( 1.734723475976807100E-015, 0.5999999999999999800, 14.99999999999999300 ) ) ;
#94 = CARTESIAN_POINT ( 'NONE',  ( -101.6000000000000100, 0.0000000000000000000, 410.0000000000000000 ) ) ;
#95 = DIRECTION ( 'NONE',  ( 0.0000000000000000000, 0.0000000000000000000, -1.000000000000000000 ) ) ;
#96 = DIRECTION ( 'NONE',  ( -1.000000000000000000, 0.0000000000000000000, 0.0000000000000000000 ) ) ;
#97 = DIRECTION ( 'NONE',  ( -0.0000000000000000000, 1.000000000000000000, -0.0000000000000000000 ) ) ;
#98 = CARTESIAN_POINT ( 'NONE',  ( 0.0000000000000000000, 0.5999999999999999800, 395.0000000000000000 ) ) ;
#99 = DIRECTION ( 'NONE',  ( -0.0000000000000000000, 0.0000000000000000000, -1.000000000000000000 ) ) ;
#100 = CARTESIAN_POINT ( 'NONE',  ( -101.0000000000000000, 0.5999999999999999800, 410.0000000000000000 ) ) ;
#101 = DIRECTION ( 'NONE',  ( -0.0000000000000000000, -0.0000000000000000000, -1.000000000000000000 ) ) ;
#102 = CARTESIAN_POINT ( 'NONE',  ( -101.0000000000000000, 0.5999999999999999800, 0.0000000000000000000 ) ) ;
#103 = DIRECTION ( 'NONE',  ( 0.0000000000000000000, 0.0000000000000000000, 1.000000000000000000 ) ) ;
#104 = CARTESIAN_POINT ( 'NONE',  ( 101.0000000000000000, 0.0000000000000000000, 410.0000000000000000 ) ) ;
#105 = DIRECTION ( 'NONE',  ( -0.0000000000000000000, -0.0000000000000000000, -1.000000000000000000 ) ) ;
#106 = CARTESIAN_POINT ( 'NONE',  ( 101.6000000000000100, 0.5999999999999999800, 410.0000000000000000 ) ) ;
#107 = CARTESIAN_POINT ( 'NONE',  ( 101.6000000000000100, 0.0000000000000000000, 410.0000000000000000 ) ) ;
#108 = DIRECTION ( 'NONE',  ( -0.0000000000000000000, 0.0000000000000000000, -1.000000000000000000 ) ) ;
#109 = DIRECTION ( 'NONE',  ( 1.000000000000000000, 0.0000000000000000000, -0.0000000000000000000 ) ) ;
#110 = DIRECTION ( 'NONE',  ( 0.0000000000000000000, -1.000000000000000000, 0.0000000000000000000 ) ) ;
#111 = CARTESIAN_POINT ( 'NONE',  ( -101.0000000000000000, -14.00000000000000000, 410.0000000000000000 ) ) ;
#112 = DIRECTION ( 'NONE',  ( -0.0000000000000000000, -1.000000000000000000, 0.0000000000000000000 ) ) ;
#113 = PLANE ( 'NONE',  #187 ) ;
#114 = PLANE ( 'NONE',  #154 ) ;
#115 = CARTESIAN_POINT ( 'NONE',  ( 0.0000000000000000000, 0.0000000000000000000, 0.0000000000000000000 ) ) ;
#116 = DIRECTION ( 'NONE',  ( -0.0000000000000000000, 0.0000000000000000000, -1.000000000000000000 ) ) ;
#117 = CARTESIAN_POINT ( 'NONE',  ( 101.6000000000000100, 0.0000000000000000000, 410.0000000000000000 ) ) ;
#118 = CARTESIAN_POINT ( 'NONE',  ( 1.734723475976807100E-015, -14.00099999999999900, 14.99999999999999300 ) ) ;
#119 = DIRECTION ( 'NONE',  ( 0.0000000000000000000, -0.0000000000000000000, -1.000000000000000000 ) ) ;
#120 = DIRECTION ( 'NONE',  ( 0.0000000000000000000, -0.0000000000000000000, -1.000000000000000000 ) ) ;
#121 = PLANE ( 'NONE',  #153 ) ;
#122 = DIRECTION ( 'NONE',  ( 0.0000000000000000000, -1.000000000000000000, 0.0000000000000000000 ) ) ;
#123 = DIRECTION ( 'NONE',  ( -0.0000000000000000000, 1.000000000000000000, -0.0000000000000000000 ) ) ;
#124 = CARTESIAN_POINT ( 'NONE',  ( 0.0000000000000000000, 0.0000000000000000000, 410.0000000000000000 ) ) ;
#125 = PLANE ( 'NONE',  #199 ) ;
#126 = DIRECTION ( 'NONE',  ( 0.0000000000000000000, -0.0000000000000000000, 1.000000000000000000 ) ) ;
#127 = DIRECTION ( 'NONE',  ( -1.000000000000000000, 0.0000000000000000000, 0.0000000000000000000 ) ) ;
#128 = ADVANCED_FACE ( 'NONE', ( #339 ), #114, .T. ) ;
#129 = ADVANCED_FACE ( 'NONE', ( #427 ), #121, .T. ) ;
#130 = ADVANCED_FACE ( 'NONE', ( #338 ), #83, .F. ) ;
#131 = ADVANCED_FACE ( 'NONE', ( #336 ), #89, .F. ) ;
#132 = ADVANCED_FACE ( 'NONE', ( #335, #332 ), #330, .F. ) ;
#133 = ADVANCED_FACE ( 'NONE', ( #337, #329, #334 ), #56, .T. ) ;
#134 = ADVANCED_FACE ( 'NONE', ( #333 ), #43, .T. ) ;
#135 = ADVANCED_FACE ( 'NONE', ( #331 ), #28, .F. ) ;
#136 = ADVANCED_FACE ( 'NONE', ( #327, #357, #353 ), #7, .F. ) ;
#137 = ADVANCED_FACE ( 'NONE', ( #352 ), #125, .T. ) ;
#138 = ADVANCED_FACE ( 'NONE', ( #328, #323 ), #321, .F. ) ;
#139 = ADVANCED_FACE ( 'NONE', ( #326 ), #113, .T. ) ;
#140 = AXIS2_PLACEMENT_3D ( 'NONE', #60, #24, #23 ) ;
#141 = APPROVAL ( #304, 'UNSPECIFIED' ) ;
#142 = PRODUCT_DEFINITION ( 'UNKNOWN', '', #197, #437 ) ;
#143 = CC_DESIGN_APPROVAL ( #141, ( #142 ) ) ;
#144 = AXIS2_PLACEMENT_3D ( 'NONE', #51, #37, #36 ) ;
#145 = AXIS2_PLACEMENT_3D ( 'NONE', #63, #64, #50 ) ;
#146 = CC_DESIGN_PERSON_AND_ORGANIZATION_ASSIGNMENT ( #248, #306, ( #142 ) ) ;
#147 = AXIS2_PLACEMENT_3D ( 'NONE', #79, #84, #103 ) ;
#148 = AXIS2_PLACEMENT_3D ( 'NONE', #104, #82, #81 ) ;
#149 = CC_DESIGN_PERSON_AND_ORGANIZATION_ASSIGNMENT ( #256, #301, ( #288 ) ) ;
#150 = AXIS2_PLACEMENT_3D ( 'NONE', #5, #293, #299 ) ;
#151 = AXIS2_PLACEMENT_3D ( 'NONE', #124, #99, #96 ) ;
#152 = CC_DESIGN_PERSON_AND_ORGANIZATION_ASSIGNMENT ( #239, #311, ( #197 ) ) ;
#153 = AXIS2_PLACEMENT_3D ( 'NONE', #111, #110, #120 ) ;
#154 = AXIS2_PLACEMENT_3D ( 'NONE', #115, #116, #127 ) ;
#155 = EDGE_CURVE ( 'NONE', #344, #349, #320, .T. ) ;
#156 = EDGE_CURVE ( 'NONE', #344, #351, #325, .T. ) ;
#157 = EDGE_CURVE ( 'NONE', #218, #218, #322, .T. ) ;
#158 = EDGE_CURVE ( 'NONE', #259, #259, #317, .T. ) ;
#159 = EDGE_CURVE ( 'NONE', #345, #349, #318, .T. ) ;
#160 = EDGE_CURVE ( 'NONE', #341, #345, #279, .T. ) ;
#161 = EDGE_CURVE ( 'NONE', #341, #344, #267, .T. ) ;
#162 = EDGE_CURVE ( 'NONE', #346, #345, #265, .T. ) ;
#163 = EDGE_CURVE ( 'NONE', #342, #346, #213, .T. ) ;
#164 = EDGE_CURVE ( 'NONE', #342, #341, #287, .T. ) ;
#165 = EDGE_CURVE ( 'NONE', #358, #346, #211, .T. ) ;
#166 = EDGE_CURVE ( 'NONE', #355, #358, #286, .T. ) ;
#167 = EDGE_CURVE ( 'NONE', #355, #342, #285, .T. ) ;
#168 = EDGE_CURVE ( 'NONE', #351, #356, #284, .T. ) ;
#169 = EDGE_CURVE ( 'NONE', #349, #347, #276, .T. ) ;
#170 = AXIS2_PLACEMENT_3D ( 'NONE', #47, #46, #45 ) ;
#171 = AXIS2_PLACEMENT_3D ( 'NONE', #44, #42, #40 ) ;
#172 =( GEOMETRIC_REPRESENTATION_CONTEXT ( 3 ) GLOBAL_UNCERTAINTY_ASSIGNED_CONTEXT ( ( #292 ) ) GLOBAL_UNIT_ASSIGNED_CONTEXT ( ( #294, #295, #296 ) ) REPRESENTATION_CONTEXT ( 'NONE', 'WORKASPACE' ) );
#173 = EDGE_CURVE ( 'NONE', #358, #348, #220, .T. ) ;
#174 = EDGE_CURVE ( 'NONE', #356, #350, #214, .T. ) ;
#175 = EDGE_CURVE ( 'NONE', #351, #347, #207, .T. ) ;
#176 = EDGE_CURVE ( 'NONE', #424, #348, #208, .T. ) ;
#177 = EDGE_CURVE ( 'NONE', #355, #424, #210, .T. ) ;
#178 = EDGE_CURVE ( 'NONE', #257, #257, #219, .T. ) ;
#179 = EDGE_CURVE ( 'NONE', #258, #258, #222, .T. ) ;
#180 = EDGE_CURVE ( 'NONE', #348, #343, #272, .T. ) ;
#181 = EDGE_CURVE ( 'NONE', #424, #354, #221, .T. ) ;
#182 = EDGE_CURVE ( 'NONE', #343, #350, #204, .T. ) ;
#183 = EDGE_CURVE ( 'NONE', #354, #356, #283, .T. ) ;
#184 = EDGE_CURVE ( 'NONE', #354, #343, #263, .T. ) ;
#185 = EDGE_CURVE ( 'NONE', #347, #350, #217, .T. ) ;
#186 = AXIS2_PLACEMENT_3D ( 'NONE', #93, #92, #91 ) ;
#187 = AXIS2_PLACEMENT_3D ( 'NONE', #117, #109, #108 ) ;
#188 = AXIS2_PLACEMENT_3D ( 'NONE', #118, #123, #13 ) ;
#189 = CC_DESIGN_DATE_AND_TIME_ASSIGNMENT ( #234, #314, ( #191 ) ) ;
#190 = CC_DESIGN_PERSON_AND_ORGANIZATION_ASSIGNMENT ( #230, #313, ( #191 ) ) ;
#191 = SECURITY_CLASSIFICATION ( '', '', #312 ) ;
#192 = PRODUCT_RELATED_PRODUCT_CATEGORY ( 'detail', '', ( #288 ) ) ;
#193 = CC_DESIGN_DATE_AND_TIME_ASSIGNMENT ( #244, #307, ( #142 ) ) ;
#194 = AXIS2_PLACEMENT_3D ( 'NONE', #20, #41, #126 ) ;
#195 = CC_DESIGN_PERSON_AND_ORGANIZATION_ASSIGNMENT ( #238, #310, ( #197 ) ) ;
#196 = AXIS2_PLACEMENT_3D ( 'NONE', #98, #97, #95 ) ;
#197 = PRODUCT_DEFINITION_FORMATION_WITH_SPECIFIED_SOURCE ( 'ANY', '', #288, .NOT_KNOWN. ) ;
#198 = CC_DESIGN_APPROVAL ( #200, ( #197 ) ) ;
#199 = AXIS2_PLACEMENT_3D ( 'NONE', #1, #122, #119 ) ;
#200 = APPROVAL ( #308, 'UNSPECIFIED' ) ;
#201 = CC_DESIGN_SECURITY_CLASSIFICATION ( #191, ( #197 ) ) ;
#202 = CC_DESIGN_APPROVAL ( #203, ( #191 ) ) ;
#203 = APPROVAL ( #315, 'UNSPECIFIED' ) ;
#204 = LINE ( 'NONE', #34, #273 ) ;
#205 = VECTOR ( 'NONE', #62, 1000.000000000000000 ) ;
#206 = VECTOR ( 'NONE', #59, 1000.000000000000000 ) ;
#207 = LINE ( 'NONE', #58, #209 ) ;
#208 = LINE ( 'NONE', #55, #266 ) ;
#209 = VECTOR ( 'NONE', #57, 1000.000000000000000 ) ;
#210 = LINE ( 'NONE', #71, #216 ) ;
#211 = LINE ( 'NONE', #74, #282 ) ;
#212 = VECTOR ( 'NONE', #66, 1000.000000000000000 ) ;
#213 = LINE ( 'NONE', #78, #281 ) ;
#214 = LINE ( 'NONE', #61, #206 ) ;
#215 = ORGANIZATION ( 'UNSPECIFIED', 'UNSPECIFIED', '' ) ;
#216 = VECTOR ( 'NONE', #53, 1000.000000000000000 ) ;
#217 = LINE ( 'NONE', #27, #261 ) ;
#218 = VERTEX_POINT ( 'NONE', #6 ) ;
#219 = CIRCLE ( 'NONE', #170, 2.500000000000002200 ) ;
#220 = LINE ( 'NONE', #65, #205 ) ;
#221 = LINE ( 'NONE', #49, #274 ) ;
#222 = CIRCLE ( 'NONE', #171, 2.500000000000002200 ) ;
#223 = DATE_AND_TIME ( #229, #228 ) ;
#224 = APPROVAL_DATE_TIME ( #223, #203 ) ;
#225 = PERSON_AND_ORGANIZATION ( #289, #215 ) ;
#226 = APPROVAL_PERSON_ORGANIZATION ( #225, #203, #316 ) ;
#227 = COORDINATED_UNIVERSAL_TIME_OFFSET ( 4, 0, .AHEAD. ) ;
#228 = LOCAL_TIME ( 12, 44, 28.00000000000000000, #227 ) ;
#229 = CALENDAR_DATE ( 2012, 9, 11 ) ;
#230 = PERSON_AND_ORGANIZATION ( #289, #215 ) ;
#231 = COORDINATED_UNIVERSAL_TIME_OFFSET ( 4, 0, .AHEAD. ) ;
#232 = LOCAL_TIME ( 12, 44, 28.00000000000000000, #231 ) ;
#233 = CALENDAR_DATE ( 2012, 9, 11 ) ;
#234 = DATE_AND_TIME ( #233, #232 ) ;
#235 = CALENDAR_DATE ( 2012, 9, 11 ) ;
#236 = DATE_AND_TIME ( #235, #240 ) ;
#237 = APPROVAL_DATE_TIME ( #236, #200 ) ;
#238 = PERSON_AND_ORGANIZATION ( #289, #215 ) ;
#239 = PERSON_AND_ORGANIZATION ( #289, #215 ) ;
#240 = LOCAL_TIME ( 12, 44, 28.00000000000000000, #241 ) ;
#241 = COORDINATED_UNIVERSAL_TIME_OFFSET ( 4, 0, .AHEAD. ) ;
#242 = APPROVAL_PERSON_ORGANIZATION ( #243, #200, #309 ) ;
#243 = PERSON_AND_ORGANIZATION ( #289, #215 ) ;
#244 = DATE_AND_TIME ( #245, #246 ) ;
#245 = CALENDAR_DATE ( 2012, 9, 11 ) ;
#246 = LOCAL_TIME ( 12, 44, 28.00000000000000000, #247 ) ;
#247 = COORDINATED_UNIVERSAL_TIME_OFFSET ( 4, 0, .AHEAD. ) ;
#248 = PERSON_AND_ORGANIZATION ( #289, #215 ) ;
#249 = APPROVAL_DATE_TIME ( #250, #141 ) ;
#250 = DATE_AND_TIME ( #251, #252 ) ;
#251 = CALENDAR_DATE ( 2012, 9, 11 ) ;
#252 = LOCAL_TIME ( 12, 44, 28.00000000000000000, #253 ) ;
#253 = COORDINATED_UNIVERSAL_TIME_OFFSET ( 4, 0, .AHEAD. ) ;
#254 = APPROVAL_PERSON_ORGANIZATION ( #255, #141, #305 ) ;
#255 = PERSON_AND_ORGANIZATION ( #289, #215 ) ;
#256 = PERSON_AND_ORGANIZATION ( #289, #215 ) ;
#257 = VERTEX_POINT ( 'NONE', #3 ) ;
#258 = VERTEX_POINT ( 'NONE', #2 ) ;
#259 = VERTEX_POINT ( 'NONE', #4 ) ;
#260 = SHAPE_DEFINITION_REPRESENTATION ( #436, #291 ) ;
#261 = VECTOR ( 'NONE', #25, 1000.000000000000000 ) ;
#262 = VECTOR ( 'NONE', #29, 1000.000000000000000 ) ;
#263 = LINE ( 'NONE', #30, #262 ) ;
#264 = VECTOR ( 'NONE', #31, 1000.000000000000000 ) ;
#265 = LINE ( 'NONE', #85, #277 ) ;
#266 = VECTOR ( 'NONE', #54, 1000.000000000000000 ) ;
#267 = LINE ( 'NONE', #100, #269 ) ;
#268 = VECTOR ( 'NONE', #39, 1000.000000000000000 ) ;
#269 = VECTOR ( 'NONE', #86, 1000.000000000000000 ) ;
#270 = VECTOR ( 'NONE', #70, 1000.000000000000000 ) ;
#271 = VECTOR ( 'NONE', #67, 1000.000000000000000 ) ;
#272 = LINE ( 'NONE', #52, #268 ) ;
#273 = VECTOR ( 'NONE', #32, 1000.000000000000000 ) ;
#274 = VECTOR ( 'NONE', #35, 1000.000000000000000 ) ;
#275 = VECTOR ( 'NONE', #101, 1000.000000000000000 ) ;
#276 = LINE ( 'NONE', #77, #212 ) ;
#277 = VECTOR ( 'NONE', #80, 1000.000000000000000 ) ;
#278 = VECTOR ( 'NONE', #75, 1000.000000000000000 ) ;
#279 = LINE ( 'NONE', #88, #275 ) ;
#280 = VECTOR ( 'NONE', #69, 1000.000000000000000 ) ;
#281 = VECTOR ( 'NONE', #76, 1000.000000000000000 ) ;
#282 = VECTOR ( 'NONE', #73, 1000.000000000000000 ) ;
#283 = LINE ( 'NONE', #38, #264 ) ;
#284 = LINE ( 'NONE', #68, #271 ) ;
#285 = LINE ( 'NONE', #87, #280 ) ;
#286 = LINE ( 'NONE', #72, #270 ) ;
#287 = LINE ( 'NONE', #94, #278 ) ;
#288 = PRODUCT ( 'Êðûøêà íà îòâåòâèòåëü Ò-îáðàçíûé âåðòèêàëüíûé TDSR_38402', 'Êðûøêà íà îòâåòâèòåëü Ò-îáðàçíûé âåðòèêàëüíûé TDSR_38402', '', ( #300 ) ) ;
#289 = PERSON ( 'UNSPECIFIED', 'UNSPECIFIED', 'UNSPECIFIED', ('UNSPECIFIED'), ('UNSPECIFIED'), ('UNSPECIFIED') ) ;
#290 = MANIFOLD_SOLID_BREP ( 'Âûðåç-Âûòÿíóòü1', #413 ) ;
#291 = ADVANCED_BREP_SHAPE_REPRESENTATION ( '¦¨v°úð ýð þªòõªòøªõû¹ T-þñ¨ð÷ývù òõ¨ªøúðû¹ývù TDSR_38402', ( #290, #150 ), #172 ) ;
#292 = UNCERTAINTY_MEASURE_WITH_UNIT (LENGTH_MEASURE( 1.000000000000000100E-005 ), #294, 'distance_accuracy_value', 'NONE');
#293 = DIRECTION ( 'NONE',  ( 0.0000000000000000000, 0.0000000000000000000, 1.000000000000000000 ) ) ;
#294 =( LENGTH_UNIT ( ) NAMED_UNIT ( * ) SI_UNIT ( .MILLI., .METRE. ) );
#295 =( NAMED_UNIT ( * ) PLANE_ANGLE_UNIT ( ) SI_UNIT ( $, .RADIAN. ) );
#296 =( NAMED_UNIT ( * ) SI_UNIT ( $, .STERADIAN. ) SOLID_ANGLE_UNIT ( ) );
#297 = APPLICATION_PROTOCOL_DEFINITION ( 'international standard', 'config_control_design', 1994, #298 ) ;
#298 = APPLICATION_CONTEXT ( 'configuration controlled 3d designs of mechanical parts and assemblies' ) ;
#299 = DIRECTION ( 'NONE',  ( 1.000000000000000000, 0.0000000000000000000, 0.0000000000000000000 ) ) ;
#300 = MECHANICAL_CONTEXT ( 'NONE', #298, 'mechanical' ) ;
#301 = PERSON_AND_ORGANIZATION_ROLE ( 'design_owner' ) ;
#302 = APPLICATION_CONTEXT ( 'configuration controlled 3d designs of mechanical parts and assemblies' ) ;
#303 = APPLICATION_PROTOCOL_DEFINITION ( 'international standard', 'config_control_design', 1994, #302 ) ;
#304 = APPROVAL_STATUS ( 'not_yet_approved' ) ;
#305 = APPROVAL_ROLE ( '' ) ;
#306 = PERSON_AND_ORGANIZATION_ROLE ( 'creator' ) ;
#307 = DATE_TIME_ROLE ( 'creation_date' ) ;
#308 = APPROVAL_STATUS ( 'not_yet_approved' ) ;
#309 = APPROVAL_ROLE ( '' ) ;
#310 = PERSON_AND_ORGANIZATION_ROLE ( 'creator' ) ;
#311 = PERSON_AND_ORGANIZATION_ROLE ( 'design_supplier' ) ;
#312 = SECURITY_CLASSIFICATION_LEVEL ( 'unclassified' ) ;
#313 = PERSON_AND_ORGANIZATION_ROLE ( 'classification_officer' ) ;
#314 = DATE_TIME_ROLE ( 'classification_date' ) ;
#315 = APPROVAL_STATUS ( 'not_yet_approved' ) ;
#316 = APPROVAL_ROLE ( '' ) ;
#317 = CIRCLE ( 'NONE', #186, 2.500000000000002200 ) ;
#318 = LINE ( 'NONE', #102, #435 ) ;
#319 = VECTOR ( 'NONE', #112, 1000.000000000000000 ) ;
#320 = LINE ( 'NONE', #106, #324 ) ;
#321 = CYLINDRICAL_SURFACE ( 'NONE', #188, 2.500000000000002200 ) ;
#322 = CIRCLE ( 'NONE', #196, 2.500000000000002200 ) ;
#323 = FACE_OUTER_BOUND ( 'NONE', #430, .T. ) ;
#324 = VECTOR ( 'NONE', #105, 1000.000000000000000 ) ;
#325 = LINE ( 'NONE', #107, #319 ) ;
#326 = FACE_OUTER_BOUND ( 'NONE', #428, .T. ) ;
#327 = FACE_BOUND ( 'NONE', #421, .T. ) ;
#328 = FACE_OUTER_BOUND ( 'NONE', #426, .T. ) ;
#329 = FACE_BOUND ( 'NONE', #419, .T. ) ;
#330 = CYLINDRICAL_SURFACE ( 'NONE', #147, 2.500000000000002200 ) ;
#331 = FACE_OUTER_BOUND ( 'NONE', #420, .T. ) ;
#332 = FACE_OUTER_BOUND ( 'NONE', #432, .T. ) ;
#333 = FACE_OUTER_BOUND ( 'NONE', #416, .T. ) ;
#334 = FACE_OUTER_BOUND ( 'NONE', #422, .T. ) ;
#335 = FACE_OUTER_BOUND ( 'NONE', #425, .T. ) ;
#336 = FACE_OUTER_BOUND ( 'NONE', #429, .T. ) ;
#337 = FACE_BOUND ( 'NONE', #417, .T. ) ;
#338 = FACE_OUTER_BOUND ( 'NONE', #415, .T. ) ;
#339 = FACE_OUTER_BOUND ( 'NONE', #431, .T. ) ;
#340 = ORIENTED_EDGE ( 'NONE', *, *, #182, .T. ) ;
#341 = VERTEX_POINT ( 'NONE', #21 ) ;
#342 = VERTEX_POINT ( 'NONE', #22 ) ;
#343 = VERTEX_POINT ( 'NONE', #19 ) ;
#344 = VERTEX_POINT ( 'NONE', #48 ) ;
#345 = VERTEX_POINT ( 'NONE', #18 ) ;
#346 = VERTEX_POINT ( 'NONE', #33 ) ;
#347 = VERTEX_POINT ( 'NONE', #17 ) ;
#348 = VERTEX_POINT ( 'NONE', #26 ) ;
#349 = VERTEX_POINT ( 'NONE', #16 ) ;
#350 = VERTEX_POINT ( 'NONE', #15 ) ;
#351 = VERTEX_POINT ( 'NONE', #14 ) ;
#352 = FACE_OUTER_BOUND ( 'NONE', #418, .T. ) ;
#353 = FACE_OUTER_BOUND ( 'NONE', #434, .T. ) ;
#354 = VERTEX_POINT ( 'NONE', #12 ) ;
#355 = VERTEX_POINT ( 'NONE', #11 ) ;
#356 = VERTEX_POINT ( 'NONE', #10 ) ;
#357 = FACE_BOUND ( 'NONE', #433, .T. ) ;
#358 = VERTEX_POINT ( 'NONE', #9 ) ;
#359 = ORIENTED_EDGE ( 'NONE', *, *, #169, .T. ) ;
#360 = ORIENTED_EDGE ( 'NONE', *, *, #164, .T. ) ;
#361 = ORIENTED_EDGE ( 'NONE', *, *, #162, .F. ) ;
#362 = ORIENTED_EDGE ( 'NONE', *, *, #155, .T. ) ;
#363 = ORIENTED_EDGE ( 'NONE', *, *, #175, .F. ) ;
#364 = ORIENTED_EDGE ( 'NONE', *, *, #161, .T. ) ;
#365 = ORIENTED_EDGE ( 'NONE', *, *, #159, .T. ) ;
#366 = ORIENTED_EDGE ( 'NONE', *, *, #158, .F. ) ;
#367 = ORIENTED_EDGE ( 'NONE', *, *, #183, .F. ) ;
#368 = ORIENTED_EDGE ( 'NONE', *, *, #159, .F. ) ;
#369 = ORIENTED_EDGE ( 'NONE', *, *, #184, .T. ) ;
#370 = ORIENTED_EDGE ( 'NONE', *, *, #169, .F. ) ;
#371 = ORIENTED_EDGE ( 'NONE', *, *, #174, .F. ) ;
#372 = ORIENTED_EDGE ( 'NONE', *, *, #175, .T. ) ;
#373 = ORIENTED_EDGE ( 'NONE', *, *, #160, .T. ) ;
#374 = ORIENTED_EDGE ( 'NONE', *, *, #157, .F. ) ;
#375 = ORIENTED_EDGE ( 'NONE', *, *, #185, .F. ) ;
#376 = ORIENTED_EDGE ( 'NONE', *, *, #155, .F. ) ;
#377 = ORIENTED_EDGE ( 'NONE', *, *, #160, .F. ) ;
#378 = ORIENTED_EDGE ( 'NONE', *, *, #179, .T. ) ;
#379 = ORIENTED_EDGE ( 'NONE', *, *, #165, .F. ) ;
#380 = ORIENTED_EDGE ( 'NONE', *, *, #166, .F. ) ;
#381 = ORIENTED_EDGE ( 'NONE', *, *, #167, .T. ) ;
#382 = ORIENTED_EDGE ( 'NONE', *, *, #163, .T. ) ;
#383 = ORIENTED_EDGE ( 'NONE', *, *, #173, .T. ) ;
#384 = ORIENTED_EDGE ( 'NONE', *, *, #176, .F. ) ;
#385 = ORIENTED_EDGE ( 'NONE', *, *, #177, .F. ) ;
#386 = ORIENTED_EDGE ( 'NONE', *, *, #166, .T. ) ;
#387 = ORIENTED_EDGE ( 'NONE', *, *, #178, .F. ) ;
#388 = ORIENTED_EDGE ( 'NONE', *, *, #180, .T. ) ;
#389 = ORIENTED_EDGE ( 'NONE', *, *, #184, .F. ) ;
#390 = ORIENTED_EDGE ( 'NONE', *, *, #181, .F. ) ;
#391 = ORIENTED_EDGE ( 'NONE', *, *, #183, .T. ) ;
#392 = ORIENTED_EDGE ( 'NONE', *, *, #176, .T. ) ;
#393 = ORIENTED_EDGE ( 'NONE', *, *, #156, .F. ) ;
#394 = ORIENTED_EDGE ( 'NONE', *, *, #168, .F. ) ;
#395 = ORIENTED_EDGE ( 'NONE', *, *, #179, .F. ) ;
#396 = ORIENTED_EDGE ( 'NONE', *, *, #164, .F. ) ;
#397 = ORIENTED_EDGE ( 'NONE', *, *, #161, .F. ) ;
#398 = ORIENTED_EDGE ( 'NONE', *, *, #167, .F. ) ;
#399 = ORIENTED_EDGE ( 'NONE', *, *, #180, .F. ) ;
#400 = ORIENTED_EDGE ( 'NONE', *, *, #182, .F. ) ;
#401 = ORIENTED_EDGE ( 'NONE', *, *, #173, .F. ) ;
#402 = ORIENTED_EDGE ( 'NONE', *, *, #181, .T. ) ;
#403 = ORIENTED_EDGE ( 'NONE', *, *, #177, .T. ) ;
#404 = ORIENTED_EDGE ( 'NONE', *, *, #168, .T. ) ;
#405 = ORIENTED_EDGE ( 'NONE', *, *, #162, .T. ) ;
#406 = ORIENTED_EDGE ( 'NONE', *, *, #165, .T. ) ;
#407 = ORIENTED_EDGE ( 'NONE', *, *, #156, .T. ) ;
#408 = ORIENTED_EDGE ( 'NONE', *, *, #185, .T. ) ;
#409 = ORIENTED_EDGE ( 'NONE', *, *, #158, .T. ) ;
#410 = ORIENTED_EDGE ( 'NONE', *, *, #157, .T. ) ;
#411 = ORIENTED_EDGE ( 'NONE', *, *, #163, .F. ) ;
#412 = ORIENTED_EDGE ( 'NONE', *, *, #174, .T. ) ;
#413 = CLOSED_SHELL ( 'NONE', ( #131, #137, #139, #133, #134, #129, #135, #136, #130, #128, #138, #132 ) ) ;
#414 = ORIENTED_EDGE ( 'NONE', *, *, #178, .T. ) ;
#415 = EDGE_LOOP ( 'NONE', ( #391, #394, #393, #397, #396, #398, #403, #402 ) ) ;
#416 = EDGE_LOOP ( 'NONE', ( #361, #411, #360, #373 ) ) ;
#417 = EDGE_LOOP ( 'NONE', ( #374 ) ) ;
#418 = EDGE_LOOP ( 'NONE', ( #375, #363, #404, #412 ) ) ;
#419 = EDGE_LOOP ( 'NONE', ( #366 ) ) ;
#420 = EDGE_LOOP ( 'NONE', ( #383, #384, #385, #386 ) ) ;
#421 = EDGE_LOOP ( 'NONE', ( #387 ) ) ;
#422 = EDGE_LOOP ( 'NONE', ( #368, #377, #364, #362 ) ) ;
#423 = EDGE_LOOP ( 'NONE', ( #379, #380, #381, #382 ) ) ;
#424 = VERTEX_POINT ( 'NONE', #8 ) ;
#425 = EDGE_LOOP ( 'NONE', ( #410 ) ) ;
#426 = EDGE_LOOP ( 'NONE', ( #409 ) ) ;
#427 = FACE_OUTER_BOUND ( 'NONE', #423, .T. ) ;
#428 = EDGE_LOOP ( 'NONE', ( #370, #376, #407, #372 ) ) ;
#429 = EDGE_LOOP ( 'NONE', ( #340, #371, #367, #369 ) ) ;
#430 = EDGE_LOOP ( 'NONE', ( #378 ) ) ;
#431 = EDGE_LOOP ( 'NONE', ( #400, #399, #401, #406, #405, #365, #359, #408 ) ) ;
#432 = EDGE_LOOP ( 'NONE', ( #414 ) ) ;
#433 = EDGE_LOOP ( 'NONE', ( #395 ) ) ;
#434 = EDGE_LOOP ( 'NONE', ( #388, #389, #390, #392 ) ) ;
#435 = VECTOR ( 'NONE', #90, 1000.000000000000000 ) ;
#436 = PRODUCT_DEFINITION_SHAPE ( 'NONE', 'NONE',  #142 ) ;
#437 = DESIGN_CONTEXT ( 'detailed design', #302, 'design' ) ;
ENDSEC;
END-ISO-10303-21;
