ISO-10303-21;
HEADER;
FILE_DESCRIPTION (( 'STEP AP203' ),
    '1' );
FILE_NAME ('Êðûøêà íà îòâåòâèòåëü Ò-îáðàçíûé âåðòèêàëüíûé TDSA_38381.STEP',
    '2012-11-09T08:44:18',
    ( 'Àñååâ' ),
    ( '' ),
    'SwSTEP 2.0',
    'SolidWorks 2012',
    '' );
FILE_SCHEMA (( 'CONFIG_CONTROL_DESIGN' ));
ENDSEC;

DATA;
#1 = DIRECTION ( 'NONE',  ( 0.0000000000000000000, -0.0000000000000000000, -1.000000000000000000 ) ) ;
#2 = DIRECTION ( 'NONE',  ( 0.0000000000000000000, -1.000000000000000000, 0.0000000000000000000 ) ) ;
#3 = CARTESIAN_POINT ( 'NONE',  ( 41.00000000000000000, -14.00000000000000000, 360.0000000000000000 ) ) ;
#4 = PLANE ( 'NONE',  #305 ) ;
#5 = CARTESIAN_POINT ( 'NONE',  ( 41.00000000000000000, 0.0000000000000000000, 360.0000000000000000 ) ) ;
#6 = CARTESIAN_POINT ( 'NONE',  ( 41.60000000000000900, -14.00000000000000000, 0.0000000000000000000 ) ) ;
#7 = DIRECTION ( 'NONE',  ( -1.000000000000000000, 0.0000000000000000000, 0.0000000000000000000 ) ) ;
#8 = DIRECTION ( 'NONE',  ( -0.0000000000000000000, 0.0000000000000000000, -1.000000000000000000 ) ) ;
#9 = CARTESIAN_POINT ( 'NONE',  ( 0.0000000000000000000, 0.0000000000000000000, 347.5000000000000600 ) ) ;
#10 = PLANE ( 'NONE',  #307 ) ;
#11 = DIRECTION ( 'NONE',  ( -0.0000000000000000000, 0.0000000000000000000, -1.000000000000000000 ) ) ;
#12 = CARTESIAN_POINT ( 'NONE',  ( -41.60000000000000900, -14.00000000000000000, 0.0000000000000000000 ) ) ;
#13 = DIRECTION ( 'NONE',  ( 1.000000000000000000, 0.0000000000000000000, -0.0000000000000000000 ) ) ;
#14 = CARTESIAN_POINT ( 'NONE',  ( -41.00000000000000000, -14.00000000000000000, 360.0000000000000000 ) ) ;
#15 = PLANE ( 'NONE',  #308 ) ;
#16 = CARTESIAN_POINT ( 'NONE',  ( 41.60000000000000900, 0.5999999999999999800, 360.0000000000000000 ) ) ;
#17 = DIRECTION ( 'NONE',  ( 0.0000000000000000000, -0.0000000000000000000, 1.000000000000000000 ) ) ;
#18 = PLANE ( 'NONE',  #309 ) ;
#19 = CARTESIAN_POINT ( 'NONE',  ( 41.60000000000000900, -14.00000000000000000, 360.0000000000000000 ) ) ;
#20 = CARTESIAN_POINT ( 'NONE',  ( -41.00000000000000000, 0.0000000000000000000, 360.0000000000000000 ) ) ;
#21 = DIRECTION ( 'NONE',  ( 0.0000000000000000000, 0.0000000000000000000, 1.000000000000000000 ) ) ;
#22 = CARTESIAN_POINT ( 'NONE',  ( 0.0000000000000000000, 0.0000000000000000000, 360.0000000000000000 ) ) ;
#23 = DIRECTION ( 'NONE',  ( -1.000000000000000000, 0.0000000000000000000, 0.0000000000000000000 ) ) ;
#24 = CARTESIAN_POINT ( 'NONE',  ( -41.00000000000000000, 0.0000000000000000000, 360.0000000000000000 ) ) ;
#25 = CARTESIAN_POINT ( 'NONE',  ( -41.00000000000000000, -14.00000000000000000, 360.0000000000000000 ) ) ;
#26 = DIRECTION ( 'NONE',  ( 0.0000000000000000000, 1.000000000000000000, 0.0000000000000000000 ) ) ;
#27 = PLANE ( 'NONE',  #310 ) ;
#28 = CARTESIAN_POINT ( 'NONE',  ( -41.60000000000000900, -14.00000000000000000, 360.0000000000000000 ) ) ;
#29 = CARTESIAN_POINT ( 'NONE',  ( -41.00000000000000000, 0.0000000000000000000, 360.0000000000000000 ) ) ;
#30 = CARTESIAN_POINT ( 'NONE',  ( -41.60000000000000900, 0.5999999999999999800, 360.0000000000000000 ) ) ;
#31 = CARTESIAN_POINT ( 'NONE',  ( 41.60000000000000900, 0.5999999999999999800, 0.0000000000000000000 ) ) ;
#32 = CARTESIAN_POINT ( 'NONE',  ( 0.0000000000000000000, -14.00099999999999900, 345.0000000000000600 ) ) ;
#33 = CARTESIAN_POINT ( 'NONE',  ( -41.60000000000000900, 0.5999999999999999800, 0.0000000000000000000 ) ) ;
#34 = DIRECTION ( 'NONE',  ( 0.0000000000000000000, -1.000000000000000000, 0.0000000000000000000 ) ) ;
#35 = DIRECTION ( 'NONE',  ( 0.0000000000000000000, -0.0000000000000000000, -1.000000000000000000 ) ) ;
#36 = DIRECTION ( 'NONE',  ( -0.0000000000000000000, 1.000000000000000000, -0.0000000000000000000 ) ) ;
#37 = CARTESIAN_POINT ( 'NONE',  ( -41.00000000000000000, -14.00000000000000000, 0.0000000000000000000 ) ) ;
#38 = PLANE ( 'NONE',  #284 ) ;
#39 = DIRECTION ( 'NONE',  ( 0.0000000000000000000, -0.0000000000000000000, 1.000000000000000000 ) ) ;
#40 = CARTESIAN_POINT ( 'NONE',  ( -41.00000000000000000, 0.0000000000000000000, 0.0000000000000000000 ) ) ;
#41 = CARTESIAN_POINT ( 'NONE',  ( 41.60000000000000900, -14.00000000000000000, 0.0000000000000000000 ) ) ;
#42 = CARTESIAN_POINT ( 'NONE',  ( 41.60000000000000900, -14.00000000000000000, 360.0000000000000000 ) ) ;
#43 = PLANE ( 'NONE',  #285 ) ;
#44 = DIRECTION ( 'NONE',  ( 0.0000000000000000000, 0.0000000000000000000, 1.000000000000000000 ) ) ;
#45 = CARTESIAN_POINT ( 'NONE',  ( -41.00000000000000000, 0.5999999999999999800, 360.0000000000000000 ) ) ;
#46 = DIRECTION ( 'NONE',  ( -0.0000000000000000000, -0.0000000000000000000, -1.000000000000000000 ) ) ;
#47 = CARTESIAN_POINT ( 'NONE',  ( 41.00000000000000000, 0.0000000000000000000, 360.0000000000000000 ) ) ;
#48 = DIRECTION ( 'NONE',  ( -1.000000000000000000, 0.0000000000000000000, 0.0000000000000000000 ) ) ;
#49 = DIRECTION ( 'NONE',  ( -0.0000000000000000000, 1.000000000000000000, -0.0000000000000000000 ) ) ;
#50 = CARTESIAN_POINT ( 'NONE',  ( 0.0000000000000000000, 0.5999999999999999800, 342.5000000000000000 ) ) ;
#51 = DIRECTION ( 'NONE',  ( -0.0000000000000000000, 0.0000000000000000000, -1.000000000000000000 ) ) ;
#52 = CARTESIAN_POINT ( 'NONE',  ( -41.00000000000000000, -14.00000000000000000, 0.0000000000000000000 ) ) ;
#53 = PLANE ( 'NONE',  #250 ) ;
#54 = CARTESIAN_POINT ( 'NONE',  ( 41.00000000000000000, 0.0000000000000000000, 360.0000000000000000 ) ) ;
#55 = DIRECTION ( 'NONE',  ( 0.0000000000000000000, 0.0000000000000000000, 1.000000000000000000 ) ) ;
#56 = CARTESIAN_POINT ( 'NONE',  ( 41.60000000000000900, -14.00000000000000000, 360.0000000000000000 ) ) ;
#57 = DIRECTION ( 'NONE',  ( -1.000000000000000000, 0.0000000000000000000, 0.0000000000000000000 ) ) ;
#58 = CARTESIAN_POINT ( 'NONE',  ( 1.734723475976807100E-015, 0.0000000000000000000, 14.99999999999999300 ) ) ;
#59 = DIRECTION ( 'NONE',  ( 0.0000000000000000000, 1.000000000000000000, 0.0000000000000000000 ) ) ;
#60 = DIRECTION ( 'NONE',  ( -0.0000000000000000000, -1.000000000000000000, -0.0000000000000000000 ) ) ;
#61 = CARTESIAN_POINT ( 'NONE',  ( 0.0000000000000000000, 0.0000000000000000000, 0.0000000000000000000 ) ) ;
#62 = CARTESIAN_POINT ( 'NONE',  ( 41.00000000000000000, 0.0000000000000000000, 360.0000000000000000 ) ) ;
#63 = DIRECTION ( 'NONE',  ( -0.0000000000000000000, -0.0000000000000000000, -1.000000000000000000 ) ) ;
#64 = CARTESIAN_POINT ( 'NONE',  ( -41.60000000000000900, 0.0000000000000000000, 0.0000000000000000000 ) ) ;
#65 = PLANE ( 'NONE',  #251 ) ;
#66 = CARTESIAN_POINT ( 'NONE',  ( -41.60000000000000900, 0.5999999999999999800, 360.0000000000000000 ) ) ;
#67 = DIRECTION ( 'NONE',  ( -0.0000000000000000000, 1.000000000000000000, -0.0000000000000000000 ) ) ;
#68 = CARTESIAN_POINT ( 'NONE',  ( 41.00000000000000000, -14.00000000000000000, 360.0000000000000000 ) ) ;
#69 = CARTESIAN_POINT ( 'NONE',  ( -41.00000000000000000, 0.0000000000000000000, 360.0000000000000000 ) ) ;
#70 = CARTESIAN_POINT ( 'NONE',  ( -41.60000000000000900, 0.0000000000000000000, 360.0000000000000000 ) ) ;
#71 = CARTESIAN_POINT ( 'NONE',  ( 1.734723475976807100E-015, -14.00099999999999900, 14.99999999999999300 ) ) ;
#72 = DIRECTION ( 'NONE',  ( -0.0000000000000000000, 0.0000000000000000000, -1.000000000000000000 ) ) ;
#73 = CARTESIAN_POINT ( 'NONE',  ( -41.60000000000000900, -14.00000000000000000, 360.0000000000000000 ) ) ;
#74 = DIRECTION ( 'NONE',  ( 1.000000000000000000, 0.0000000000000000000, -0.0000000000000000000 ) ) ;
#75 = DIRECTION ( 'NONE',  ( 0.0000000000000000000, 0.0000000000000000000, 1.000000000000000000 ) ) ;
#76 = CARTESIAN_POINT ( 'NONE',  ( 41.60000000000000900, 0.0000000000000000000, 360.0000000000000000 ) ) ;
#77 = DIRECTION ( 'NONE',  ( -0.0000000000000000000, -0.0000000000000000000, -1.000000000000000000 ) ) ;
#78 = CARTESIAN_POINT ( 'NONE',  ( 0.0000000000000000000, 0.5999999999999999800, 345.0000000000000600 ) ) ;
#79 = PLANE ( 'NONE',  #254 ) ;
#80 = CARTESIAN_POINT ( 'NONE',  ( -41.00000000000000000, -14.00000000000000000, 360.0000000000000000 ) ) ;
#81 = DIRECTION ( 'NONE',  ( -1.000000000000000000, 0.0000000000000000000, 0.0000000000000000000 ) ) ;
#82 = DIRECTION ( 'NONE',  ( -1.000000000000000000, 0.0000000000000000000, 0.0000000000000000000 ) ) ;
#83 = CARTESIAN_POINT ( 'NONE',  ( -41.00000000000000000, 0.0000000000000000000, 360.0000000000000000 ) ) ;
#84 = APPROVAL_ROLE ( '' ) ;
#85 = APPROVAL_STATUS ( 'not_yet_approved' ) ;
#86 = CARTESIAN_POINT ( 'NONE',  ( -41.00000000000000000, 0.5999999999999999800, 360.0000000000000000 ) ) ;
#87 = DATE_TIME_ROLE ( 'classification_date' ) ;
#88 = CARTESIAN_POINT ( 'NONE',  ( -41.00000000000000000, -14.00000000000000000, 360.0000000000000000 ) ) ;
#89 = PERSON_AND_ORGANIZATION_ROLE ( 'classification_officer' ) ;
#90 = DIRECTION ( 'NONE',  ( -0.0000000000000000000, -0.0000000000000000000, -1.000000000000000000 ) ) ;
#91 = CARTESIAN_POINT ( 'NONE',  ( 41.60000000000000900, -14.00000000000000000, 360.0000000000000000 ) ) ;
#92 = CARTESIAN_POINT ( 'NONE',  ( 41.60000000000000900, 0.5999999999999999800, 360.0000000000000000 ) ) ;
#93 = SECURITY_CLASSIFICATION_LEVEL ( 'unclassified' ) ;
#94 = DIRECTION ( 'NONE',  ( 0.0000000000000000000, 1.000000000000000000, 0.0000000000000000000 ) ) ;
#95 = PERSON_AND_ORGANIZATION_ROLE ( 'design_supplier' ) ;
#96 = PERSON_AND_ORGANIZATION_ROLE ( 'creator' ) ;
#97 = APPROVAL_ROLE ( '' ) ;
#98 = CARTESIAN_POINT ( 'NONE',  ( -41.60000000000000900, 0.0000000000000000000, 360.0000000000000000 ) ) ;
#99 = CARTESIAN_POINT ( 'NONE',  ( -41.00000000000000000, 0.5999999999999999800, 0.0000000000000000000 ) ) ;
#100 = DIRECTION ( 'NONE',  ( -0.0000000000000000000, -1.000000000000000000, 0.0000000000000000000 ) ) ;
#101 = APPROVAL_STATUS ( 'not_yet_approved' ) ;
#102 = DIRECTION ( 'NONE',  ( 1.000000000000000000, 0.0000000000000000000, 0.0000000000000000000 ) ) ;
#103 = DATE_TIME_ROLE ( 'creation_date' ) ;
#104 = DIRECTION ( 'NONE',  ( -0.0000000000000000000, -1.000000000000000000, -0.0000000000000000000 ) ) ;
#105 = PERSON_AND_ORGANIZATION_ROLE ( 'creator' ) ;
#106 = APPROVAL_ROLE ( '' ) ;
#107 = DIRECTION ( 'NONE',  ( 1.000000000000000000, 0.0000000000000000000, 0.0000000000000000000 ) ) ;
#108 = CARTESIAN_POINT ( 'NONE',  ( -41.00000000000000000, 0.0000000000000000000, 360.0000000000000000 ) ) ;
#109 = APPROVAL_STATUS ( 'not_yet_approved' ) ;
#110 = APPLICATION_PROTOCOL_DEFINITION ( 'international standard', 'config_control_design', 1994, #112 ) ;
#111 = DIRECTION ( 'NONE',  ( -0.0000000000000000000, -0.0000000000000000000, -1.000000000000000000 ) ) ;
#112 = APPLICATION_CONTEXT ( 'configuration controlled 3d designs of mechanical parts and assemblies' ) ;
#113 = PERSON_AND_ORGANIZATION_ROLE ( 'design_owner' ) ;
#114 = MECHANICAL_CONTEXT ( 'NONE', #119, 'mechanical' ) ;
#115 = CARTESIAN_POINT ( 'NONE',  ( -41.00000000000000000, 0.0000000000000000000, 0.0000000000000000000 ) ) ;
#116 = DIRECTION ( 'NONE',  ( 0.0000000000000000000, 0.0000000000000000000, 1.000000000000000000 ) ) ;
#117 = DIRECTION ( 'NONE',  ( 0.0000000000000000000, -1.000000000000000000, 0.0000000000000000000 ) ) ;
#118 = DIRECTION ( 'NONE',  ( 1.000000000000000000, 0.0000000000000000000, 0.0000000000000000000 ) ) ;
#119 = APPLICATION_CONTEXT ( 'configuration controlled 3d designs of mechanical parts and assemblies' ) ;
#120 = DIRECTION ( 'NONE',  ( -1.000000000000000000, 0.0000000000000000000, 0.0000000000000000000 ) ) ;
#121 = DIRECTION ( 'NONE',  ( 0.0000000000000000000, 0.0000000000000000000, -1.000000000000000000 ) ) ;
#122 = APPLICATION_PROTOCOL_DEFINITION ( 'international standard', 'config_control_design', 1994, #119 ) ;
#123 =( NAMED_UNIT ( * ) SI_UNIT ( $, .STERADIAN. ) SOLID_ANGLE_UNIT ( ) );
#124 =( NAMED_UNIT ( * ) PLANE_ANGLE_UNIT ( ) SI_UNIT ( $, .RADIAN. ) );
#125 =( LENGTH_UNIT ( ) NAMED_UNIT ( * ) SI_UNIT ( .MILLI., .METRE. ) );
#126 = CARTESIAN_POINT ( 'NONE',  ( 41.00000000000000000, 0.0000000000000000000, 0.0000000000000000000 ) ) ;
#127 = DIRECTION ( 'NONE',  ( -0.0000000000000000000, 1.000000000000000000, -0.0000000000000000000 ) ) ;
#128 = CARTESIAN_POINT ( 'NONE',  ( 41.00000000000000000, 0.0000000000000000000, 0.0000000000000000000 ) ) ;
#129 = DIRECTION ( 'NONE',  ( -0.0000000000000000000, 1.000000000000000000, -0.0000000000000000000 ) ) ;
#130 = DIRECTION ( 'NONE',  ( 0.0000000000000000000, 1.000000000000000000, 0.0000000000000000000 ) ) ;
#131 = DIRECTION ( 'NONE',  ( 0.0000000000000000000, 0.0000000000000000000, 1.000000000000000000 ) ) ;
#132 = CARTESIAN_POINT ( 'NONE',  ( 0.0000000000000000000, 0.0000000000000000000, 345.0000000000000600 ) ) ;
#133 = CARTESIAN_POINT ( 'NONE',  ( 0.0000000000000000000, 0.0000000000000000000, 0.0000000000000000000 ) ) ;
#134 = DIRECTION ( 'NONE',  ( -0.0000000000000000000, -0.0000000000000000000, -1.000000000000000000 ) ) ;
#135 = CARTESIAN_POINT ( 'NONE',  ( 1.734723475976807100E-015, 0.0000000000000000000, 17.49999999999999600 ) ) ;
#136 = CARTESIAN_POINT ( 'NONE',  ( 1.734723475976807100E-015, 0.5999999999999999800, 17.49999999999999600 ) ) ;
#137 = DIRECTION ( 'NONE',  ( -0.0000000000000000000, -1.000000000000000000, 0.0000000000000000000 ) ) ;
#138 = CARTESIAN_POINT ( 'NONE',  ( 41.60000000000000900, 0.0000000000000000000, 0.0000000000000000000 ) ) ;
#139 = DIRECTION ( 'NONE',  ( 1.000000000000000000, 0.0000000000000000000, 0.0000000000000000000 ) ) ;
#140 = DIRECTION ( 'NONE',  ( 1.000000000000000000, 0.0000000000000000000, 0.0000000000000000000 ) ) ;
#141 = DIRECTION ( 'NONE',  ( -0.0000000000000000000, -0.0000000000000000000, -1.000000000000000000 ) ) ;
#142 = DIRECTION ( 'NONE',  ( -0.0000000000000000000, -0.0000000000000000000, -1.000000000000000000 ) ) ;
#143 = DIRECTION ( 'NONE',  ( 0.0000000000000000000, -1.000000000000000000, 0.0000000000000000000 ) ) ;
#144 = DIRECTION ( 'NONE',  ( 0.0000000000000000000, 0.0000000000000000000, 1.000000000000000000 ) ) ;
#145 = CARTESIAN_POINT ( 'NONE',  ( 1.734723475976807100E-015, 0.5999999999999999800, 14.99999999999999300 ) ) ;
#146 = CARTESIAN_POINT ( 'NONE',  ( 41.60000000000000900, 0.0000000000000000000, 360.0000000000000000 ) ) ;
#147 = DIRECTION ( 'NONE',  ( -1.000000000000000000, 0.0000000000000000000, 0.0000000000000000000 ) ) ;
#148 = DIRECTION ( 'NONE',  ( 0.0000000000000000000, 1.000000000000000000, 0.0000000000000000000 ) ) ;
#149 = DIRECTION ( 'NONE',  ( 0.0000000000000000000, 0.0000000000000000000, 1.000000000000000000 ) ) ;
#150 = CARTESIAN_POINT ( 'NONE',  ( -41.00000000000000000, 0.0000000000000000000, 0.0000000000000000000 ) ) ;
#151 = CARTESIAN_POINT ( 'NONE',  ( 41.00000000000000000, -14.00000000000000000, 0.0000000000000000000 ) ) ;
#152 = LINE ( 'NONE', #40, #236 ) ;
#153 = LINE ( 'NONE', #41, #322 ) ;
#154 = LINE ( 'NONE', #47, #155 ) ;
#155 = VECTOR ( 'NONE', #46, 1000.000000000000000 ) ;
#156 = VERTEX_POINT ( 'NONE', #6 ) ;
#157 = VERTEX_POINT ( 'NONE', #12 ) ;
#158 = VERTEX_POINT ( 'NONE', #151 ) ;
#159 = VERTEX_POINT ( 'NONE', #33 ) ;
#160 = VERTEX_POINT ( 'NONE', #126 ) ;
#161 = VERTEX_POINT ( 'NONE', #150 ) ;
#162 = VERTEX_POINT ( 'NONE', #3 ) ;
#163 = VERTEX_POINT ( 'NONE', #31 ) ;
#164 = VERTEX_POINT ( 'NONE', #5 ) ;
#165 = VERTEX_POINT ( 'NONE', #16 ) ;
#166 = VERTEX_POINT ( 'NONE', #19 ) ;
#167 = VERTEX_POINT ( 'NONE', #24 ) ;
#168 = VERTEX_POINT ( 'NONE', #25 ) ;
#169 = VERTEX_POINT ( 'NONE', #28 ) ;
#170 = VERTEX_POINT ( 'NONE', #30 ) ;
#171 = VERTEX_POINT ( 'NONE', #37 ) ;
#172 = EDGE_LOOP ( 'NONE', ( #209, #208, #207, #206 ) ) ;
#173 = EDGE_LOOP ( 'NONE', ( #192, #194, #193, #197 ) ) ;
#174 = EDGE_LOOP ( 'NONE', ( #210, #215, #214, #213 ) ) ;
#175 = EDGE_LOOP ( 'NONE', ( #205 ) ) ;
#176 = EDGE_LOOP ( 'NONE', ( #196, #200, #199, #201 ) ) ;
#177 = EDGE_LOOP ( 'NONE', ( #204 ) ) ;
#178 = ORIENTED_EDGE ( 'NONE', *, *, #262, .F. ) ;
#179 = ORIENTED_EDGE ( 'NONE', *, *, #273, .T. ) ;
#180 = ORIENTED_EDGE ( 'NONE', *, *, #263, .T. ) ;
#181 = ORIENTED_EDGE ( 'NONE', *, *, #278, .T. ) ;
#182 = ORIENTED_EDGE ( 'NONE', *, *, #279, .T. ) ;
#183 = ORIENTED_EDGE ( 'NONE', *, *, #249, .F. ) ;
#184 = ORIENTED_EDGE ( 'NONE', *, *, #276, .T. ) ;
#185 = ORIENTED_EDGE ( 'NONE', *, *, #261, .T. ) ;
#186 = ORIENTED_EDGE ( 'NONE', *, *, #258, .T. ) ;
#187 = ORIENTED_EDGE ( 'NONE', *, *, #271, .T. ) ;
#188 = CLOSED_SHELL ( 'NONE', ( #433, #429, #424, #428, #426, #435, #431, #432, #434, #427, #425, #430 ) ) ;
#189 = ORIENTED_EDGE ( 'NONE', *, *, #277, .T. ) ;
#190 = ORIENTED_EDGE ( 'NONE', *, *, #272, .T. ) ;
#191 = ORIENTED_EDGE ( 'NONE', *, *, #282, .F. ) ;
#192 = ORIENTED_EDGE ( 'NONE', *, *, #262, .T. ) ;
#193 = ORIENTED_EDGE ( 'NONE', *, *, #260, .F. ) ;
#194 = ORIENTED_EDGE ( 'NONE', *, *, #264, .F. ) ;
#195 = ORIENTED_EDGE ( 'NONE', *, *, #269, .T. ) ;
#196 = ORIENTED_EDGE ( 'NONE', *, *, #258, .F. ) ;
#197 = ORIENTED_EDGE ( 'NONE', *, *, #248, .T. ) ;
#198 = ORIENTED_EDGE ( 'NONE', *, *, #283, .F. ) ;
#199 = ORIENTED_EDGE ( 'NONE', *, *, #268, .T. ) ;
#200 = ORIENTED_EDGE ( 'NONE', *, *, #259, .F. ) ;
#201 = ORIENTED_EDGE ( 'NONE', *, *, #264, .T. ) ;
#202 = ORIENTED_EDGE ( 'NONE', *, *, #270, .F. ) ;
#203 = ORIENTED_EDGE ( 'NONE', *, *, #263, .F. ) ;
#204 = ORIENTED_EDGE ( 'NONE', *, *, #261, .F. ) ;
#205 = ORIENTED_EDGE ( 'NONE', *, *, #272, .F. ) ;
#206 = ORIENTED_EDGE ( 'NONE', *, *, #259, .T. ) ;
#207 = ORIENTED_EDGE ( 'NONE', *, *, #266, .T. ) ;
#208 = ORIENTED_EDGE ( 'NONE', *, *, #265, .F. ) ;
#209 = ORIENTED_EDGE ( 'NONE', *, *, #271, .F. ) ;
#210 = ORIENTED_EDGE ( 'NONE', *, *, #278, .F. ) ;
#211 = ORIENTED_EDGE ( 'NONE', *, *, #265, .T. ) ;
#212 = ORIENTED_EDGE ( 'NONE', *, *, #279, .F. ) ;
#213 = ORIENTED_EDGE ( 'NONE', *, *, #270, .T. ) ;
#214 = ORIENTED_EDGE ( 'NONE', *, *, #281, .T. ) ;
#215 = ORIENTED_EDGE ( 'NONE', *, *, #267, .F. ) ;
#216 = ORIENTED_EDGE ( 'NONE', *, *, #249, .T. ) ;
#217 = ORIENTED_EDGE ( 'NONE', *, *, #274, .F. ) ;
#218 = ORIENTED_EDGE ( 'NONE', *, *, #283, .T. ) ;
#219 = ORIENTED_EDGE ( 'NONE', *, *, #276, .F. ) ;
#220 = ORIENTED_EDGE ( 'NONE', *, *, #277, .F. ) ;
#221 = ORIENTED_EDGE ( 'NONE', *, *, #248, .F. ) ;
#222 = ORIENTED_EDGE ( 'NONE', *, *, #280, .T. ) ;
#223 = ORIENTED_EDGE ( 'NONE', *, *, #274, .T. ) ;
#224 = ORIENTED_EDGE ( 'NONE', *, *, #275, .F. ) ;
#225 = ORIENTED_EDGE ( 'NONE', *, *, #268, .F. ) ;
#226 = ORIENTED_EDGE ( 'NONE', *, *, #260, .T. ) ;
#227 = ORIENTED_EDGE ( 'NONE', *, *, #273, .F. ) ;
#228 = ORIENTED_EDGE ( 'NONE', *, *, #267, .T. ) ;
#229 = ORIENTED_EDGE ( 'NONE', *, *, #269, .F. ) ;
#230 = ORIENTED_EDGE ( 'NONE', *, *, #266, .F. ) ;
#231 = ORIENTED_EDGE ( 'NONE', *, *, #281, .F. ) ;
#232 = ORIENTED_EDGE ( 'NONE', *, *, #282, .T. ) ;
#233 = ORIENTED_EDGE ( 'NONE', *, *, #275, .T. ) ;
#234 = ORIENTED_EDGE ( 'NONE', *, *, #280, .F. ) ;
#235 = EDGE_LOOP ( 'NONE', ( #184 ) ) ;
#236 = VECTOR ( 'NONE', #49, 1000.000000000000000 ) ;
#237 = EDGE_LOOP ( 'NONE', ( #190 ) ) ;
#238 = EDGE_LOOP ( 'NONE', ( #222, #221, #224, #223 ) ) ;
#239 = EDGE_LOOP ( 'NONE', ( #219 ) ) ;
#240 = EDGE_LOOP ( 'NONE', ( #178, #234, #183, #182, #181, #180, #187, #186 ) ) ;
#241 = EDGE_LOOP ( 'NONE', ( #226, #225, #230, #229, #231, #191, #179, #233 ) ) ;
#242 = EDGE_LOOP ( 'NONE', ( #203, #202, #195, #211 ) ) ;
#243 = EDGE_LOOP ( 'NONE', ( #220 ) ) ;
#244 = EDGE_LOOP ( 'NONE', ( #185 ) ) ;
#245 = EDGE_LOOP ( 'NONE', ( #189 ) ) ;
#246 = EDGE_LOOP ( 'NONE', ( #212, #198, #232, #228 ) ) ;
#247 = EDGE_LOOP ( 'NONE', ( #216, #217, #227, #218 ) ) ;
#248 = EDGE_CURVE ( 'NONE', #164, #160, #154, .T. ) ;
#249 = EDGE_CURVE ( 'NONE', #171, #161, #152, .T. ) ;
#250 = AXIS2_PLACEMENT_3D ( 'NONE', #61, #51, #48 ) ;
#251 = AXIS2_PLACEMENT_3D ( 'NONE', #70, #57, #55 ) ;
#252 = AXIS2_PLACEMENT_3D ( 'NONE', #71, #129, #75 ) ;
#253 = AXIS2_PLACEMENT_3D ( 'NONE', #132, #104, #116 ) ;
#254 = AXIS2_PLACEMENT_3D ( 'NONE', #76, #74, #72 ) ;
#255 = AXIS2_PLACEMENT_3D ( 'NONE', #58, #60, #149 ) ;
#256 = AXIS2_PLACEMENT_3D ( 'NONE', #145, #148, #144 ) ;
#257 = AXIS2_PLACEMENT_3D ( 'NONE', #78, #67, #121 ) ;
#258 = EDGE_CURVE ( 'NONE', #156, #158, #153, .T. ) ;
#259 = EDGE_CURVE ( 'NONE', #166, #156, #320, .T. ) ;
#260 = EDGE_CURVE ( 'NONE', #164, #162, #316, .T. ) ;
#261 = EDGE_CURVE ( 'NONE', #361, #361, #312, .T. ) ;
#262 = EDGE_CURVE ( 'NONE', #160, #158, #313, .T. ) ;
#263 = EDGE_CURVE ( 'NONE', #159, #163, #318, .T. ) ;
#264 = EDGE_CURVE ( 'NONE', #162, #158, #418, .T. ) ;
#265 = EDGE_CURVE ( 'NONE', #165, #163, #319, .T. ) ;
#266 = EDGE_CURVE ( 'NONE', #165, #166, #417, .T. ) ;
#267 = EDGE_CURVE ( 'NONE', #169, #157, #413, .T. ) ;
#268 = EDGE_CURVE ( 'NONE', #166, #162, #415, .T. ) ;
#269 = EDGE_CURVE ( 'NONE', #170, #165, #409, .T. ) ;
#270 = EDGE_CURVE ( 'NONE', #170, #159, #407, .T. ) ;
#271 = EDGE_CURVE ( 'NONE', #163, #156, #411, .T. ) ;
#272 = EDGE_CURVE ( 'NONE', #360, #360, #403, .T. ) ;
#273 = EDGE_CURVE ( 'NONE', #168, #167, #400, .T. ) ;
#274 = EDGE_CURVE ( 'NONE', #167, #161, #401, .T. ) ;
#275 = EDGE_CURVE ( 'NONE', #167, #164, #405, .T. ) ;
#276 = EDGE_CURVE ( 'NONE', #359, #359, #396, .T. ) ;
#277 = EDGE_CURVE ( 'NONE', #358, #358, #392, .T. ) ;
#278 = EDGE_CURVE ( 'NONE', #157, #159, #394, .T. ) ;
#279 = EDGE_CURVE ( 'NONE', #171, #157, #393, .T. ) ;
#280 = EDGE_CURVE ( 'NONE', #161, #160, #389, .T. ) ;
#281 = EDGE_CURVE ( 'NONE', #169, #170, #388, .T. ) ;
#282 = EDGE_CURVE ( 'NONE', #168, #169, #386, .T. ) ;
#283 = EDGE_CURVE ( 'NONE', #168, #171, #384, .T. ) ;
#284 = AXIS2_PLACEMENT_3D ( 'NONE', #42, #34, #35 ) ;
#285 = AXIS2_PLACEMENT_3D ( 'NONE', #45, #59, #39 ) ;
#286 = CC_DESIGN_APPROVAL ( #296, ( #297 ) ) ;
#287 = AXIS2_PLACEMENT_3D ( 'NONE', #32, #36, #44 ) ;
#288 = PRODUCT_RELATED_PRODUCT_CATEGORY ( 'detail', '', ( #420 ) ) ;
#289 = CC_DESIGN_PERSON_AND_ORGANIZATION_ASSIGNMENT ( #334, #89, ( #293 ) ) ;
#290 = CC_DESIGN_DATE_AND_TIME_ASSIGNMENT ( #330, #87, ( #293 ) ) ;
#291 = APPROVAL ( #85, 'UNSPECIFIED' ) ;
#292 = CC_DESIGN_APPROVAL ( #291, ( #293 ) ) ;
#293 = SECURITY_CLASSIFICATION ( '', '', #93 ) ;
#294 = CC_DESIGN_PERSON_AND_ORGANIZATION_ASSIGNMENT ( #336, #96, ( #297 ) ) ;
#295 = CC_DESIGN_PERSON_AND_ORGANIZATION_ASSIGNMENT ( #335, #95, ( #297 ) ) ;
#296 = APPROVAL ( #101, 'UNSPECIFIED' ) ;
#297 = PRODUCT_DEFINITION_FORMATION_WITH_SPECIFIED_SOURCE ( 'ANY', '', #420, .NOT_KNOWN. ) ;
#298 = CC_DESIGN_DATE_AND_TIME_ASSIGNMENT ( #344, #103, ( #302 ) ) ;
#299 = CC_DESIGN_PERSON_AND_ORGANIZATION_ASSIGNMENT ( #348, #105, ( #302 ) ) ;
#300 = APPROVAL ( #109, 'UNSPECIFIED' ) ;
#301 = CC_DESIGN_APPROVAL ( #300, ( #302 ) ) ;
#302 = PRODUCT_DEFINITION ( 'UNKNOWN', '', #297, #436 ) ;
#303 = AXIS2_PLACEMENT_3D ( 'NONE', #133, #131, #118 ) ;
#304 = CC_DESIGN_PERSON_AND_ORGANIZATION_ASSIGNMENT ( #356, #113, ( #420 ) ) ;
#305 = AXIS2_PLACEMENT_3D ( 'NONE', #14, #2, #1 ) ;
#306 =( GEOMETRIC_REPRESENTATION_CONTEXT ( 3 ) GLOBAL_UNCERTAINTY_ASSIGNED_CONTEXT ( ( #421 ) ) GLOBAL_UNIT_ASSIGNED_CONTEXT ( ( #125, #124, #123 ) ) REPRESENTATION_CONTEXT ( 'NONE', 'WORKASPACE' ) );
#307 = AXIS2_PLACEMENT_3D ( 'NONE', #22, #8, #7 ) ;
#308 = AXIS2_PLACEMENT_3D ( 'NONE', #54, #13, #11 ) ;
#309 = AXIS2_PLACEMENT_3D ( 'NONE', #20, #26, #17 ) ;
#310 = AXIS2_PLACEMENT_3D ( 'NONE', #29, #23, #21 ) ;
#311 = CC_DESIGN_SECURITY_CLASSIFICATION ( #293, ( #297 ) ) ;
#312 = CIRCLE ( 'NONE', #256, 2.500000000000002200 ) ;
#313 = LINE ( 'NONE', #128, #315 ) ;
#314 = VECTOR ( 'NONE', #139, 1000.000000000000000 ) ;
#315 = VECTOR ( 'NONE', #143, 1000.000000000000000 ) ;
#316 = LINE ( 'NONE', #62, #317 ) ;
#317 = VECTOR ( 'NONE', #117, 1000.000000000000000 ) ;
#318 = LINE ( 'NONE', #99, #314 ) ;
#319 = LINE ( 'NONE', #92, #414 ) ;
#320 = LINE ( 'NONE', #56, #321 ) ;
#321 = VECTOR ( 'NONE', #134, 1000.000000000000000 ) ;
#322 = VECTOR ( 'NONE', #147, 1000.000000000000000 ) ;
#323 = APPROVAL_DATE_TIME ( #324, #291 ) ;
#324 = DATE_AND_TIME ( #325, #326 ) ;
#325 = CALENDAR_DATE ( 2012, 9, 11 ) ;
#326 = LOCAL_TIME ( 12, 44, 18.00000000000000000, #327 ) ;
#327 = COORDINATED_UNIVERSAL_TIME_OFFSET ( 4, 0, .AHEAD. ) ;
#328 = APPROVAL_PERSON_ORGANIZATION ( #329, #291, #84 ) ;
#329 = PERSON_AND_ORGANIZATION ( #419, #357 ) ;
#330 = DATE_AND_TIME ( #331, #332 ) ;
#331 = CALENDAR_DATE ( 2012, 9, 11 ) ;
#332 = LOCAL_TIME ( 12, 44, 18.00000000000000000, #333 ) ;
#333 = COORDINATED_UNIVERSAL_TIME_OFFSET ( 4, 0, .AHEAD. ) ;
#334 = PERSON_AND_ORGANIZATION ( #419, #357 ) ;
#335 = PERSON_AND_ORGANIZATION ( #419, #357 ) ;
#336 = PERSON_AND_ORGANIZATION ( #419, #357 ) ;
#337 = APPROVAL_DATE_TIME ( #338, #296 ) ;
#338 = DATE_AND_TIME ( #339, #340 ) ;
#339 = CALENDAR_DATE ( 2012, 9, 11 ) ;
#340 = LOCAL_TIME ( 12, 44, 18.00000000000000000, #341 ) ;
#341 = COORDINATED_UNIVERSAL_TIME_OFFSET ( 4, 0, .AHEAD. ) ;
#342 = APPROVAL_PERSON_ORGANIZATION ( #343, #296, #97 ) ;
#343 = PERSON_AND_ORGANIZATION ( #419, #357 ) ;
#344 = DATE_AND_TIME ( #345, #346 ) ;
#345 = CALENDAR_DATE ( 2012, 9, 11 ) ;
#346 = LOCAL_TIME ( 12, 44, 18.00000000000000000, #347 ) ;
#347 = COORDINATED_UNIVERSAL_TIME_OFFSET ( 4, 0, .AHEAD. ) ;
#348 = PERSON_AND_ORGANIZATION ( #419, #357 ) ;
#349 = APPROVAL_DATE_TIME ( #350, #300 ) ;
#350 = DATE_AND_TIME ( #351, #352 ) ;
#351 = CALENDAR_DATE ( 2012, 9, 11 ) ;
#352 = LOCAL_TIME ( 12, 44, 18.00000000000000000, #353 ) ;
#353 = COORDINATED_UNIVERSAL_TIME_OFFSET ( 4, 0, .AHEAD. ) ;
#354 = APPROVAL_PERSON_ORGANIZATION ( #355, #300, #106 ) ;
#355 = PERSON_AND_ORGANIZATION ( #419, #357 ) ;
#356 = PERSON_AND_ORGANIZATION ( #419, #357 ) ;
#357 = ORGANIZATION ( 'UNSPECIFIED', 'UNSPECIFIED', '' ) ;
#358 = VERTEX_POINT ( 'NONE', #9 ) ;
#359 = VERTEX_POINT ( 'NONE', #135 ) ;
#360 = VERTEX_POINT ( 'NONE', #50 ) ;
#361 = VERTEX_POINT ( 'NONE', #136 ) ;
#362 = FACE_OUTER_BOUND ( 'NONE', #246, .T. ) ;
#363 = SHAPE_DEFINITION_REPRESENTATION ( #437, #423 ) ;
#364 = FACE_BOUND ( 'NONE', #239, .T. ) ;
#365 = FACE_OUTER_BOUND ( 'NONE', #173, .T. ) ;
#366 = CYLINDRICAL_SURFACE ( 'NONE', #287, 2.500000000000002200 ) ;
#367 = FACE_OUTER_BOUND ( 'NONE', #241, .T. ) ;
#368 = FACE_OUTER_BOUND ( 'NONE', #245, .T. ) ;
#369 = FACE_OUTER_BOUND ( 'NONE', #238, .T. ) ;
#370 = FACE_BOUND ( 'NONE', #243, .T. ) ;
#371 = FACE_OUTER_BOUND ( 'NONE', #247, .T. ) ;
#372 = FACE_BOUND ( 'NONE', #177, .T. ) ;
#373 = FACE_OUTER_BOUND ( 'NONE', #176, .T. ) ;
#374 = FACE_OUTER_BOUND ( 'NONE', #242, .T. ) ;
#375 = CYLINDRICAL_SURFACE ( 'NONE', #252, 2.500000000000002200 ) ;
#376 = FACE_OUTER_BOUND ( 'NONE', #237, .T. ) ;
#377 = FACE_OUTER_BOUND ( 'NONE', #235, .T. ) ;
#378 = FACE_BOUND ( 'NONE', #175, .T. ) ;
#379 = FACE_OUTER_BOUND ( 'NONE', #174, .T. ) ;
#380 = FACE_OUTER_BOUND ( 'NONE', #244, .T. ) ;
#381 = VECTOR ( 'NONE', #77, 1000.000000000000000 ) ;
#382 = FACE_OUTER_BOUND ( 'NONE', #240, .T. ) ;
#383 = VECTOR ( 'NONE', #82, 1000.000000000000000 ) ;
#384 = LINE ( 'NONE', #80, #381 ) ;
#385 = VECTOR ( 'NONE', #94, 1000.000000000000000 ) ;
#386 = LINE ( 'NONE', #88, #383 ) ;
#387 = VECTOR ( 'NONE', #102, 1000.000000000000000 ) ;
#388 = LINE ( 'NONE', #98, #385 ) ;
#389 = LINE ( 'NONE', #115, #387 ) ;
#390 = VECTOR ( 'NONE', #130, 1000.000000000000000 ) ;
#391 = VECTOR ( 'NONE', #120, 1000.000000000000000 ) ;
#392 = CIRCLE ( 'NONE', #253, 2.500000000000002200 ) ;
#393 = LINE ( 'NONE', #52, #391 ) ;
#394 = LINE ( 'NONE', #64, #390 ) ;
#395 = VECTOR ( 'NONE', #140, 1000.000000000000000 ) ;
#396 = CIRCLE ( 'NONE', #255, 2.500000000000002200 ) ;
#397 = FACE_OUTER_BOUND ( 'NONE', #172, .T. ) ;
#398 = VECTOR ( 'NONE', #127, 1000.000000000000000 ) ;
#399 = VECTOR ( 'NONE', #63, 1000.000000000000000 ) ;
#400 = LINE ( 'NONE', #83, #398 ) ;
#401 = LINE ( 'NONE', #108, #399 ) ;
#402 = VECTOR ( 'NONE', #100, 1000.000000000000000 ) ;
#403 = CIRCLE ( 'NONE', #257, 2.500000000000002200 ) ;
#404 = VECTOR ( 'NONE', #111, 1000.000000000000000 ) ;
#405 = LINE ( 'NONE', #69, #395 ) ;
#406 = VECTOR ( 'NONE', #107, 1000.000000000000000 ) ;
#407 = LINE ( 'NONE', #66, #404 ) ;
#408 = VECTOR ( 'NONE', #81, 1000.000000000000000 ) ;
#409 = LINE ( 'NONE', #86, #406 ) ;
#410 = VECTOR ( 'NONE', #90, 1000.000000000000000 ) ;
#411 = LINE ( 'NONE', #138, #402 ) ;
#412 = VECTOR ( 'NONE', #137, 1000.000000000000000 ) ;
#413 = LINE ( 'NONE', #73, #410 ) ;
#414 = VECTOR ( 'NONE', #141, 1000.000000000000000 ) ;
#415 = LINE ( 'NONE', #91, #408 ) ;
#416 = VECTOR ( 'NONE', #142, 1000.000000000000000 ) ;
#417 = LINE ( 'NONE', #146, #412 ) ;
#418 = LINE ( 'NONE', #68, #416 ) ;
#419 = PERSON ( 'UNSPECIFIED', 'UNSPECIFIED', 'UNSPECIFIED', ('UNSPECIFIED'), ('UNSPECIFIED'), ('UNSPECIFIED') ) ;
#420 = PRODUCT ( 'Êðûøêà íà îòâåòâèòåëü Ò-îáðàçíûé âåðòèêàëüíûé TDSA_38381', 'Êðûøêà íà îòâåòâèòåëü Ò-îáðàçíûé âåðòèêàëüíûé TDSA_38381', '', ( #114 ) ) ;
#421 = UNCERTAINTY_MEASURE_WITH_UNIT (LENGTH_MEASURE( 1.000000000000000100E-005 ), #125, 'distance_accuracy_value', 'NONE');
#422 = MANIFOLD_SOLID_BREP ( 'Âûðåç-Âûòÿíóòü1', #188 ) ;
#423 = ADVANCED_BREP_SHAPE_REPRESENTATION ( '¦¨v°úð ýð þªòõªòøªõû¹ T-þñ¨ð÷ývù òõ¨ªøúðû¹ývù TDSA_38381', ( #422, #303 ), #306 ) ;
#424 = ADVANCED_FACE ( 'NONE', ( #397 ), #79, .T. ) ;
#425 = ADVANCED_FACE ( 'NONE', ( #380, #377 ), #375, .F. ) ;
#426 = ADVANCED_FACE ( 'NONE', ( #379 ), #65, .T. ) ;
#427 = ADVANCED_FACE ( 'NONE', ( #382 ), #53, .T. ) ;
#428 = ADVANCED_FACE ( 'NONE', ( #378, #372, #374 ), #43, .T. ) ;
#429 = ADVANCED_FACE ( 'NONE', ( #373 ), #38, .T. ) ;
#430 = ADVANCED_FACE ( 'NONE', ( #376, #368 ), #366, .F. ) ;
#431 = ADVANCED_FACE ( 'NONE', ( #371 ), #27, .F. ) ;
#432 = ADVANCED_FACE ( 'NONE', ( #370, #364, #369 ), #18, .F. ) ;
#433 = ADVANCED_FACE ( 'NONE', ( #365 ), #15, .F. ) ;
#434 = ADVANCED_FACE ( 'NONE', ( #367 ), #10, .F. ) ;
#435 = ADVANCED_FACE ( 'NONE', ( #362 ), #4, .T. ) ;
#436 = DESIGN_CONTEXT ( 'detailed design', #112, 'design' ) ;
#437 = PRODUCT_DEFINITION_SHAPE ( 'NONE', 'NONE',  #302 ) ;
ENDSEC;
END-ISO-10303-21;
