ISO-10303-21;
HEADER;
FILE_DESCRIPTION (( 'STEP AP203' ),
    '1' );
FILE_NAME ('CTR10-025-K41-060I Òðóáà ãëàäêàÿ æåñòêàÿ ÏÂÕ d25 ÈÝÊ ñåðàÿ (60ì),3ì.STEP',
    '2016-04-27T08:16:08',
    ( '' ),
    ( '' ),
    'SwSTEP 2.0',
    'SolidWorks 2014',
    '' );
FILE_SCHEMA (( 'CONFIG_CONTROL_DESIGN' ));
ENDSEC;

DATA;
#1 = APPROVAL_ROLE ( '' ) ;
#2 = AXIS2_PLACEMENT_3D ( 'NONE', #45, #64, #91 ) ;
#3 = CARTESIAN_POINT ( 'NONE',  ( 0.0000000000000000000, 0.0000000000000000000, -12.50000000000000000 ) ) ;
#4 = PLANE ( 'NONE',  #48 ) ;
#5 = COORDINATED_UNIVERSAL_TIME_OFFSET ( 3, 0, .AHEAD. ) ;
#6 = CC_DESIGN_PERSON_AND_ORGANIZATION_ASSIGNMENT ( #114, #134, ( #147 ) ) ;
#7 = APPROVAL_DATE_TIME ( #44, #49 ) ;
#8 = APPROVAL_PERSON_ORGANIZATION ( #37, #49, #1 ) ;
#9 = DIRECTION ( 'NONE',  ( 0.0000000000000000000, 0.0000000000000000000, -1.000000000000000000 ) ) ;
#10 =( NAMED_UNIT ( * ) SI_UNIT ( $, .STERADIAN. ) SOLID_ANGLE_UNIT ( ) );
#11 = MECHANICAL_CONTEXT ( 'NONE', #39, 'mechanical' ) ;
#12 = PRODUCT_DEFINITION_SHAPE ( 'NONE', 'NONE',  #82 ) ;
#13 = CC_DESIGN_PERSON_AND_ORGANIZATION_ASSIGNMENT ( #73, #53, ( #147 ) ) ;
#14 = ORIENTED_EDGE ( 'NONE', *, *, #116, .T. ) ;
#15 = CC_DESIGN_PERSON_AND_ORGANIZATION_ASSIGNMENT ( #98, #52, ( #82 ) ) ;
#16 = EDGE_LOOP ( 'NONE', ( #118 ) ) ;
#17 = PERSON_AND_ORGANIZATION ( #158, #110 ) ;
#18 = DIRECTION ( 'NONE',  ( -1.000000000000000000, -0.0000000000000000000, -0.0000000000000000000 ) ) ;
#19 = CYLINDRICAL_SURFACE ( 'NONE', #92, 11.50000000000000000 ) ;
#20 = AXIS2_PLACEMENT_3D ( 'NONE', #95, #29, #123 ) ;
#21 = SECURITY_CLASSIFICATION ( '', '', #144 ) ;
#22 = FACE_OUTER_BOUND ( 'NONE', #96, .T. ) ;
#23 = VERTEX_POINT ( 'NONE', #3 ) ;
#24 = EDGE_LOOP ( 'NONE', ( #150 ) ) ;
#25 = APPLICATION_PROTOCOL_DEFINITION ( 'international standard', 'config_control_design', 1994, #39 ) ;
#26 = APPLICATION_CONTEXT ( 'configuration controlled 3d designs of mechanical parts and assemblies' ) ;
#27 = FACE_OUTER_BOUND ( 'NONE', #148, .T. ) ;
#28 = LOCAL_TIME ( 11, 16, 8.000000000000000000, #61 ) ;
#29 = DIRECTION ( 'NONE',  ( 1.000000000000000000, 0.0000000000000000000, 0.0000000000000000000 ) ) ;
#30 = CARTESIAN_POINT ( 'NONE',  ( 0.0000000000000000000, 0.0000000000000000000, 0.0000000000000000000 ) ) ;
#31 =( GEOMETRIC_REPRESENTATION_CONTEXT ( 3 ) GLOBAL_UNCERTAINTY_ASSIGNED_CONTEXT ( ( #70 ) ) GLOBAL_UNIT_ASSIGNED_CONTEXT ( ( #169, #90, #10 ) ) REPRESENTATION_CONTEXT ( 'NONE', 'WORKASPACE' ) );
#32 = CALENDAR_DATE ( 2016, 27, 4 ) ;
#33 = CC_DESIGN_PERSON_AND_ORGANIZATION_ASSIGNMENT ( #42, #66, ( #21 ) ) ;
#34 = COORDINATED_UNIVERSAL_TIME_OFFSET ( 3, 0, .AHEAD. ) ;
#35 = DESIGN_CONTEXT ( 'detailed design', #26, 'design' ) ;
#36 = MANIFOLD_SOLID_BREP ( 'Áîáûøêà-Âûòÿíóòü1', #117 ) ;
#37 = PERSON_AND_ORGANIZATION ( #158, #110 ) ;
#38 = PRODUCT ( 'CTR10-025-K41-060I Òðóáà ãëàäêàÿ æåñòêàÿ ÏÂÕ d25 ÈÝÊ ñåðàÿ (60ì),3ì', 'CTR10-025-K41-060I Òðóáà ãëàäêàÿ æåñòêàÿ ÏÂÕ d25 ÈÝÊ ñåðàÿ (60ì),3ì', '', ( #11 ) ) ;
#39 = APPLICATION_CONTEXT ( 'configuration controlled 3d designs of mechanical parts and assemblies' ) ;
#40 = APPROVAL_STATUS ( 'not_yet_approved' ) ;
#41 = APPROVAL_ROLE ( '' ) ;
#42 = PERSON_AND_ORGANIZATION ( #158, #110 ) ;
#43 = CC_DESIGN_DATE_AND_TIME_ASSIGNMENT ( #71, #153, ( #21 ) ) ;
#44 = DATE_AND_TIME ( #74, #115 ) ;
#45 = CARTESIAN_POINT ( 'NONE',  ( 0.0000000000000000000, 0.0000000000000000000, 0.0000000000000000000 ) ) ;
#46 = DIRECTION ( 'NONE',  ( 0.0000000000000000000, 0.0000000000000000000, -1.000000000000000000 ) ) ;
#47 = DIRECTION ( 'NONE',  ( 1.000000000000000000, 0.0000000000000000000, 0.0000000000000000000 ) ) ;
#48 = AXIS2_PLACEMENT_3D ( 'NONE', #131, #103, #81 ) ;
#49 = APPROVAL ( #78, 'UNSPECIFIED' ) ;
#50 = ORIENTED_EDGE ( 'NONE', *, *, #113, .T. ) ;
#51 = CARTESIAN_POINT ( 'NONE',  ( 3000.000000000000000, 0.0000000000000000000, 0.0000000000000000000 ) ) ;
#52 = PERSON_AND_ORGANIZATION_ROLE ( 'creator' ) ;
#53 = PERSON_AND_ORGANIZATION_ROLE ( 'design_supplier' ) ;
#54 = CARTESIAN_POINT ( 'NONE',  ( 3000.000000000000000, 0.0000000000000000000, -12.50000000000000000 ) ) ;
#55 = CIRCLE ( 'NONE', #100, 11.50000000000000000 ) ;
#56 = CC_DESIGN_APPROVAL ( #49, ( #21 ) ) ;
#57 = CIRCLE ( 'NONE', #101, 12.50000000000000000 ) ;
#58 = VERTEX_POINT ( 'NONE', #54 ) ;
#59 = ORIENTED_EDGE ( 'NONE', *, *, #116, .F. ) ;
#60 = EDGE_LOOP ( 'NONE', ( #59 ) ) ;
#61 = COORDINATED_UNIVERSAL_TIME_OFFSET ( 3, 0, .AHEAD. ) ;
#62 = APPROVAL_DATE_TIME ( #99, #154 ) ;
#63 = DIRECTION ( 'NONE',  ( 0.0000000000000000000, 0.0000000000000000000, -1.000000000000000000 ) ) ;
#64 = DIRECTION ( 'NONE',  ( 0.0000000000000000000, 0.0000000000000000000, 1.000000000000000000 ) ) ;
#65 = APPROVAL_STATUS ( 'not_yet_approved' ) ;
#66 = PERSON_AND_ORGANIZATION_ROLE ( 'classification_officer' ) ;
#67 = LOCAL_TIME ( 11, 16, 8.000000000000000000, #84 ) ;
#68 = CC_DESIGN_SECURITY_CLASSIFICATION ( #21, ( #147 ) ) ;
#69 = APPROVAL_PERSON_ORGANIZATION ( #102, #154, #41 ) ;
#70 = UNCERTAINTY_MEASURE_WITH_UNIT (LENGTH_MEASURE( 1.000000000000000100E-005 ), #169, 'distance_accuracy_value', 'NONE');
#71 = DATE_AND_TIME ( #106, #141 ) ;
#72 = DIRECTION ( 'NONE',  ( 0.0000000000000000000, 0.0000000000000000000, 1.000000000000000000 ) ) ;
#73 = PERSON_AND_ORGANIZATION ( #158, #110 ) ;
#74 = CALENDAR_DATE ( 2016, 27, 4 ) ;
#75 = PRODUCT_RELATED_PRODUCT_CATEGORY ( 'detail', '', ( #38 ) ) ;
#76 = CC_DESIGN_PERSON_AND_ORGANIZATION_ASSIGNMENT ( #17, #104, ( #38 ) ) ;
#77 = AXIS2_PLACEMENT_3D ( 'NONE', #168, #88, #9 ) ;
#78 = APPROVAL_STATUS ( 'not_yet_approved' ) ;
#79 = ADVANCED_BREP_SHAPE_REPRESENTATION ( 'CTR10-025-K41-060I T¨ºñð óûðôúð  öõ¸ªúð  ¦T- d25 L¦¦ ¸õ¨ð  (60ü),3ü', ( #36, #2 ), #31 ) ;
#80 = DIRECTION ( 'NONE',  ( 0.0000000000000000000, 0.0000000000000000000, -1.000000000000000000 ) ) ;
#81 = DIRECTION ( 'NONE',  ( 0.0000000000000000000, 0.0000000000000000000, -1.000000000000000000 ) ) ;
#82 = PRODUCT_DEFINITION ( 'UNKNOWN', '', #147, #35 ) ;
#83 = EDGE_LOOP ( 'NONE', ( #14 ) ) ;
#84 = COORDINATED_UNIVERSAL_TIME_OFFSET ( 3, 0, .AHEAD. ) ;
#85 = AXIS2_PLACEMENT_3D ( 'NONE', #86, #18, #164 ) ;
#86 = CARTESIAN_POINT ( 'NONE',  ( 3000.000000000000000, 0.0000000000000000000, 0.0000000000000000000 ) ) ;
#87 = AXIS2_PLACEMENT_3D ( 'NONE', #30, #125, #46 ) ;
#88 = DIRECTION ( 'NONE',  ( 1.000000000000000000, 0.0000000000000000000, 0.0000000000000000000 ) ) ;
#89 = FACE_OUTER_BOUND ( 'NONE', #60, .T. ) ;
#90 =( NAMED_UNIT ( * ) PLANE_ANGLE_UNIT ( ) SI_UNIT ( $, .RADIAN. ) );
#91 = DIRECTION ( 'NONE',  ( 1.000000000000000000, 0.0000000000000000000, 0.0000000000000000000 ) ) ;
#92 = AXIS2_PLACEMENT_3D ( 'NONE', #108, #155, #72 ) ;
#93 = CYLINDRICAL_SURFACE ( 'NONE', #85, 12.50000000000000000 ) ;
#94 = VERTEX_POINT ( 'NONE', #138 ) ;
#95 = CARTESIAN_POINT ( 'NONE',  ( 0.0000000000000000000, 0.0000000000000000000, 0.0000000000000000000 ) ) ;
#96 = EDGE_LOOP ( 'NONE', ( #50 ) ) ;
#97 = ADVANCED_FACE ( 'NONE', ( #146, #27 ), #19, .F. ) ;
#98 = PERSON_AND_ORGANIZATION ( #158, #110 ) ;
#99 = DATE_AND_TIME ( #137, #167 ) ;
#100 = AXIS2_PLACEMENT_3D ( 'NONE', #129, #47, #80 ) ;
#101 = AXIS2_PLACEMENT_3D ( 'NONE', #51, #142, #63 ) ;
#102 = PERSON_AND_ORGANIZATION ( #158, #110 ) ;
#103 = DIRECTION ( 'NONE',  ( 1.000000000000000000, 0.0000000000000000000, 0.0000000000000000000 ) ) ;
#104 = PERSON_AND_ORGANIZATION_ROLE ( 'design_owner' ) ;
#105 = EDGE_CURVE ( 'NONE', #127, #127, #55, .T. ) ;
#106 = CALENDAR_DATE ( 2016, 27, 4 ) ;
#107 = ADVANCED_FACE ( 'NONE', ( #130, #126 ), #93, .T. ) ;
#108 = CARTESIAN_POINT ( 'NONE',  ( 3000.000000000000000, 0.0000000000000000000, 0.0000000000000000000 ) ) ;
#109 = EDGE_CURVE ( 'NONE', #94, #94, #160, .T. ) ;
#110 = ORGANIZATION ( 'UNSPECIFIED', 'UNSPECIFIED', '' ) ;
#111 = PLANE ( 'NONE',  #20 ) ;
#112 = CARTESIAN_POINT ( 'NONE',  ( 3000.000000000000000, 0.0000000000000000000, -11.50000000000000000 ) ) ;
#113 = EDGE_CURVE ( 'NONE', #58, #58, #57, .T. ) ;
#114 = PERSON_AND_ORGANIZATION ( #158, #110 ) ;
#115 = LOCAL_TIME ( 11, 16, 8.000000000000000000, #145 ) ;
#116 = EDGE_CURVE ( 'NONE', #23, #23, #157, .T. ) ;
#117 = CLOSED_SHELL ( 'NONE', ( #124, #159, #107, #97 ) ) ;
#118 = ORIENTED_EDGE ( 'NONE', *, *, #105, .T. ) ;
#119 = APPLICATION_PROTOCOL_DEFINITION ( 'international standard', 'config_control_design', 1994, #26 ) ;
#120 = APPROVAL ( #40, 'UNSPECIFIED' ) ;
#121 = ORIENTED_EDGE ( 'NONE', *, *, #113, .F. ) ;
#122 = APPROVAL_PERSON_ORGANIZATION ( #151, #120, #133 ) ;
#123 = DIRECTION ( 'NONE',  ( 0.0000000000000000000, 0.0000000000000000000, -1.000000000000000000 ) ) ;
#124 = ADVANCED_FACE ( 'NONE', ( #22, #132 ), #4, .T. ) ;
#125 = DIRECTION ( 'NONE',  ( 1.000000000000000000, 0.0000000000000000000, 0.0000000000000000000 ) ) ;
#126 = FACE_OUTER_BOUND ( 'NONE', #83, .T. ) ;
#127 = VERTEX_POINT ( 'NONE', #112 ) ;
#128 = CC_DESIGN_APPROVAL ( #120, ( #82 ) ) ;
#129 = CARTESIAN_POINT ( 'NONE',  ( 3000.000000000000000, 0.0000000000000000000, 0.0000000000000000000 ) ) ;
#130 = FACE_OUTER_BOUND ( 'NONE', #156, .T. ) ;
#131 = CARTESIAN_POINT ( 'NONE',  ( 3000.000000000000000, 0.0000000000000000000, 0.0000000000000000000 ) ) ;
#132 = FACE_BOUND ( 'NONE', #135, .T. ) ;
#133 = APPROVAL_ROLE ( '' ) ;
#134 = PERSON_AND_ORGANIZATION_ROLE ( 'creator' ) ;
#135 = EDGE_LOOP ( 'NONE', ( #149 ) ) ;
#136 = APPROVAL_DATE_TIME ( #166, #120 ) ;
#137 = CALENDAR_DATE ( 2016, 27, 4 ) ;
#138 = CARTESIAN_POINT ( 'NONE',  ( 0.0000000000000000000, 0.0000000000000000000, -11.50000000000000000 ) ) ;
#139 = DATE_AND_TIME ( #161, #28 ) ;
#140 = CC_DESIGN_DATE_AND_TIME_ASSIGNMENT ( #139, #143, ( #82 ) ) ;
#141 = LOCAL_TIME ( 11, 16, 8.000000000000000000, #5 ) ;
#142 = DIRECTION ( 'NONE',  ( 1.000000000000000000, 0.0000000000000000000, 0.0000000000000000000 ) ) ;
#143 = DATE_TIME_ROLE ( 'creation_date' ) ;
#144 = SECURITY_CLASSIFICATION_LEVEL ( 'unclassified' ) ;
#145 = COORDINATED_UNIVERSAL_TIME_OFFSET ( 3, 0, .AHEAD. ) ;
#146 = FACE_OUTER_BOUND ( 'NONE', #16, .T. ) ;
#147 = PRODUCT_DEFINITION_FORMATION_WITH_SPECIFIED_SOURCE ( 'ANY', '', #38, .NOT_KNOWN. ) ;
#148 = EDGE_LOOP ( 'NONE', ( #163 ) ) ;
#149 = ORIENTED_EDGE ( 'NONE', *, *, #105, .F. ) ;
#150 = ORIENTED_EDGE ( 'NONE', *, *, #109, .T. ) ;
#151 = PERSON_AND_ORGANIZATION ( #158, #110 ) ;
#152 = FACE_BOUND ( 'NONE', #24, .T. ) ;
#153 = DATE_TIME_ROLE ( 'classification_date' ) ;
#154 = APPROVAL ( #65, 'UNSPECIFIED' ) ;
#155 = DIRECTION ( 'NONE',  ( -1.000000000000000000, -0.0000000000000000000, -0.0000000000000000000 ) ) ;
#156 = EDGE_LOOP ( 'NONE', ( #121 ) ) ;
#157 = CIRCLE ( 'NONE', #77, 12.50000000000000000 ) ;
#158 = PERSON ( 'UNSPECIFIED', 'UNSPECIFIED', 'UNSPECIFIED', ('UNSPECIFIED'), ('UNSPECIFIED'), ('UNSPECIFIED') ) ;
#159 = ADVANCED_FACE ( 'NONE', ( #89, #152 ), #111, .F. ) ;
#160 = CIRCLE ( 'NONE', #87, 11.50000000000000000 ) ;
#161 = CALENDAR_DATE ( 2016, 27, 4 ) ;
#162 = SHAPE_DEFINITION_REPRESENTATION ( #12, #79 ) ;
#163 = ORIENTED_EDGE ( 'NONE', *, *, #109, .F. ) ;
#164 = DIRECTION ( 'NONE',  ( 0.0000000000000000000, 0.0000000000000000000, 1.000000000000000000 ) ) ;
#165 = CC_DESIGN_APPROVAL ( #154, ( #147 ) ) ;
#166 = DATE_AND_TIME ( #32, #67 ) ;
#167 = LOCAL_TIME ( 11, 16, 8.000000000000000000, #34 ) ;
#168 = CARTESIAN_POINT ( 'NONE',  ( 0.0000000000000000000, 0.0000000000000000000, 0.0000000000000000000 ) ) ;
#169 =( LENGTH_UNIT ( ) NAMED_UNIT ( * ) SI_UNIT ( .MILLI., .METRE. ) );
ENDSEC;
END-ISO-10303-21;
