ISO-10303-21;
HEADER;
FILE_DESCRIPTION (( 'STEP AP203' ),
    '1' );
FILE_NAME ('Êðûøêà íà îòâåòâèòåëü Ò-îáðàçíûé âåðòèêàëüíûé TD_38304.STEP',
    '2012-11-15T11:28:04',
    ( 'Àñååâ' ),
    ( '' ),
    'SwSTEP 2.0',
    'SolidWorks 2012',
    '' );
FILE_SCHEMA (( 'CONFIG_CONTROL_DESIGN' ));
ENDSEC;

DATA;
#1 = DIRECTION ( 'NONE',  ( 1.000000000000000000, 0.0000000000000000000, 0.0000000000000000000 ) ) ;
#2 = CARTESIAN_POINT ( 'NONE',  ( -8.162383766162930900E-016, 0.5999999999999999800, 328.0000000000000600 ) ) ;
#3 = DIRECTION ( 'NONE',  ( -0.0000000000000000000, 1.000000000000000000, -0.0000000000000000000 ) ) ;
#4 = CARTESIAN_POINT ( 'NONE',  ( 1.734723475976807100E-015, 0.5999999999999999800, 14.99999999999999300 ) ) ;
#5 = CARTESIAN_POINT ( 'NONE',  ( -101.0000000000000000, 0.5999999999999999800, 0.0000000000000000000 ) ) ;
#6 = CARTESIAN_POINT ( 'NONE',  ( -101.6000000000000100, 0.5999999999999999800, 343.0000000000000000 ) ) ;
#7 = ADVANCED_BREP_SHAPE_REPRESENTATION ( '¦¨v°úð ýð þªòõªòøªõû¹ T-þñ¨ð÷ývù òõ¨ªøúðû¹ývù TD_38304', ( #9, #205 ), #234 ) ;
#8 = UNCERTAINTY_MEASURE_WITH_UNIT (LENGTH_MEASURE( 1.000000000000000100E-005 ), #147, 'distance_accuracy_value', 'NONE');
#9 = MANIFOLD_SOLID_BREP ( 'Âûðåç-Âûòÿíóòü1', #251 ) ;
#10 = DIRECTION ( 'NONE',  ( -0.0000000000000000000, -0.0000000000000000000, -1.000000000000000000 ) ) ;
#11 = DIRECTION ( 'NONE',  ( 1.000000000000000000, 0.0000000000000000000, 0.0000000000000000000 ) ) ;
#12 = CARTESIAN_POINT ( 'NONE',  ( -101.0000000000000000, -14.00000000000000000, 343.0000000000000000 ) ) ;
#13 = DIRECTION ( 'NONE',  ( 0.0000000000000000000, 1.000000000000000000, 0.0000000000000000000 ) ) ;
#14 = CARTESIAN_POINT ( 'NONE',  ( -101.6000000000000100, -14.00000000000000000, 343.0000000000000000 ) ) ;
#15 = CARTESIAN_POINT ( 'NONE',  ( -101.0000000000000000, 0.0000000000000000000, 343.0000000000000000 ) ) ;
#16 = DIRECTION ( 'NONE',  ( -0.0000000000000000000, -0.0000000000000000000, -1.000000000000000000 ) ) ;
#17 = DIRECTION ( 'NONE',  ( 0.0000000000000000000, 1.000000000000000000, 0.0000000000000000000 ) ) ;
#18 = CARTESIAN_POINT ( 'NONE',  ( -101.0000000000000000, -14.00000000000000000, 0.0000000000000000000 ) ) ;
#19 = DIRECTION ( 'NONE',  ( -1.000000000000000000, 0.0000000000000000000, 0.0000000000000000000 ) ) ;
#20 = CARTESIAN_POINT ( 'NONE',  ( -101.0000000000000000, -14.00000000000000000, 343.0000000000000000 ) ) ;
#21 = DIRECTION ( 'NONE',  ( -0.0000000000000000000, -0.0000000000000000000, -1.000000000000000000 ) ) ;
#22 = DIRECTION ( 'NONE',  ( -1.000000000000000000, 0.0000000000000000000, 0.0000000000000000000 ) ) ;
#23 = CARTESIAN_POINT ( 'NONE',  ( -101.0000000000000000, 0.0000000000000000000, 0.0000000000000000000 ) ) ;
#24 = DIRECTION ( 'NONE',  ( -0.0000000000000000000, 1.000000000000000000, -0.0000000000000000000 ) ) ;
#25 = CARTESIAN_POINT ( 'NONE',  ( -101.0000000000000000, 0.0000000000000000000, 343.0000000000000000 ) ) ;
#26 = DIRECTION ( 'NONE',  ( -0.0000000000000000000, -0.0000000000000000000, -1.000000000000000000 ) ) ;
#27 = DIRECTION ( 'NONE',  ( -0.0000000000000000000, 1.000000000000000000, -0.0000000000000000000 ) ) ;
#28 = CARTESIAN_POINT ( 'NONE',  ( 101.6000000000000100, -14.00000000000000000, 343.0000000000000000 ) ) ;
#29 = CARTESIAN_POINT ( 'NONE',  ( 101.0000000000000000, 0.0000000000000000000, 343.0000000000000000 ) ) ;
#30 = CARTESIAN_POINT ( 'NONE',  ( -101.6000000000000100, -14.00000000000000000, 0.0000000000000000000 ) ) ;
#31 = CARTESIAN_POINT ( 'NONE',  ( -8.162383766162930900E-016, 0.0000000000000000000, 328.0000000000000600 ) ) ;
#32 = DIRECTION ( 'NONE',  ( -0.0000000000000000000, -1.000000000000000000, -0.0000000000000000000 ) ) ;
#33 = DIRECTION ( 'NONE',  ( 0.0000000000000000000, 0.0000000000000000000, 1.000000000000000000 ) ) ;
#34 = CARTESIAN_POINT ( 'NONE',  ( 1.734723475976807100E-015, 0.0000000000000000000, 14.99999999999999300 ) ) ;
#35 = DIRECTION ( 'NONE',  ( -0.0000000000000000000, -1.000000000000000000, -0.0000000000000000000 ) ) ;
#36 = DIRECTION ( 'NONE',  ( 0.0000000000000000000, 0.0000000000000000000, 1.000000000000000000 ) ) ;
#37 = DIRECTION ( 'NONE',  ( -0.0000000000000000000, -0.0000000000000000000, -1.000000000000000000 ) ) ;
#38 = CARTESIAN_POINT ( 'NONE',  ( -101.0000000000000000, 0.0000000000000000000, 0.0000000000000000000 ) ) ;
#39 = CARTESIAN_POINT ( 'NONE',  ( -101.0000000000000000, 0.0000000000000000000, 343.0000000000000000 ) ) ;
#40 = DIRECTION ( 'NONE',  ( -0.0000000000000000000, -0.0000000000000000000, -1.000000000000000000 ) ) ;
#41 = DIRECTION ( 'NONE',  ( 1.000000000000000000, 0.0000000000000000000, 0.0000000000000000000 ) ) ;
#42 = CARTESIAN_POINT ( 'NONE',  ( -101.0000000000000000, 0.0000000000000000000, 343.0000000000000000 ) ) ;
#43 = DIRECTION ( 'NONE',  ( 1.000000000000000000, 0.0000000000000000000, 0.0000000000000000000 ) ) ;
#44 = CARTESIAN_POINT ( 'NONE',  ( 101.6000000000000100, -14.00000000000000000, 0.0000000000000000000 ) ) ;
#45 = DIRECTION ( 'NONE',  ( -1.000000000000000000, 0.0000000000000000000, 0.0000000000000000000 ) ) ;
#46 = CARTESIAN_POINT ( 'NONE',  ( 101.0000000000000000, 0.0000000000000000000, 343.0000000000000000 ) ) ;
#47 = DIRECTION ( 'NONE',  ( 0.0000000000000000000, -1.000000000000000000, 0.0000000000000000000 ) ) ;
#48 = CARTESIAN_POINT ( 'NONE',  ( 101.0000000000000000, 0.0000000000000000000, 0.0000000000000000000 ) ) ;
#49 = DIRECTION ( 'NONE',  ( 0.0000000000000000000, -1.000000000000000000, 0.0000000000000000000 ) ) ;
#50 = CARTESIAN_POINT ( 'NONE',  ( 101.0000000000000000, -14.00000000000000000, 343.0000000000000000 ) ) ;
#51 = DIRECTION ( 'NONE',  ( -0.0000000000000000000, -0.0000000000000000000, -1.000000000000000000 ) ) ;
#52 = CARTESIAN_POINT ( 'NONE',  ( 101.6000000000000100, 0.5999999999999999800, 343.0000000000000000 ) ) ;
#53 = CARTESIAN_POINT ( 'NONE',  ( -101.0000000000000000, -14.00000000000000000, 343.0000000000000000 ) ) ;
#54 = DIRECTION ( 'NONE',  ( -0.0000000000000000000, -0.0000000000000000000, -1.000000000000000000 ) ) ;
#55 = CARTESIAN_POINT ( 'NONE',  ( 101.6000000000000100, 0.5999999999999999800, 343.0000000000000000 ) ) ;
#56 = CARTESIAN_POINT ( 'NONE',  ( -101.6000000000000100, 0.5999999999999999800, 343.0000000000000000 ) ) ;
#57 = CARTESIAN_POINT ( 'NONE',  ( -101.6000000000000100, -14.00000000000000000, 343.0000000000000000 ) ) ;
#58 = CARTESIAN_POINT ( 'NONE',  ( -101.0000000000000000, -14.00000000000000000, 0.0000000000000000000 ) ) ;
#59 = CARTESIAN_POINT ( 'NONE',  ( -101.6000000000000100, 0.5999999999999999800, 0.0000000000000000000 ) ) ;
#60 = CARTESIAN_POINT ( 'NONE',  ( 101.6000000000000100, 0.5999999999999999800, 0.0000000000000000000 ) ) ;
#61 = CARTESIAN_POINT ( 'NONE',  ( 101.6000000000000100, -14.00000000000000000, 343.0000000000000000 ) ) ;
#62 = CARTESIAN_POINT ( 'NONE',  ( 101.0000000000000000, 0.0000000000000000000, 0.0000000000000000000 ) ) ;
#63 = CARTESIAN_POINT ( 'NONE',  ( 101.0000000000000000, 0.0000000000000000000, 343.0000000000000000 ) ) ;
#64 = CARTESIAN_POINT ( 'NONE',  ( -101.0000000000000000, 0.0000000000000000000, 0.0000000000000000000 ) ) ;
#65 = CARTESIAN_POINT ( 'NONE',  ( 101.0000000000000000, -14.00000000000000000, 343.0000000000000000 ) ) ;
#66 = CARTESIAN_POINT ( 'NONE',  ( 101.0000000000000000, -14.00000000000000000, 0.0000000000000000000 ) ) ;
#67 = CARTESIAN_POINT ( 'NONE',  ( 101.6000000000000100, -14.00000000000000000, 0.0000000000000000000 ) ) ;
#68 = CARTESIAN_POINT ( 'NONE',  ( -8.162383766162930900E-016, 0.5999999999999999800, 325.5000000000000600 ) ) ;
#69 = CARTESIAN_POINT ( 'NONE',  ( -8.162383766162930900E-016, 0.0000000000000000000, 330.5000000000000600 ) ) ;
#70 = DIRECTION ( 'NONE',  ( 0.0000000000000000000, 1.000000000000000000, 0.0000000000000000000 ) ) ;
#71 = ORIENTED_EDGE ( 'NONE', *, *, #185, .F. ) ;
#72 = ORIENTED_EDGE ( 'NONE', *, *, #189, .F. ) ;
#73 = ORIENTED_EDGE ( 'NONE', *, *, #200, .F. ) ;
#74 = ORIENTED_EDGE ( 'NONE', *, *, #212, .F. ) ;
#75 = ORIENTED_EDGE ( 'NONE', *, *, #213, .F. ) ;
#76 = ORIENTED_EDGE ( 'NONE', *, *, #197, .F. ) ;
#77 = ORIENTED_EDGE ( 'NONE', *, *, #194, .F. ) ;
#78 = DIRECTION ( 'NONE',  ( -0.0000000000000000000, 0.0000000000000000000, -1.000000000000000000 ) ) ;
#79 = DIRECTION ( 'NONE',  ( 1.000000000000000000, 0.0000000000000000000, -0.0000000000000000000 ) ) ;
#80 = CARTESIAN_POINT ( 'NONE',  ( 101.6000000000000100, 0.0000000000000000000, 343.0000000000000000 ) ) ;
#81 = PLANE ( 'NONE',  #183 ) ;
#82 = DIRECTION ( 'NONE',  ( 0.0000000000000000000, -0.0000000000000000000, 1.000000000000000000 ) ) ;
#83 = DIRECTION ( 'NONE',  ( -0.0000000000000000000, 0.0000000000000000000, -1.000000000000000000 ) ) ;
#84 = DIRECTION ( 'NONE',  ( 0.0000000000000000000, 1.000000000000000000, 0.0000000000000000000 ) ) ;
#85 = DIRECTION ( 'NONE',  ( 0.0000000000000000000, 0.0000000000000000000, 1.000000000000000000 ) ) ;
#86 = CARTESIAN_POINT ( 'NONE',  ( -101.6000000000000100, 0.0000000000000000000, 343.0000000000000000 ) ) ;
#87 = DIRECTION ( 'NONE',  ( 1.000000000000000000, 0.0000000000000000000, -0.0000000000000000000 ) ) ;
#88 = PLANE ( 'NONE',  #239 ) ;
#89 = DIRECTION ( 'NONE',  ( -0.0000000000000000000, 1.000000000000000000, -0.0000000000000000000 ) ) ;
#90 = CARTESIAN_POINT ( 'NONE',  ( -8.162383766162930900E-016, -14.00099999999999900, 328.0000000000000600 ) ) ;
#91 = DIRECTION ( 'NONE',  ( -1.000000000000000000, 0.0000000000000000000, 0.0000000000000000000 ) ) ;
#92 = CARTESIAN_POINT ( 'NONE',  ( -101.0000000000000000, 0.0000000000000000000, 343.0000000000000000 ) ) ;
#93 = DIRECTION ( 'NONE',  ( -0.0000000000000000000, 1.000000000000000000, -0.0000000000000000000 ) ) ;
#94 = PLANE ( 'NONE',  #182 ) ;
#95 = PLANE ( 'NONE',  #184 ) ;
#96 = CARTESIAN_POINT ( 'NONE',  ( 0.0000000000000000000, 0.0000000000000000000, 0.0000000000000000000 ) ) ;
#97 = DIRECTION ( 'NONE',  ( -0.0000000000000000000, 0.0000000000000000000, -1.000000000000000000 ) ) ;
#98 = DIRECTION ( 'NONE',  ( -0.0000000000000000000, 0.0000000000000000000, -1.000000000000000000 ) ) ;
#99 = DIRECTION ( 'NONE',  ( -1.000000000000000000, 0.0000000000000000000, 0.0000000000000000000 ) ) ;
#100 = PLANE ( 'NONE',  #178 ) ;
#101 = CARTESIAN_POINT ( 'NONE',  ( -101.0000000000000000, 0.0000000000000000000, 343.0000000000000000 ) ) ;
#102 = CARTESIAN_POINT ( 'NONE',  ( -101.0000000000000000, 0.5999999999999999800, 343.0000000000000000 ) ) ;
#103 = CARTESIAN_POINT ( 'NONE',  ( 101.6000000000000100, -14.00000000000000000, 343.0000000000000000 ) ) ;
#104 = PLANE ( 'NONE',  #179 ) ;
#105 = PLANE ( 'NONE',  #180 ) ;
#106 = DIRECTION ( 'NONE',  ( 0.0000000000000000000, 1.000000000000000000, 0.0000000000000000000 ) ) ;
#107 = DIRECTION ( 'NONE',  ( 0.0000000000000000000, -1.000000000000000000, 0.0000000000000000000 ) ) ;
#108 = DIRECTION ( 'NONE',  ( 0.0000000000000000000, -0.0000000000000000000, -1.000000000000000000 ) ) ;
#109 = CARTESIAN_POINT ( 'NONE',  ( 1.734723475976807100E-015, -14.00099999999999900, 14.99999999999999300 ) ) ;
#110 = CARTESIAN_POINT ( 'NONE',  ( -101.0000000000000000, -14.00000000000000000, 343.0000000000000000 ) ) ;
#111 = CARTESIAN_POINT ( 'NONE',  ( 0.0000000000000000000, 0.0000000000000000000, 343.0000000000000000 ) ) ;
#112 = DIRECTION ( 'NONE',  ( 0.0000000000000000000, -0.0000000000000000000, 1.000000000000000000 ) ) ;
#113 = PLANE ( 'NONE',  #237 ) ;
#114 = DIRECTION ( 'NONE',  ( 0.0000000000000000000, 0.0000000000000000000, 1.000000000000000000 ) ) ;
#115 = CARTESIAN_POINT ( 'NONE',  ( 101.0000000000000000, 0.0000000000000000000, 343.0000000000000000 ) ) ;
#116 = DIRECTION ( 'NONE',  ( -1.000000000000000000, 0.0000000000000000000, 0.0000000000000000000 ) ) ;
#117 = DIRECTION ( 'NONE',  ( 0.0000000000000000000, 0.0000000000000000000, 1.000000000000000000 ) ) ;
#118 = DIRECTION ( 'NONE',  ( 0.0000000000000000000, -0.0000000000000000000, -1.000000000000000000 ) ) ;
#119 = PLANE ( 'NONE',  #236 ) ;
#120 = DIRECTION ( 'NONE',  ( 0.0000000000000000000, -1.000000000000000000, 0.0000000000000000000 ) ) ;
#121 = CARTESIAN_POINT ( 'NONE',  ( -101.6000000000000100, 0.0000000000000000000, 343.0000000000000000 ) ) ;
#122 = PLANE ( 'NONE',  #235 ) ;
#123 = DIRECTION ( 'NONE',  ( -1.000000000000000000, 0.0000000000000000000, 0.0000000000000000000 ) ) ;
#124 = DIRECTION ( 'NONE',  ( 0.0000000000000000000, 0.0000000000000000000, 1.000000000000000000 ) ) ;
#125 = ORIENTED_EDGE ( 'NONE', *, *, #201, .F. ) ;
#126 = PERSON ( 'UNSPECIFIED', 'UNSPECIFIED', 'UNSPECIFIED', ('UNSPECIFIED'), ('UNSPECIFIED'), ('UNSPECIFIED') ) ;
#127 = PRODUCT ( 'Êðûøêà íà îòâåòâèòåëü Ò-îáðàçíûé âåðòèêàëüíûé TD_38304', 'Êðûøêà íà îòâåòâèòåëü Ò-îáðàçíûé âåðòèêàëüíûé TD_38304', '', ( #153 ) ) ;
#128 = ORIENTED_EDGE ( 'NONE', *, *, #198, .T. ) ;
#129 = PRODUCT_DEFINITION_SHAPE ( 'NONE', 'NONE',  #208 ) ;
#130 = DESIGN_CONTEXT ( 'detailed design', #155, 'design' ) ;
#131 = ADVANCED_FACE ( 'NONE', ( #252 ), #95, .T. ) ;
#132 = ADVANCED_FACE ( 'NONE', ( #325 ), #81, .T. ) ;
#133 = ADVANCED_FACE ( 'NONE', ( #326, #330, #328 ), #94, .F. ) ;
#134 = ADVANCED_FACE ( 'NONE', ( #329, #333 ), #335, .F. ) ;
#135 = ADVANCED_FACE ( 'NONE', ( #331 ), #105, .T. ) ;
#136 = ADVANCED_FACE ( 'NONE', ( #327, #337, #332 ), #104, .T. ) ;
#137 = ADVANCED_FACE ( 'NONE', ( #336 ), #100, .F. ) ;
#138 = ADVANCED_FACE ( 'NONE', ( #334 ), #122, .T. ) ;
#139 = ADVANCED_FACE ( 'NONE', ( #339 ), #119, .F. ) ;
#140 = ADVANCED_FACE ( 'NONE', ( #340 ), #113, .T. ) ;
#141 = ADVANCED_FACE ( 'NONE', ( #341 ), #88, .F. ) ;
#142 = ADVANCED_FACE ( 'NONE', ( #342, #345 ), #347, .F. ) ;
#143 = CARTESIAN_POINT ( 'NONE',  ( 0.0000000000000000000, 0.0000000000000000000, 0.0000000000000000000 ) ) ;
#144 = CARTESIAN_POINT ( 'NONE',  ( 1.734723475976807100E-015, 0.5999999999999999800, 17.49999999999999600 ) ) ;
#145 = CARTESIAN_POINT ( 'NONE',  ( 1.734723475976807100E-015, 0.0000000000000000000, 17.49999999999999600 ) ) ;
#146 = DIRECTION ( 'NONE',  ( 0.0000000000000000000, 0.0000000000000000000, 1.000000000000000000 ) ) ;
#147 =( LENGTH_UNIT ( ) NAMED_UNIT ( * ) SI_UNIT ( .MILLI., .METRE. ) );
#148 =( NAMED_UNIT ( * ) PLANE_ANGLE_UNIT ( ) SI_UNIT ( $, .RADIAN. ) );
#149 =( NAMED_UNIT ( * ) SI_UNIT ( $, .STERADIAN. ) SOLID_ANGLE_UNIT ( ) );
#150 = APPLICATION_PROTOCOL_DEFINITION ( 'international standard', 'config_control_design', 1994, #151 ) ;
#151 = APPLICATION_CONTEXT ( 'configuration controlled 3d designs of mechanical parts and assemblies' ) ;
#152 = DIRECTION ( 'NONE',  ( 1.000000000000000000, 0.0000000000000000000, 0.0000000000000000000 ) ) ;
#153 = MECHANICAL_CONTEXT ( 'NONE', #151, 'mechanical' ) ;
#154 = PERSON_AND_ORGANIZATION_ROLE ( 'design_owner' ) ;
#155 = APPLICATION_CONTEXT ( 'configuration controlled 3d designs of mechanical parts and assemblies' ) ;
#156 = APPLICATION_PROTOCOL_DEFINITION ( 'international standard', 'config_control_design', 1994, #155 ) ;
#157 = APPROVAL_STATUS ( 'not_yet_approved' ) ;
#158 = APPROVAL_ROLE ( '' ) ;
#159 = PERSON_AND_ORGANIZATION_ROLE ( 'creator' ) ;
#160 = DATE_TIME_ROLE ( 'creation_date' ) ;
#161 = APPROVAL_STATUS ( 'not_yet_approved' ) ;
#162 = APPROVAL_ROLE ( '' ) ;
#163 = PERSON_AND_ORGANIZATION_ROLE ( 'creator' ) ;
#164 = PERSON_AND_ORGANIZATION_ROLE ( 'design_supplier' ) ;
#165 = SECURITY_CLASSIFICATION_LEVEL ( 'unclassified' ) ;
#166 = PERSON_AND_ORGANIZATION_ROLE ( 'classification_officer' ) ;
#167 = DATE_TIME_ROLE ( 'classification_date' ) ;
#168 = APPROVAL_STATUS ( 'not_yet_approved' ) ;
#169 = APPROVAL_ROLE ( '' ) ;
#170 = CARTESIAN_POINT ( 'NONE',  ( -101.6000000000000100, 0.0000000000000000000, 0.0000000000000000000 ) ) ;
#171 = DIRECTION ( 'NONE',  ( 0.0000000000000000000, 0.0000000000000000000, -1.000000000000000000 ) ) ;
#172 = DIRECTION ( 'NONE',  ( -0.0000000000000000000, -1.000000000000000000, 0.0000000000000000000 ) ) ;
#173 = CARTESIAN_POINT ( 'NONE',  ( 101.6000000000000100, 0.0000000000000000000, 343.0000000000000000 ) ) ;
#174 = CARTESIAN_POINT ( 'NONE',  ( 101.6000000000000100, 0.0000000000000000000, 0.0000000000000000000 ) ) ;
#175 = DIRECTION ( 'NONE',  ( -0.0000000000000000000, -1.000000000000000000, 0.0000000000000000000 ) ) ;
#176 = CARTESIAN_POINT ( 'NONE',  ( 101.6000000000000100, -14.00000000000000000, 343.0000000000000000 ) ) ;
#177 = DIRECTION ( 'NONE',  ( -1.000000000000000000, 0.0000000000000000000, 0.0000000000000000000 ) ) ;
#178 = AXIS2_PLACEMENT_3D ( 'NONE', #111, #98, #99 ) ;
#179 = AXIS2_PLACEMENT_3D ( 'NONE', #102, #106, #112 ) ;
#180 = AXIS2_PLACEMENT_3D ( 'NONE', #110, #107, #108 ) ;
#181 = AXIS2_PLACEMENT_3D ( 'NONE', #109, #93, #85 ) ;
#182 = AXIS2_PLACEMENT_3D ( 'NONE', #92, #84, #82 ) ;
#183 = AXIS2_PLACEMENT_3D ( 'NONE', #96, #97, #91 ) ;
#184 = AXIS2_PLACEMENT_3D ( 'NONE', #80, #87, #78 ) ;
#185 = EDGE_CURVE ( 'NONE', #318, #322, #344, .T. ) ;
#186 = EDGE_CURVE ( 'NONE', #317, #324, #338, .T. ) ;
#187 = ORIENTED_EDGE ( 'NONE', *, *, #211, .F. ) ;
#188 = ORIENTED_EDGE ( 'NONE', *, *, #186, .T. ) ;
#189 = EDGE_CURVE ( 'NONE', #314, #318, #346, .T. ) ;
#190 = EDGE_CURVE ( 'NONE', #401, #401, #350, .T. ) ;
#191 = EDGE_CURVE ( 'NONE', #403, #403, #354, .T. ) ;
#192 = EDGE_CURVE ( 'NONE', #315, #317, #352, .T. ) ;
#193 = EDGE_CURVE ( 'NONE', #312, #315, #358, .T. ) ;
#194 = EDGE_CURVE ( 'NONE', #312, #314, #361, .T. ) ;
#195 = EDGE_CURVE ( 'NONE', #316, #315, #357, .T. ) ;
#196 = EDGE_CURVE ( 'NONE', #311, #316, #363, .T. ) ;
#197 = EDGE_CURVE ( 'NONE', #311, #312, #360, .T. ) ;
#198 = EDGE_CURVE ( 'NONE', #313, #316, #367, .T. ) ;
#199 = EDGE_CURVE ( 'NONE', #310, #313, #369, .T. ) ;
#200 = EDGE_CURVE ( 'NONE', #310, #311, #365, .T. ) ;
#201 = EDGE_CURVE ( 'NONE', #313, #321, #373, .T. ) ;
#202 = EDGE_CURVE ( 'NONE', #309, #321, #375, .T. ) ;
#203 = EDGE_CURVE ( 'NONE', #310, #309, #371, .T. ) ;
#204 = EDGE_CURVE ( 'NONE', #402, #402, #377, .T. ) ;
#205 = AXIS2_PLACEMENT_3D ( 'NONE', #143, #146, #152 ) ;
#206 = CC_DESIGN_PERSON_AND_ORGANIZATION_ASSIGNMENT ( #405, #154, ( #127 ) ) ;
#207 = APPROVAL ( #157, 'UNSPECIFIED' ) ;
#208 = PRODUCT_DEFINITION ( 'UNKNOWN', '', #229, #130 ) ;
#209 = EDGE_CURVE ( 'NONE', #386, #386, #383, .T. ) ;
#210 = EDGE_CURVE ( 'NONE', #318, #324, #381, .T. ) ;
#211 = EDGE_CURVE ( 'NONE', #320, #319, #382, .T. ) ;
#212 = EDGE_CURVE ( 'NONE', #321, #319, #379, .T. ) ;
#213 = EDGE_CURVE ( 'NONE', #309, #320, #387, .T. ) ;
#214 = EDGE_CURVE ( 'NONE', #324, #323, #389, .T. ) ;
#215 = EDGE_CURVE ( 'NONE', #320, #322, #391, .T. ) ;
#216 = EDGE_CURVE ( 'NONE', #319, #323, #393, .T. ) ;
#217 = EDGE_CURVE ( 'NONE', #322, #323, #395, .T. ) ;
#218 = EDGE_CURVE ( 'NONE', #314, #317, #397, .T. ) ;
#219 = CC_DESIGN_SECURITY_CLASSIFICATION ( #224, ( #229 ) ) ;
#220 = CC_DESIGN_APPROVAL ( #223, ( #224 ) ) ;
#221 = CC_DESIGN_PERSON_AND_ORGANIZATION_ASSIGNMENT ( #424, #166, ( #224 ) ) ;
#222 = CC_DESIGN_DATE_AND_TIME_ASSIGNMENT ( #428, #167, ( #224 ) ) ;
#223 = APPROVAL ( #168, 'UNSPECIFIED' ) ;
#224 = SECURITY_CLASSIFICATION ( '', '', #165 ) ;
#225 = CC_DESIGN_PERSON_AND_ORGANIZATION_ASSIGNMENT ( #422, #163, ( #229 ) ) ;
#226 = CC_DESIGN_PERSON_AND_ORGANIZATION_ASSIGNMENT ( #423, #164, ( #229 ) ) ;
#227 = CC_DESIGN_APPROVAL ( #228, ( #229 ) ) ;
#228 = APPROVAL ( #161, 'UNSPECIFIED' ) ;
#229 = PRODUCT_DEFINITION_FORMATION_WITH_SPECIFIED_SOURCE ( 'ANY', '', #127, .NOT_KNOWN. ) ;
#230 = CC_DESIGN_APPROVAL ( #207, ( #208 ) ) ;
#231 = CC_DESIGN_PERSON_AND_ORGANIZATION_ASSIGNMENT ( #413, #159, ( #208 ) ) ;
#232 = CC_DESIGN_DATE_AND_TIME_ASSIGNMENT ( #355, #160, ( #208 ) ) ;
#233 = PRODUCT_RELATED_PRODUCT_CATEGORY ( 'detail', '', ( #127 ) ) ;
#234 =( GEOMETRIC_REPRESENTATION_CONTEXT ( 3 ) GLOBAL_UNCERTAINTY_ASSIGNED_CONTEXT ( ( #8 ) ) GLOBAL_UNIT_ASSIGNED_CONTEXT ( ( #147, #148, #149 ) ) REPRESENTATION_CONTEXT ( 'NONE', 'WORKASPACE' ) );
#235 = AXIS2_PLACEMENT_3D ( 'NONE', #103, #120, #118 ) ;
#236 = AXIS2_PLACEMENT_3D ( 'NONE', #101, #116, #117 ) ;
#237 = AXIS2_PLACEMENT_3D ( 'NONE', #121, #123, #124 ) ;
#238 = AXIS2_PLACEMENT_3D ( 'NONE', #4, #70, #436 ) ;
#239 = AXIS2_PLACEMENT_3D ( 'NONE', #115, #79, #83 ) ;
#240 = AXIS2_PLACEMENT_3D ( 'NONE', #2, #3, #171 ) ;
#241 = AXIS2_PLACEMENT_3D ( 'NONE', #90, #89, #114 ) ;
#242 = AXIS2_PLACEMENT_3D ( 'NONE', #31, #32, #33 ) ;
#243 = AXIS2_PLACEMENT_3D ( 'NONE', #34, #35, #36 ) ;
#244 = EDGE_LOOP ( 'NONE', ( #299 ) ) ;
#245 = EDGE_LOOP ( 'NONE', ( #286 ) ) ;
#246 = EDGE_LOOP ( 'NONE', ( #297, #187, #75, #280 ) ) ;
#247 = EDGE_LOOP ( 'NONE', ( #285 ) ) ;
#248 = EDGE_LOOP ( 'NONE', ( #277 ) ) ;
#249 = EDGE_LOOP ( 'NONE', ( #287 ) ) ;
#250 = EDGE_LOOP ( 'NONE', ( #284 ) ) ;
#251 = CLOSED_SHELL ( 'NONE', ( #141, #138, #131, #136, #140, #135, #139, #133, #137, #132, #134, #142 ) ) ;
#252 = FACE_OUTER_BOUND ( 'NONE', #262, .T. ) ;
#253 = EDGE_LOOP ( 'NONE', ( #289, #74, #125, #128, #281, #283, #188, #282 ) ) ;
#254 = EDGE_LOOP ( 'NONE', ( #300, #264, #302, #267 ) ) ;
#255 = EDGE_LOOP ( 'NONE', ( #295, #306, #307, #290 ) ) ;
#256 = EDGE_LOOP ( 'NONE', ( #263 ) ) ;
#257 = EDGE_LOOP ( 'NONE', ( #279, #271, #276, #278 ) ) ;
#258 = EDGE_LOOP ( 'NONE', ( #301 ) ) ;
#259 = EDGE_LOOP ( 'NONE', ( #268, #266, #265, #272 ) ) ;
#260 = EDGE_LOOP ( 'NONE', ( #303, #71, #72, #77, #76, #73, #275, #288 ) ) ;
#261 = EDGE_LOOP ( 'NONE', ( #273, #269, #270, #274 ) ) ;
#262 = EDGE_LOOP ( 'NONE', ( #291, #304, #293, #294 ) ) ;
#263 = ORIENTED_EDGE ( 'NONE', *, *, #209, .F. ) ;
#264 = ORIENTED_EDGE ( 'NONE', *, *, #193, .F. ) ;
#265 = ORIENTED_EDGE ( 'NONE', *, *, #197, .T. ) ;
#266 = ORIENTED_EDGE ( 'NONE', *, *, #196, .F. ) ;
#267 = ORIENTED_EDGE ( 'NONE', *, *, #218, .T. ) ;
#268 = ORIENTED_EDGE ( 'NONE', *, *, #195, .F. ) ;
#269 = ORIENTED_EDGE ( 'NONE', *, *, #199, .F. ) ;
#270 = ORIENTED_EDGE ( 'NONE', *, *, #200, .T. ) ;
#271 = ORIENTED_EDGE ( 'NONE', *, *, #202, .F. ) ;
#272 = ORIENTED_EDGE ( 'NONE', *, *, #193, .T. ) ;
#273 = ORIENTED_EDGE ( 'NONE', *, *, #198, .F. ) ;
#274 = ORIENTED_EDGE ( 'NONE', *, *, #196, .T. ) ;
#275 = ORIENTED_EDGE ( 'NONE', *, *, #203, .T. ) ;
#276 = ORIENTED_EDGE ( 'NONE', *, *, #203, .F. ) ;
#277 = ORIENTED_EDGE ( 'NONE', *, *, #204, .F. ) ;
#278 = ORIENTED_EDGE ( 'NONE', *, *, #199, .T. ) ;
#279 = ORIENTED_EDGE ( 'NONE', *, *, #201, .T. ) ;
#280 = ORIENTED_EDGE ( 'NONE', *, *, #202, .T. ) ;
#281 = ORIENTED_EDGE ( 'NONE', *, *, #195, .T. ) ;
#282 = ORIENTED_EDGE ( 'NONE', *, *, #214, .T. ) ;
#283 = ORIENTED_EDGE ( 'NONE', *, *, #192, .T. ) ;
#284 = ORIENTED_EDGE ( 'NONE', *, *, #204, .T. ) ;
#285 = ORIENTED_EDGE ( 'NONE', *, *, #190, .T. ) ;
#286 = ORIENTED_EDGE ( 'NONE', *, *, #191, .T. ) ;
#287 = ORIENTED_EDGE ( 'NONE', *, *, #209, .T. ) ;
#288 = ORIENTED_EDGE ( 'NONE', *, *, #213, .T. ) ;
#289 = ORIENTED_EDGE ( 'NONE', *, *, #216, .F. ) ;
#290 = ORIENTED_EDGE ( 'NONE', *, *, #217, .T. ) ;
#291 = ORIENTED_EDGE ( 'NONE', *, *, #186, .F. ) ;
#292 = ORIENTED_EDGE ( 'NONE', *, *, #217, .F. ) ;
#293 = ORIENTED_EDGE ( 'NONE', *, *, #189, .T. ) ;
#294 = ORIENTED_EDGE ( 'NONE', *, *, #210, .T. ) ;
#295 = ORIENTED_EDGE ( 'NONE', *, *, #214, .F. ) ;
#296 = ORIENTED_EDGE ( 'NONE', *, *, #216, .T. ) ;
#297 = ORIENTED_EDGE ( 'NONE', *, *, #212, .T. ) ;
#298 = ORIENTED_EDGE ( 'NONE', *, *, #215, .F. ) ;
#299 = ORIENTED_EDGE ( 'NONE', *, *, #191, .F. ) ;
#300 = ORIENTED_EDGE ( 'NONE', *, *, #192, .F. ) ;
#301 = ORIENTED_EDGE ( 'NONE', *, *, #190, .F. ) ;
#302 = ORIENTED_EDGE ( 'NONE', *, *, #194, .T. ) ;
#303 = ORIENTED_EDGE ( 'NONE', *, *, #215, .T. ) ;
#304 = ORIENTED_EDGE ( 'NONE', *, *, #218, .F. ) ;
#305 = ORIENTED_EDGE ( 'NONE', *, *, #211, .T. ) ;
#306 = ORIENTED_EDGE ( 'NONE', *, *, #210, .F. ) ;
#307 = ORIENTED_EDGE ( 'NONE', *, *, #185, .T. ) ;
#308 = EDGE_LOOP ( 'NONE', ( #296, #292, #298, #305 ) ) ;
#309 = VERTEX_POINT ( 'NONE', #39 ) ;
#310 = VERTEX_POINT ( 'NONE', #53 ) ;
#311 = VERTEX_POINT ( 'NONE', #57 ) ;
#312 = VERTEX_POINT ( 'NONE', #56 ) ;
#313 = VERTEX_POINT ( 'NONE', #58 ) ;
#314 = VERTEX_POINT ( 'NONE', #55 ) ;
#315 = VERTEX_POINT ( 'NONE', #59 ) ;
#316 = VERTEX_POINT ( 'NONE', #30 ) ;
#317 = VERTEX_POINT ( 'NONE', #60 ) ;
#318 = VERTEX_POINT ( 'NONE', #61 ) ;
#319 = VERTEX_POINT ( 'NONE', #62 ) ;
#320 = VERTEX_POINT ( 'NONE', #63 ) ;
#321 = VERTEX_POINT ( 'NONE', #64 ) ;
#322 = VERTEX_POINT ( 'NONE', #65 ) ;
#323 = VERTEX_POINT ( 'NONE', #66 ) ;
#324 = VERTEX_POINT ( 'NONE', #67 ) ;
#325 = FACE_OUTER_BOUND ( 'NONE', #253, .T. ) ;
#326 = FACE_BOUND ( 'NONE', #248, .T. ) ;
#327 = FACE_BOUND ( 'NONE', #258, .T. ) ;
#328 = FACE_OUTER_BOUND ( 'NONE', #246, .T. ) ;
#329 = FACE_OUTER_BOUND ( 'NONE', #245, .T. ) ;
#330 = FACE_BOUND ( 'NONE', #256, .T. ) ;
#331 = FACE_OUTER_BOUND ( 'NONE', #261, .T. ) ;
#332 = FACE_OUTER_BOUND ( 'NONE', #254, .T. ) ;
#333 = FACE_OUTER_BOUND ( 'NONE', #249, .T. ) ;
#334 = FACE_OUTER_BOUND ( 'NONE', #255, .T. ) ;
#335 = CYLINDRICAL_SURFACE ( 'NONE', #181, 2.500000000000002200 ) ;
#336 = FACE_OUTER_BOUND ( 'NONE', #260, .T. ) ;
#337 = FACE_BOUND ( 'NONE', #244, .T. ) ;
#338 = LINE ( 'NONE', #174, #349 ) ;
#339 = FACE_OUTER_BOUND ( 'NONE', #257, .T. ) ;
#340 = FACE_OUTER_BOUND ( 'NONE', #259, .T. ) ;
#341 = FACE_OUTER_BOUND ( 'NONE', #308, .T. ) ;
#342 = FACE_OUTER_BOUND ( 'NONE', #247, .T. ) ;
#343 = VECTOR ( 'NONE', #177, 1000.000000000000000 ) ;
#344 = LINE ( 'NONE', #176, #343 ) ;
#345 = FACE_OUTER_BOUND ( 'NONE', #250, .T. ) ;
#346 = LINE ( 'NONE', #173, #351 ) ;
#347 = CYLINDRICAL_SURFACE ( 'NONE', #241, 2.500000000000002200 ) ;
#348 = LOCAL_TIME ( 15, 28, 4.000000000000000000, #414 ) ;
#349 = VECTOR ( 'NONE', #175, 1000.000000000000000 ) ;
#350 = CIRCLE ( 'NONE', #240, 2.500000000000002200 ) ;
#351 = VECTOR ( 'NONE', #172, 1000.000000000000000 ) ;
#352 = LINE ( 'NONE', #5, #356 ) ;
#353 = CALENDAR_DATE ( 2012, 15, 11 ) ;
#354 = CIRCLE ( 'NONE', #238, 2.500000000000002200 ) ;
#355 = DATE_AND_TIME ( #353, #348 ) ;
#356 = VECTOR ( 'NONE', #1, 1000.000000000000000 ) ;
#357 = LINE ( 'NONE', #170, #364 ) ;
#358 = LINE ( 'NONE', #6, #359 ) ;
#359 = VECTOR ( 'NONE', #10, 1000.000000000000000 ) ;
#360 = LINE ( 'NONE', #86, #368 ) ;
#361 = LINE ( 'NONE', #437, #362 ) ;
#362 = VECTOR ( 'NONE', #11, 1000.000000000000000 ) ;
#363 = LINE ( 'NONE', #14, #366 ) ;
#364 = VECTOR ( 'NONE', #13, 1000.000000000000000 ) ;
#365 = LINE ( 'NONE', #12, #374 ) ;
#366 = VECTOR ( 'NONE', #16, 1000.000000000000000 ) ;
#367 = LINE ( 'NONE', #18, #370 ) ;
#368 = VECTOR ( 'NONE', #17, 1000.000000000000000 ) ;
#369 = LINE ( 'NONE', #20, #372 ) ;
#370 = VECTOR ( 'NONE', #19, 1000.000000000000000 ) ;
#371 = LINE ( 'NONE', #15, #380 ) ;
#372 = VECTOR ( 'NONE', #21, 1000.000000000000000 ) ;
#373 = LINE ( 'NONE', #23, #376 ) ;
#374 = VECTOR ( 'NONE', #22, 1000.000000000000000 ) ;
#375 = LINE ( 'NONE', #25, #378 ) ;
#376 = VECTOR ( 'NONE', #24, 1000.000000000000000 ) ;
#377 = CIRCLE ( 'NONE', #242, 2.500000000000002200 ) ;
#378 = VECTOR ( 'NONE', #26, 1000.000000000000000 ) ;
#379 = LINE ( 'NONE', #38, #388 ) ;
#380 = VECTOR ( 'NONE', #27, 1000.000000000000000 ) ;
#381 = LINE ( 'NONE', #28, #385 ) ;
#382 = LINE ( 'NONE', #29, #384 ) ;
#383 = CIRCLE ( 'NONE', #243, 2.500000000000002200 ) ;
#384 = VECTOR ( 'NONE', #40, 1000.000000000000000 ) ;
#385 = VECTOR ( 'NONE', #37, 1000.000000000000000 ) ;
#386 = VERTEX_POINT ( 'NONE', #145 ) ;
#387 = LINE ( 'NONE', #42, #390 ) ;
#388 = VECTOR ( 'NONE', #41, 1000.000000000000000 ) ;
#389 = LINE ( 'NONE', #44, #392 ) ;
#390 = VECTOR ( 'NONE', #43, 1000.000000000000000 ) ;
#391 = LINE ( 'NONE', #46, #394 ) ;
#392 = VECTOR ( 'NONE', #45, 1000.000000000000000 ) ;
#393 = LINE ( 'NONE', #48, #396 ) ;
#394 = VECTOR ( 'NONE', #47, 1000.000000000000000 ) ;
#395 = LINE ( 'NONE', #50, #398 ) ;
#396 = VECTOR ( 'NONE', #49, 1000.000000000000000 ) ;
#397 = LINE ( 'NONE', #52, #400 ) ;
#398 = VECTOR ( 'NONE', #51, 1000.000000000000000 ) ;
#399 = SHAPE_DEFINITION_REPRESENTATION ( #129, #7 ) ;
#400 = VECTOR ( 'NONE', #54, 1000.000000000000000 ) ;
#401 = VERTEX_POINT ( 'NONE', #68 ) ;
#402 = VERTEX_POINT ( 'NONE', #69 ) ;
#403 = VERTEX_POINT ( 'NONE', #144 ) ;
#404 = ORGANIZATION ( 'UNSPECIFIED', 'UNSPECIFIED', '' ) ;
#405 = PERSON_AND_ORGANIZATION ( #126, #404 ) ;
#406 = PERSON_AND_ORGANIZATION ( #126, #404 ) ;
#407 = APPROVAL_PERSON_ORGANIZATION ( #406, #207, #158 ) ;
#408 = COORDINATED_UNIVERSAL_TIME_OFFSET ( 4, 0, .AHEAD. ) ;
#409 = LOCAL_TIME ( 15, 28, 4.000000000000000000, #408 ) ;
#410 = CALENDAR_DATE ( 2012, 15, 11 ) ;
#411 = DATE_AND_TIME ( #410, #409 ) ;
#412 = APPROVAL_DATE_TIME ( #411, #207 ) ;
#413 = PERSON_AND_ORGANIZATION ( #126, #404 ) ;
#414 = COORDINATED_UNIVERSAL_TIME_OFFSET ( 4, 0, .AHEAD. ) ;
#415 = PERSON_AND_ORGANIZATION ( #126, #404 ) ;
#416 = APPROVAL_PERSON_ORGANIZATION ( #415, #228, #162 ) ;
#417 = COORDINATED_UNIVERSAL_TIME_OFFSET ( 4, 0, .AHEAD. ) ;
#418 = LOCAL_TIME ( 15, 28, 4.000000000000000000, #417 ) ;
#419 = CALENDAR_DATE ( 2012, 15, 11 ) ;
#420 = DATE_AND_TIME ( #419, #418 ) ;
#421 = APPROVAL_DATE_TIME ( #420, #228 ) ;
#422 = PERSON_AND_ORGANIZATION ( #126, #404 ) ;
#423 = PERSON_AND_ORGANIZATION ( #126, #404 ) ;
#424 = PERSON_AND_ORGANIZATION ( #126, #404 ) ;
#425 = COORDINATED_UNIVERSAL_TIME_OFFSET ( 4, 0, .AHEAD. ) ;
#426 = LOCAL_TIME ( 15, 28, 4.000000000000000000, #425 ) ;
#427 = CALENDAR_DATE ( 2012, 15, 11 ) ;
#428 = DATE_AND_TIME ( #427, #426 ) ;
#429 = PERSON_AND_ORGANIZATION ( #126, #404 ) ;
#430 = APPROVAL_PERSON_ORGANIZATION ( #429, #223, #169 ) ;
#431 = COORDINATED_UNIVERSAL_TIME_OFFSET ( 4, 0, .AHEAD. ) ;
#432 = LOCAL_TIME ( 15, 28, 4.000000000000000000, #431 ) ;
#433 = CALENDAR_DATE ( 2012, 15, 11 ) ;
#434 = DATE_AND_TIME ( #433, #432 ) ;
#435 = APPROVAL_DATE_TIME ( #434, #223 ) ;
#436 = DIRECTION ( 'NONE',  ( 0.0000000000000000000, 0.0000000000000000000, 1.000000000000000000 ) ) ;
#437 = CARTESIAN_POINT ( 'NONE',  ( -101.0000000000000000, 0.5999999999999999800, 343.0000000000000000 ) ) ;
ENDSEC;
END-ISO-10303-21;
