ISO-10303-21;
HEADER;
FILE_DESCRIPTION (( 'STEP AP203' ),
    '1' );
FILE_NAME ('Êðûøêà íà îòâåòâèòåëü Ò-îáðàçíûé âåðòèêàëüíûé TDSR_38408.STEP',
    '2012-11-09T08:44:32',
    ( 'Àñååâ' ),
    ( '' ),
    'SwSTEP 2.0',
    'SolidWorks 2012',
    '' );
FILE_SCHEMA (( 'CONFIG_CONTROL_DESIGN' ));
ENDSEC;

DATA;
#1 = CC_DESIGN_PERSON_AND_ORGANIZATION_ASSIGNMENT ( #227, #293, ( #45 ) ) ;
#2 = CC_DESIGN_PERSON_AND_ORGANIZATION_ASSIGNMENT ( #226, #294, ( #45 ) ) ;
#3 = AXIS2_PLACEMENT_3D ( 'NONE', #396, #330, #329 ) ;
#4 = AXIS2_PLACEMENT_3D ( 'NONE', #398, #338, #407 ) ;
#5 = AXIS2_PLACEMENT_3D ( 'NONE', #379, #339, #400 ) ;
#6 = AXIS2_PLACEMENT_3D ( 'NONE', #414, #415, #384 ) ;
#7 = AXIS2_PLACEMENT_3D ( 'NONE', #342, #403, #402 ) ;
#8 = APPROVAL ( #295, 'UNSPECIFIED' ) ;
#9 = CC_DESIGN_DATE_AND_TIME_ASSIGNMENT ( #238, #297, ( #56 ) ) ;
#10 = AXIS2_PLACEMENT_3D ( 'NONE', #356, #346, #355 ) ;
#11 = AXIS2_PLACEMENT_3D ( 'NONE', #392, #391, #390 ) ;
#12 = CC_DESIGN_PERSON_AND_ORGANIZATION_ASSIGNMENT ( #242, #298, ( #56 ) ) ;
#13 = AXIS2_PLACEMENT_3D ( 'NONE', #364, #399, #397 ) ;
#14 = AXIS2_PLACEMENT_3D ( 'NONE', #432, #431, #433 ) ;
#15 = AXIS2_PLACEMENT_3D ( 'NONE', #426, #424, #422 ) ;
#16 = EDGE_CURVE ( 'NONE', #95, #257, #162, .T. ) ;
#17 = EDGE_CURVE ( 'NONE', #183, #194, #192, .T. ) ;
#18 = EDGE_CURVE ( 'NONE', #121, #121, #163, .T. ) ;
#19 = EDGE_CURVE ( 'NONE', #180, #182, #157, .T. ) ;
#20 = EDGE_CURVE ( 'NONE', #205, #205, #160, .T. ) ;
#21 = EDGE_CURVE ( 'NONE', #184, #102, #158, .T. ) ;
#22 = EDGE_CURVE ( 'NONE', #186, #184, #150, .T. ) ;
#23 = EDGE_CURVE ( 'NONE', #186, #183, #156, .T. ) ;
#24 = EDGE_CURVE ( 'NONE', #190, #184, #153, .T. ) ;
#25 = EDGE_CURVE ( 'NONE', #189, #190, #146, .T. ) ;
#26 = EDGE_CURVE ( 'NONE', #189, #186, #154, .T. ) ;
#27 = EDGE_CURVE ( 'NONE', #188, #190, #140, .T. ) ;
#28 = EDGE_CURVE ( 'NONE', #187, #188, #142, .T. ) ;
#29 = EDGE_CURVE ( 'NONE', #187, #189, #148, .T. ) ;
#30 = EDGE_CURVE ( 'NONE', #188, #181, #138, .T. ) ;
#31 = EDGE_CURVE ( 'NONE', #106, #181, #127, .T. ) ;
#32 = EDGE_CURVE ( 'NONE', #187, #106, #144, .T. ) ;
#33 = EDGE_CURVE ( 'NONE', #104, #104, #125, .T. ) ;
#34 = EDGE_CURVE ( 'NONE', #105, #105, #129, .T. ) ;
#35 = EDGE_CURVE ( 'NONE', #181, #257, #131, .T. ) ;
#36 = EDGE_CURVE ( 'NONE', #106, #95, #130, .T. ) ;
#37 = EDGE_CURVE ( 'NONE', #95, #185, #136, .T. ) ;
#38 = EDGE_CURVE ( 'NONE', #257, #182, #134, .T. ) ;
#39 = EDGE_CURVE ( 'NONE', #185, #182, #108, .T. ) ;
#40 = EDGE_CURVE ( 'NONE', #102, #180, #123, .T. ) ;
#41 = EDGE_CURVE ( 'NONE', #183, #102, #207, .T. ) ;
#42 = AXIS2_PLACEMENT_3D ( 'NONE', #335, #331, #405 ) ;
#43 = EDGE_CURVE ( 'NONE', #194, #185, #206, .T. ) ;
#44 = EDGE_CURVE ( 'NONE', #194, #180, #210, .T. ) ;
#45 = PRODUCT_DEFINITION_FORMATION_WITH_SPECIFIED_SOURCE ( 'ANY', '', #66, .NOT_KNOWN. ) ;
#46 = CC_DESIGN_APPROVAL ( #8, ( #45 ) ) ;
#47 = PRODUCT_RELATED_PRODUCT_CATEGORY ( 'detail', '', ( #66 ) ) ;
#48 = CC_DESIGN_SECURITY_CLASSIFICATION ( #53, ( #45 ) ) ;
#49 = CC_DESIGN_APPROVAL ( #50, ( #53 ) ) ;
#50 = APPROVAL ( #287, 'UNSPECIFIED' ) ;
#51 = CC_DESIGN_DATE_AND_TIME_ASSIGNMENT ( #222, #289, ( #53 ) ) ;
#52 = CC_DESIGN_PERSON_AND_ORGANIZATION_ASSIGNMENT ( #228, #288, ( #53 ) ) ;
#53 = SECURITY_CLASSIFICATION ( '', '', #291 ) ;
#54 = CC_DESIGN_APPROVAL ( #55, ( #56 ) ) ;
#55 = APPROVAL ( #324, 'UNSPECIFIED' ) ;
#56 = PRODUCT_DEFINITION ( 'UNKNOWN', '', #45, #328 ) ;
#57 = CC_DESIGN_PERSON_AND_ORGANIZATION_ASSIGNMENT ( #248, #321, ( #66 ) ) ;
#58 = AXIS2_PLACEMENT_3D ( 'NONE', #307, #310, #319 ) ;
#59 = AXIS2_PLACEMENT_3D ( 'NONE', #326, #306, #292 ) ;
#60 =( GEOMETRIC_REPRESENTATION_CONTEXT ( 3 ) GLOBAL_UNCERTAINTY_ASSIGNED_CONTEXT ( ( #272 ) ) GLOBAL_UNIT_ASSIGNED_CONTEXT ( ( #312, #314, #316 ) ) REPRESENTATION_CONTEXT ( 'NONE', 'WORKASPACE' ) );
#61 = AXIS2_PLACEMENT_3D ( 'NONE', #313, #315, #325 ) ;
#62 = AXIS2_PLACEMENT_3D ( 'NONE', #305, #308, #309 ) ;
#63 = AXIS2_PLACEMENT_3D ( 'NONE', #340, #299, #304 ) ;
#64 = AXIS2_PLACEMENT_3D ( 'NONE', #404, #332, #334 ) ;
#65 = PERSON ( 'UNSPECIFIED', 'UNSPECIFIED', 'UNSPECIFIED', ('UNSPECIFIED'), ('UNSPECIFIED'), ('UNSPECIFIED') ) ;
#66 = PRODUCT ( 'Êðûøêà íà îòâåòâèòåëü Ò-îáðàçíûé âåðòèêàëüíûé TDSR_38408', 'Êðûøêà íà îòâåòâèòåëü Ò-îáðàçíûé âåðòèêàëüíûé TDSR_38408', '', ( #320 ) ) ;
#67 = FACE_BOUND ( 'NONE', #178, .T. ) ;
#68 = FACE_OUTER_BOUND ( 'NONE', #179, .T. ) ;
#69 = FACE_OUTER_BOUND ( 'NONE', #166, .T. ) ;
#70 = FACE_OUTER_BOUND ( 'NONE', #165, .T. ) ;
#71 = FACE_OUTER_BOUND ( 'NONE', #176, .T. ) ;
#72 = FACE_OUTER_BOUND ( 'NONE', #97, .T. ) ;
#73 = CLOSED_SHELL ( 'NONE', ( #276, #278, #274, #275, #281, #273, #283, #284, #282, #279, #280, #277 ) ) ;
#74 = ORIENTED_EDGE ( 'NONE', *, *, #20, .T. ) ;
#75 = ORIENTED_EDGE ( 'NONE', *, *, #31, .T. ) ;
#76 = ORIENTED_EDGE ( 'NONE', *, *, #34, .F. ) ;
#77 = ORIENTED_EDGE ( 'NONE', *, *, #16, .T. ) ;
#78 = ORIENTED_EDGE ( 'NONE', *, *, #40, .T. ) ;
#79 = FACE_BOUND ( 'NONE', #167, .T. ) ;
#80 = ORIENTED_EDGE ( 'NONE', *, *, #27, .F. ) ;
#81 = ORIENTED_EDGE ( 'NONE', *, *, #28, .T. ) ;
#82 = ORIENTED_EDGE ( 'NONE', *, *, #32, .F. ) ;
#83 = ORIENTED_EDGE ( 'NONE', *, *, #40, .F. ) ;
#84 = ORIENTED_EDGE ( 'NONE', *, *, #39, .F. ) ;
#85 = ORIENTED_EDGE ( 'NONE', *, *, #43, .T. ) ;
#86 = ORIENTED_EDGE ( 'NONE', *, *, #44, .F. ) ;
#87 = ORIENTED_EDGE ( 'NONE', *, *, #38, .T. ) ;
#88 = FACE_OUTER_BOUND ( 'NONE', #174, .T. ) ;
#89 = ORIENTED_EDGE ( 'NONE', *, *, #41, .T. ) ;
#90 = ORIENTED_EDGE ( 'NONE', *, *, #35, .T. ) ;
#91 = ORIENTED_EDGE ( 'NONE', *, *, #21, .T. ) ;
#92 = ORIENTED_EDGE ( 'NONE', *, *, #41, .F. ) ;
#93 = ORIENTED_EDGE ( 'NONE', *, *, #25, .T. ) ;
#94 = ORIENTED_EDGE ( 'NONE', *, *, #24, .F. ) ;
#95 = VERTEX_POINT ( 'NONE', #347 ) ;
#96 = EDGE_LOOP ( 'NONE', ( #201, #110, #113, #200, #111, #100, #255, #197 ) ) ;
#97 = EDGE_LOOP ( 'NONE', ( #80, #208, #99, #93 ) ) ;
#98 = ORIENTED_EDGE ( 'NONE', *, *, #37, .F. ) ;
#99 = ORIENTED_EDGE ( 'NONE', *, *, #29, .T. ) ;
#100 = ORIENTED_EDGE ( 'NONE', *, *, #29, .F. ) ;
#101 = ORIENTED_EDGE ( 'NONE', *, *, #35, .F. ) ;
#102 = VERTEX_POINT ( 'NONE', #360 ) ;
#103 = ORIENTED_EDGE ( 'NONE', *, *, #19, .F. ) ;
#104 = VERTEX_POINT ( 'NONE', #303 ) ;
#105 = VERTEX_POINT ( 'NONE', #290 ) ;
#106 = VERTEX_POINT ( 'NONE', #376 ) ;
#107 = ORIENTED_EDGE ( 'NONE', *, *, #34, .T. ) ;
#108 = LINE ( 'NONE', #380, #214 ) ;
#109 = ORIENTED_EDGE ( 'NONE', *, *, #18, .T. ) ;
#110 = ORIENTED_EDGE ( 'NONE', *, *, #43, .F. ) ;
#111 = ORIENTED_EDGE ( 'NONE', *, *, #26, .F. ) ;
#112 = FACE_OUTER_BOUND ( 'NONE', #175, .T. ) ;
#113 = ORIENTED_EDGE ( 'NONE', *, *, #17, .F. ) ;
#114 = ORIENTED_EDGE ( 'NONE', *, *, #31, .F. ) ;
#115 = ORIENTED_EDGE ( 'NONE', *, *, #17, .T. ) ;
#116 = FACE_OUTER_BOUND ( 'NONE', #168, .T. ) ;
#117 = ORIENTED_EDGE ( 'NONE', *, *, #19, .T. ) ;
#118 = ORIENTED_EDGE ( 'NONE', *, *, #22, .F. ) ;
#119 = FACE_OUTER_BOUND ( 'NONE', #96, .T. ) ;
#120 = ORIENTED_EDGE ( 'NONE', *, *, #22, .T. ) ;
#121 = VERTEX_POINT ( 'NONE', #301 ) ;
#122 = VECTOR ( 'NONE', #416, 1000.000000000000000 ) ;
#123 = LINE ( 'NONE', #371, #256 ) ;
#124 = VECTOR ( 'NONE', #387, 1000.000000000000000 ) ;
#125 = CIRCLE ( 'NONE', #13, 2.500000000000002200 ) ;
#126 = VECTOR ( 'NONE', #386, 1000.000000000000000 ) ;
#127 = LINE ( 'NONE', #389, #124 ) ;
#128 = VECTOR ( 'NONE', #377, 1000.000000000000000 ) ;
#129 = CIRCLE ( 'NONE', #11, 2.500000000000002200 ) ;
#130 = LINE ( 'NONE', #368, #128 ) ;
#131 = LINE ( 'NONE', #393, #137 ) ;
#132 = VECTOR ( 'NONE', #388, 1000.000000000000000 ) ;
#133 = ORIENTED_EDGE ( 'NONE', *, *, #26, .T. ) ;
#134 = LINE ( 'NONE', #382, #216 ) ;
#135 = VECTOR ( 'NONE', #383, 1000.000000000000000 ) ;
#136 = LINE ( 'NONE', #385, #135 ) ;
#137 = VECTOR ( 'NONE', #365, 1000.000000000000000 ) ;
#138 = LINE ( 'NONE', #406, #126 ) ;
#139 = VECTOR ( 'NONE', #417, 1000.000000000000000 ) ;
#140 = LINE ( 'NONE', #410, #143 ) ;
#141 = VECTOR ( 'NONE', #372, 1000.000000000000000 ) ;
#142 = LINE ( 'NONE', #408, #139 ) ;
#143 = VECTOR ( 'NONE', #409, 1000.000000000000000 ) ;
#144 = LINE ( 'NONE', #413, #132 ) ;
#145 = VECTOR ( 'NONE', #401, 1000.000000000000000 ) ;
#146 = LINE ( 'NONE', #412, #149 ) ;
#147 = VECTOR ( 'NONE', #394, 1000.000000000000000 ) ;
#148 = LINE ( 'NONE', #411, #122 ) ;
#149 = VECTOR ( 'NONE', #375, 1000.000000000000000 ) ;
#150 = LINE ( 'NONE', #420, #151 ) ;
#151 = VECTOR ( 'NONE', #427, 1000.000000000000000 ) ;
#152 = VECTOR ( 'NONE', #428, 1000.000000000000000 ) ;
#153 = LINE ( 'NONE', #436, #147 ) ;
#154 = LINE ( 'NONE', #430, #141 ) ;
#155 = VECTOR ( 'NONE', #434, 1000.000000000000000 ) ;
#156 = LINE ( 'NONE', #429, #145 ) ;
#157 = LINE ( 'NONE', #419, #159 ) ;
#158 = LINE ( 'NONE', #421, #152 ) ;
#159 = VECTOR ( 'NONE', #437, 1000.000000000000000 ) ;
#160 = CIRCLE ( 'NONE', #14, 2.500000000000002200 ) ;
#161 = VECTOR ( 'NONE', #423, 1000.000000000000000 ) ;
#162 = LINE ( 'NONE', #425, #161 ) ;
#163 = CIRCLE ( 'NONE', #15, 2.500000000000002200 ) ;
#164 = EDGE_LOOP ( 'NONE', ( #264 ) ) ;
#165 = EDGE_LOOP ( 'NONE', ( #212, #118, #263, #89 ) ) ;
#166 = EDGE_LOOP ( 'NONE', ( #83, #92, #115, #211 ) ) ;
#167 = EDGE_LOOP ( 'NONE', ( #269 ) ) ;
#168 = EDGE_LOOP ( 'NONE', ( #94, #265, #133, #120 ) ) ;
#169 = EDGE_LOOP ( 'NONE', ( #266 ) ) ;
#170 = EDGE_LOOP ( 'NONE', ( #74 ) ) ;
#171 = EDGE_LOOP ( 'NONE', ( #261, #101, #198, #195, #193, #91, #78, #117 ) ) ;
#172 = EDGE_LOOP ( 'NONE', ( #76 ) ) ;
#173 = EDGE_LOOP ( 'NONE', ( #109 ) ) ;
#174 = EDGE_LOOP ( 'NONE', ( #107 ) ) ;
#175 = EDGE_LOOP ( 'NONE', ( #268, #114, #82, #81 ) ) ;
#176 = EDGE_LOOP ( 'NONE', ( #87, #84, #98, #77 ) ) ;
#177 = EDGE_LOOP ( 'NONE', ( #90, #260, #196, #75 ) ) ;
#178 = EDGE_LOOP ( 'NONE', ( #259 ) ) ;
#179 = EDGE_LOOP ( 'NONE', ( #103, #86, #85, #191 ) ) ;
#180 = VERTEX_POINT ( 'NONE', #362 ) ;
#181 = VERTEX_POINT ( 'NONE', #359 ) ;
#182 = VERTEX_POINT ( 'NONE', #348 ) ;
#183 = VERTEX_POINT ( 'NONE', #349 ) ;
#184 = VERTEX_POINT ( 'NONE', #353 ) ;
#185 = VERTEX_POINT ( 'NONE', #350 ) ;
#186 = VERTEX_POINT ( 'NONE', #352 ) ;
#187 = VERTEX_POINT ( 'NONE', #358 ) ;
#188 = VERTEX_POINT ( 'NONE', #351 ) ;
#189 = VERTEX_POINT ( 'NONE', #357 ) ;
#190 = VERTEX_POINT ( 'NONE', #418 ) ;
#191 = ORIENTED_EDGE ( 'NONE', *, *, #39, .T. ) ;
#192 = LINE ( 'NONE', #435, #155 ) ;
#193 = ORIENTED_EDGE ( 'NONE', *, *, #24, .T. ) ;
#194 = VERTEX_POINT ( 'NONE', #345 ) ;
#195 = ORIENTED_EDGE ( 'NONE', *, *, #27, .T. ) ;
#196 = ORIENTED_EDGE ( 'NONE', *, *, #36, .F. ) ;
#197 = ORIENTED_EDGE ( 'NONE', *, *, #36, .T. ) ;
#198 = ORIENTED_EDGE ( 'NONE', *, *, #30, .F. ) ;
#199 = APPROVAL_PERSON_ORGANIZATION ( #249, #55, #302 ) ;
#200 = ORIENTED_EDGE ( 'NONE', *, *, #23, .F. ) ;
#201 = ORIENTED_EDGE ( 'NONE', *, *, #37, .T. ) ;
#202 = FACE_OUTER_BOUND ( 'NONE', #169, .T. ) ;
#203 = CYLINDRICAL_SURFACE ( 'NONE', #64, 2.500000000000002200 ) ;
#204 = FACE_BOUND ( 'NONE', #172, .T. ) ;
#205 = VERTEX_POINT ( 'NONE', #296 ) ;
#206 = LINE ( 'NONE', #367, #267 ) ;
#207 = LINE ( 'NONE', #370, #209 ) ;
#208 = ORIENTED_EDGE ( 'NONE', *, *, #28, .F. ) ;
#209 = VECTOR ( 'NONE', #369, 1000.000000000000000 ) ;
#210 = LINE ( 'NONE', #363, #215 ) ;
#211 = ORIENTED_EDGE ( 'NONE', *, *, #44, .T. ) ;
#212 = ORIENTED_EDGE ( 'NONE', *, *, #21, .F. ) ;
#213 = FACE_OUTER_BOUND ( 'NONE', #171, .T. ) ;
#214 = VECTOR ( 'NONE', #374, 1000.000000000000000 ) ;
#215 = VECTOR ( 'NONE', #361, 1000.000000000000000 ) ;
#216 = VECTOR ( 'NONE', #381, 1000.000000000000000 ) ;
#217 = LOCAL_TIME ( 12, 44, 31.00000000000000000, #225 ) ;
#218 = CALENDAR_DATE ( 2012, 9, 11 ) ;
#219 = DATE_AND_TIME ( #218, #217 ) ;
#220 = APPROVAL_DATE_TIME ( #219, #50 ) ;
#221 = CALENDAR_DATE ( 2012, 9, 11 ) ;
#222 = DATE_AND_TIME ( #221, #230 ) ;
#223 = PERSON_AND_ORGANIZATION ( #65, #250 ) ;
#224 = APPROVAL_PERSON_ORGANIZATION ( #223, #50, #300 ) ;
#225 = COORDINATED_UNIVERSAL_TIME_OFFSET ( 4, 0, .AHEAD. ) ;
#226 = PERSON_AND_ORGANIZATION ( #65, #250 ) ;
#227 = PERSON_AND_ORGANIZATION ( #65, #250 ) ;
#228 = PERSON_AND_ORGANIZATION ( #65, #250 ) ;
#229 = COORDINATED_UNIVERSAL_TIME_OFFSET ( 4, 0, .AHEAD. ) ;
#230 = LOCAL_TIME ( 12, 44, 31.00000000000000000, #229 ) ;
#231 = APPROVAL_DATE_TIME ( #232, #8 ) ;
#232 = DATE_AND_TIME ( #233, #234 ) ;
#233 = CALENDAR_DATE ( 2012, 9, 11 ) ;
#234 = LOCAL_TIME ( 12, 44, 31.00000000000000000, #235 ) ;
#235 = COORDINATED_UNIVERSAL_TIME_OFFSET ( 4, 0, .AHEAD. ) ;
#236 = APPROVAL_PERSON_ORGANIZATION ( #237, #8, #285 ) ;
#237 = PERSON_AND_ORGANIZATION ( #65, #250 ) ;
#238 = DATE_AND_TIME ( #239, #240 ) ;
#239 = CALENDAR_DATE ( 2012, 9, 11 ) ;
#240 = LOCAL_TIME ( 12, 44, 31.00000000000000000, #241 ) ;
#241 = COORDINATED_UNIVERSAL_TIME_OFFSET ( 4, 0, .AHEAD. ) ;
#242 = PERSON_AND_ORGANIZATION ( #65, #250 ) ;
#243 = APPROVAL_DATE_TIME ( #244, #55 ) ;
#244 = DATE_AND_TIME ( #245, #246 ) ;
#245 = CALENDAR_DATE ( 2012, 9, 11 ) ;
#246 = LOCAL_TIME ( 12, 44, 31.00000000000000000, #247 ) ;
#247 = COORDINATED_UNIVERSAL_TIME_OFFSET ( 4, 0, .AHEAD. ) ;
#248 = PERSON_AND_ORGANIZATION ( #65, #250 ) ;
#249 = PERSON_AND_ORGANIZATION ( #65, #250 ) ;
#250 = ORGANIZATION ( 'UNSPECIFIED', 'UNSPECIFIED', '' ) ;
#251 = FACE_OUTER_BOUND ( 'NONE', #170, .T. ) ;
#252 = FACE_OUTER_BOUND ( 'NONE', #173, .T. ) ;
#253 = SHAPE_DEFINITION_REPRESENTATION ( #327, #271 ) ;
#254 = CYLINDRICAL_SURFACE ( 'NONE', #4, 2.500000000000002200 ) ;
#255 = ORIENTED_EDGE ( 'NONE', *, *, #32, .T. ) ;
#256 = VECTOR ( 'NONE', #373, 1000.000000000000000 ) ;
#257 = VERTEX_POINT ( 'NONE', #344 ) ;
#258 = FACE_BOUND ( 'NONE', #164, .T. ) ;
#259 = ORIENTED_EDGE ( 'NONE', *, *, #20, .F. ) ;
#260 = ORIENTED_EDGE ( 'NONE', *, *, #16, .F. ) ;
#261 = ORIENTED_EDGE ( 'NONE', *, *, #38, .F. ) ;
#262 = FACE_OUTER_BOUND ( 'NONE', #177, .T. ) ;
#263 = ORIENTED_EDGE ( 'NONE', *, *, #23, .T. ) ;
#264 = ORIENTED_EDGE ( 'NONE', *, *, #18, .F. ) ;
#265 = ORIENTED_EDGE ( 'NONE', *, *, #25, .F. ) ;
#266 = ORIENTED_EDGE ( 'NONE', *, *, #33, .T. ) ;
#267 = VECTOR ( 'NONE', #366, 1000.000000000000000 ) ;
#268 = ORIENTED_EDGE ( 'NONE', *, *, #30, .T. ) ;
#269 = ORIENTED_EDGE ( 'NONE', *, *, #33, .F. ) ;
#270 = MANIFOLD_SOLID_BREP ( 'Âûðåç-Âûòÿíóòü1', #73 ) ;
#271 = ADVANCED_BREP_SHAPE_REPRESENTATION ( '¦¨v°úð ýð þªòõªòøªõû¹ T-þñ¨ð÷ývù òõ¨ªøúðû¹ývù TDSR_38408', ( #270, #58 ), #60 ) ;
#272 = UNCERTAINTY_MEASURE_WITH_UNIT (LENGTH_MEASURE( 1.000000000000000100E-005 ), #312, 'distance_accuracy_value', 'NONE');
#273 = ADVANCED_FACE ( 'NONE', ( #72 ), #354, .T. ) ;
#274 = ADVANCED_FACE ( 'NONE', ( #69 ), #336, .T. ) ;
#275 = ADVANCED_FACE ( 'NONE', ( #258, #67, #70 ), #378, .T. ) ;
#276 = ADVANCED_FACE ( 'NONE', ( #71 ), #337, .F. ) ;
#277 = ADVANCED_FACE ( 'NONE', ( #252, #202 ), #254, .F. ) ;
#278 = ADVANCED_FACE ( 'NONE', ( #68 ), #395, .T. ) ;
#279 = ADVANCED_FACE ( 'NONE', ( #213 ), #333, .T. ) ;
#280 = ADVANCED_FACE ( 'NONE', ( #251, #88 ), #203, .F. ) ;
#281 = ADVANCED_FACE ( 'NONE', ( #116 ), #343, .T. ) ;
#282 = ADVANCED_FACE ( 'NONE', ( #119 ), #341, .F. ) ;
#283 = ADVANCED_FACE ( 'NONE', ( #112 ), #311, .F. ) ;
#284 = ADVANCED_FACE ( 'NONE', ( #79, #204, #262 ), #286, .F. ) ;
#285 = APPROVAL_ROLE ( '' ) ;
#286 = PLANE ( 'NONE',  #59 ) ;
#287 = APPROVAL_STATUS ( 'not_yet_approved' ) ;
#288 = PERSON_AND_ORGANIZATION_ROLE ( 'classification_officer' ) ;
#289 = DATE_TIME_ROLE ( 'classification_date' ) ;
#290 = CARTESIAN_POINT ( 'NONE',  ( 1.734723475976807100E-015, 0.0000000000000000000, 17.49999999999999600 ) ) ;
#291 = SECURITY_CLASSIFICATION_LEVEL ( 'unclassified' ) ;
#292 = DIRECTION ( 'NONE',  ( 0.0000000000000000000, -0.0000000000000000000, 1.000000000000000000 ) ) ;
#293 = PERSON_AND_ORGANIZATION_ROLE ( 'design_supplier' ) ;
#294 = PERSON_AND_ORGANIZATION_ROLE ( 'creator' ) ;
#295 = APPROVAL_STATUS ( 'not_yet_approved' ) ;
#296 = CARTESIAN_POINT ( 'NONE',  ( 1.734723475976807100E-015, 0.5999999999999999800, 17.49999999999999600 ) ) ;
#297 = DATE_TIME_ROLE ( 'creation_date' ) ;
#298 = PERSON_AND_ORGANIZATION_ROLE ( 'creator' ) ;
#299 = DIRECTION ( 'NONE',  ( -1.000000000000000000, 0.0000000000000000000, 0.0000000000000000000 ) ) ;
#300 = APPROVAL_ROLE ( '' ) ;
#301 = CARTESIAN_POINT ( 'NONE',  ( 0.0000000000000000000, 0.5999999999999999800, 442.5000000000000600 ) ) ;
#302 = APPROVAL_ROLE ( '' ) ;
#303 = CARTESIAN_POINT ( 'NONE',  ( 0.0000000000000000000, 0.0000000000000000000, 447.5000000000000600 ) ) ;
#304 = DIRECTION ( 'NONE',  ( 0.0000000000000000000, 0.0000000000000000000, 1.000000000000000000 ) ) ;
#305 = CARTESIAN_POINT ( 'NONE',  ( 0.0000000000000000000, 0.0000000000000000000, 460.0000000000000000 ) ) ;
#306 = DIRECTION ( 'NONE',  ( 0.0000000000000000000, 1.000000000000000000, 0.0000000000000000000 ) ) ;
#307 = CARTESIAN_POINT ( 'NONE',  ( 0.0000000000000000000, 0.0000000000000000000, 0.0000000000000000000 ) ) ;
#308 = DIRECTION ( 'NONE',  ( -0.0000000000000000000, 0.0000000000000000000, -1.000000000000000000 ) ) ;
#309 = DIRECTION ( 'NONE',  ( -1.000000000000000000, 0.0000000000000000000, 0.0000000000000000000 ) ) ;
#310 = DIRECTION ( 'NONE',  ( 0.0000000000000000000, 0.0000000000000000000, 1.000000000000000000 ) ) ;
#311 = PLANE ( 'NONE',  #61 ) ;
#312 =( LENGTH_UNIT ( ) NAMED_UNIT ( * ) SI_UNIT ( .MILLI., .METRE. ) );
#313 = CARTESIAN_POINT ( 'NONE',  ( -201.0000000000000000, 0.0000000000000000000, 460.0000000000000000 ) ) ;
#314 =( NAMED_UNIT ( * ) PLANE_ANGLE_UNIT ( ) SI_UNIT ( $, .RADIAN. ) );
#315 = DIRECTION ( 'NONE',  ( -1.000000000000000000, 0.0000000000000000000, 0.0000000000000000000 ) ) ;
#316 =( NAMED_UNIT ( * ) SI_UNIT ( $, .STERADIAN. ) SOLID_ANGLE_UNIT ( ) );
#317 = APPLICATION_CONTEXT ( 'configuration controlled 3d designs of mechanical parts and assemblies' ) ;
#318 = APPLICATION_PROTOCOL_DEFINITION ( 'international standard', 'config_control_design', 1994, #317 ) ;
#319 = DIRECTION ( 'NONE',  ( 1.000000000000000000, 0.0000000000000000000, 0.0000000000000000000 ) ) ;
#320 = MECHANICAL_CONTEXT ( 'NONE', #317, 'mechanical' ) ;
#321 = PERSON_AND_ORGANIZATION_ROLE ( 'design_owner' ) ;
#322 = APPLICATION_CONTEXT ( 'configuration controlled 3d designs of mechanical parts and assemblies' ) ;
#323 = APPLICATION_PROTOCOL_DEFINITION ( 'international standard', 'config_control_design', 1994, #322 ) ;
#324 = APPROVAL_STATUS ( 'not_yet_approved' ) ;
#325 = DIRECTION ( 'NONE',  ( 0.0000000000000000000, 0.0000000000000000000, 1.000000000000000000 ) ) ;
#326 = CARTESIAN_POINT ( 'NONE',  ( -201.0000000000000000, 0.0000000000000000000, 460.0000000000000000 ) ) ;
#327 = PRODUCT_DEFINITION_SHAPE ( 'NONE', 'NONE',  #56 ) ;
#328 = DESIGN_CONTEXT ( 'detailed design', #322, 'design' ) ;
#329 = DIRECTION ( 'NONE',  ( 0.0000000000000000000, -0.0000000000000000000, -1.000000000000000000 ) ) ;
#330 = DIRECTION ( 'NONE',  ( 0.0000000000000000000, -1.000000000000000000, 0.0000000000000000000 ) ) ;
#331 = DIRECTION ( 'NONE',  ( -0.0000000000000000000, 0.0000000000000000000, -1.000000000000000000 ) ) ;
#332 = DIRECTION ( 'NONE',  ( -0.0000000000000000000, 1.000000000000000000, -0.0000000000000000000 ) ) ;
#333 = PLANE ( 'NONE',  #42 ) ;
#334 = DIRECTION ( 'NONE',  ( 0.0000000000000000000, 0.0000000000000000000, 1.000000000000000000 ) ) ;
#335 = CARTESIAN_POINT ( 'NONE',  ( 0.0000000000000000000, 0.0000000000000000000, 0.0000000000000000000 ) ) ;
#336 = PLANE ( 'NONE',  #7 ) ;
#337 = PLANE ( 'NONE',  #5 ) ;
#338 = DIRECTION ( 'NONE',  ( -0.0000000000000000000, 1.000000000000000000, -0.0000000000000000000 ) ) ;
#339 = DIRECTION ( 'NONE',  ( 1.000000000000000000, 0.0000000000000000000, -0.0000000000000000000 ) ) ;
#340 = CARTESIAN_POINT ( 'NONE',  ( -201.5999999999999900, 0.0000000000000000000, 460.0000000000000000 ) ) ;
#341 = PLANE ( 'NONE',  #62 ) ;
#342 = CARTESIAN_POINT ( 'NONE',  ( 201.5999999999999900, 0.0000000000000000000, 460.0000000000000000 ) ) ;
#343 = PLANE ( 'NONE',  #63 ) ;
#344 = CARTESIAN_POINT ( 'NONE',  ( 201.0000000000000000, 0.0000000000000000000, 0.0000000000000000000 ) ) ;
#345 = CARTESIAN_POINT ( 'NONE',  ( 201.5999999999999900, -14.00000000000000000, 460.0000000000000000 ) ) ;
#346 = DIRECTION ( 'NONE',  ( 0.0000000000000000000, -1.000000000000000000, 0.0000000000000000000 ) ) ;
#347 = CARTESIAN_POINT ( 'NONE',  ( 201.0000000000000000, 0.0000000000000000000, 460.0000000000000000 ) ) ;
#348 = CARTESIAN_POINT ( 'NONE',  ( 201.0000000000000000, -14.00000000000000000, 0.0000000000000000000 ) ) ;
#349 = CARTESIAN_POINT ( 'NONE',  ( 201.5999999999999900, 0.5999999999999999800, 460.0000000000000000 ) ) ;
#350 = CARTESIAN_POINT ( 'NONE',  ( 201.0000000000000000, -14.00000000000000000, 460.0000000000000000 ) ) ;
#351 = CARTESIAN_POINT ( 'NONE',  ( -201.0000000000000000, -14.00000000000000000, 0.0000000000000000000 ) ) ;
#352 = CARTESIAN_POINT ( 'NONE',  ( -201.5999999999999900, 0.5999999999999999800, 460.0000000000000000 ) ) ;
#353 = CARTESIAN_POINT ( 'NONE',  ( -201.5999999999999900, 0.5999999999999999800, 0.0000000000000000000 ) ) ;
#354 = PLANE ( 'NONE',  #10 ) ;
#355 = DIRECTION ( 'NONE',  ( 0.0000000000000000000, -0.0000000000000000000, -1.000000000000000000 ) ) ;
#356 = CARTESIAN_POINT ( 'NONE',  ( -201.0000000000000000, -14.00000000000000000, 460.0000000000000000 ) ) ;
#357 = CARTESIAN_POINT ( 'NONE',  ( -201.5999999999999900, -14.00000000000000000, 460.0000000000000000 ) ) ;
#358 = CARTESIAN_POINT ( 'NONE',  ( -201.0000000000000000, -14.00000000000000000, 460.0000000000000000 ) ) ;
#359 = CARTESIAN_POINT ( 'NONE',  ( -201.0000000000000000, 0.0000000000000000000, 0.0000000000000000000 ) ) ;
#360 = CARTESIAN_POINT ( 'NONE',  ( 201.5999999999999900, 0.5999999999999999800, 0.0000000000000000000 ) ) ;
#361 = DIRECTION ( 'NONE',  ( -0.0000000000000000000, -0.0000000000000000000, -1.000000000000000000 ) ) ;
#362 = CARTESIAN_POINT ( 'NONE',  ( 201.5999999999999900, -14.00000000000000000, 0.0000000000000000000 ) ) ;
#363 = CARTESIAN_POINT ( 'NONE',  ( 201.5999999999999900, -14.00000000000000000, 460.0000000000000000 ) ) ;
#364 = CARTESIAN_POINT ( 'NONE',  ( 0.0000000000000000000, 0.0000000000000000000, 445.0000000000000600 ) ) ;
#365 = DIRECTION ( 'NONE',  ( 1.000000000000000000, 0.0000000000000000000, 0.0000000000000000000 ) ) ;
#366 = DIRECTION ( 'NONE',  ( -1.000000000000000000, 0.0000000000000000000, 0.0000000000000000000 ) ) ;
#367 = CARTESIAN_POINT ( 'NONE',  ( 201.5999999999999900, -14.00000000000000000, 460.0000000000000000 ) ) ;
#368 = CARTESIAN_POINT ( 'NONE',  ( -201.0000000000000000, 0.0000000000000000000, 460.0000000000000000 ) ) ;
#369 = DIRECTION ( 'NONE',  ( -0.0000000000000000000, -0.0000000000000000000, -1.000000000000000000 ) ) ;
#370 = CARTESIAN_POINT ( 'NONE',  ( 201.5999999999999900, 0.5999999999999999800, 460.0000000000000000 ) ) ;
#371 = CARTESIAN_POINT ( 'NONE',  ( 201.5999999999999900, 0.0000000000000000000, 0.0000000000000000000 ) ) ;
#372 = DIRECTION ( 'NONE',  ( 0.0000000000000000000, 1.000000000000000000, 0.0000000000000000000 ) ) ;
#373 = DIRECTION ( 'NONE',  ( -0.0000000000000000000, -1.000000000000000000, 0.0000000000000000000 ) ) ;
#374 = DIRECTION ( 'NONE',  ( -0.0000000000000000000, -0.0000000000000000000, -1.000000000000000000 ) ) ;
#375 = DIRECTION ( 'NONE',  ( -0.0000000000000000000, -0.0000000000000000000, -1.000000000000000000 ) ) ;
#376 = CARTESIAN_POINT ( 'NONE',  ( -201.0000000000000000, 0.0000000000000000000, 460.0000000000000000 ) ) ;
#377 = DIRECTION ( 'NONE',  ( 1.000000000000000000, 0.0000000000000000000, 0.0000000000000000000 ) ) ;
#378 = PLANE ( 'NONE',  #6 ) ;
#379 = CARTESIAN_POINT ( 'NONE',  ( 201.0000000000000000, 0.0000000000000000000, 460.0000000000000000 ) ) ;
#380 = CARTESIAN_POINT ( 'NONE',  ( 201.0000000000000000, -14.00000000000000000, 460.0000000000000000 ) ) ;
#381 = DIRECTION ( 'NONE',  ( 0.0000000000000000000, -1.000000000000000000, 0.0000000000000000000 ) ) ;
#382 = CARTESIAN_POINT ( 'NONE',  ( 201.0000000000000000, 0.0000000000000000000, 0.0000000000000000000 ) ) ;
#383 = DIRECTION ( 'NONE',  ( 0.0000000000000000000, -1.000000000000000000, 0.0000000000000000000 ) ) ;
#384 = DIRECTION ( 'NONE',  ( 0.0000000000000000000, -0.0000000000000000000, 1.000000000000000000 ) ) ;
#385 = CARTESIAN_POINT ( 'NONE',  ( 201.0000000000000000, 0.0000000000000000000, 460.0000000000000000 ) ) ;
#386 = DIRECTION ( 'NONE',  ( -0.0000000000000000000, 1.000000000000000000, -0.0000000000000000000 ) ) ;
#387 = DIRECTION ( 'NONE',  ( -0.0000000000000000000, -0.0000000000000000000, -1.000000000000000000 ) ) ;
#388 = DIRECTION ( 'NONE',  ( -0.0000000000000000000, 1.000000000000000000, -0.0000000000000000000 ) ) ;
#389 = CARTESIAN_POINT ( 'NONE',  ( -201.0000000000000000, 0.0000000000000000000, 460.0000000000000000 ) ) ;
#390 = DIRECTION ( 'NONE',  ( 0.0000000000000000000, 0.0000000000000000000, 1.000000000000000000 ) ) ;
#391 = DIRECTION ( 'NONE',  ( -0.0000000000000000000, -1.000000000000000000, -0.0000000000000000000 ) ) ;
#392 = CARTESIAN_POINT ( 'NONE',  ( 1.734723475976807100E-015, 0.0000000000000000000, 14.99999999999999300 ) ) ;
#393 = CARTESIAN_POINT ( 'NONE',  ( -201.0000000000000000, 0.0000000000000000000, 0.0000000000000000000 ) ) ;
#394 = DIRECTION ( 'NONE',  ( 0.0000000000000000000, 1.000000000000000000, 0.0000000000000000000 ) ) ;
#395 = PLANE ( 'NONE',  #3 ) ;
#396 = CARTESIAN_POINT ( 'NONE',  ( 201.5999999999999900, -14.00000000000000000, 460.0000000000000000 ) ) ;
#397 = DIRECTION ( 'NONE',  ( 0.0000000000000000000, 0.0000000000000000000, 1.000000000000000000 ) ) ;
#398 = CARTESIAN_POINT ( 'NONE',  ( 0.0000000000000000000, -14.00099999999999900, 445.0000000000000600 ) ) ;
#399 = DIRECTION ( 'NONE',  ( -0.0000000000000000000, -1.000000000000000000, -0.0000000000000000000 ) ) ;
#400 = DIRECTION ( 'NONE',  ( -0.0000000000000000000, 0.0000000000000000000, -1.000000000000000000 ) ) ;
#401 = DIRECTION ( 'NONE',  ( 1.000000000000000000, 0.0000000000000000000, 0.0000000000000000000 ) ) ;
#402 = DIRECTION ( 'NONE',  ( -0.0000000000000000000, 0.0000000000000000000, -1.000000000000000000 ) ) ;
#403 = DIRECTION ( 'NONE',  ( 1.000000000000000000, 0.0000000000000000000, -0.0000000000000000000 ) ) ;
#404 = CARTESIAN_POINT ( 'NONE',  ( 1.734723475976807100E-015, -14.00099999999999900, 14.99999999999999300 ) ) ;
#405 = DIRECTION ( 'NONE',  ( -1.000000000000000000, 0.0000000000000000000, 0.0000000000000000000 ) ) ;
#406 = CARTESIAN_POINT ( 'NONE',  ( -201.0000000000000000, 0.0000000000000000000, 0.0000000000000000000 ) ) ;
#407 = DIRECTION ( 'NONE',  ( 0.0000000000000000000, 0.0000000000000000000, 1.000000000000000000 ) ) ;
#408 = CARTESIAN_POINT ( 'NONE',  ( -201.0000000000000000, -14.00000000000000000, 460.0000000000000000 ) ) ;
#409 = DIRECTION ( 'NONE',  ( -1.000000000000000000, 0.0000000000000000000, 0.0000000000000000000 ) ) ;
#410 = CARTESIAN_POINT ( 'NONE',  ( -201.0000000000000000, -14.00000000000000000, 0.0000000000000000000 ) ) ;
#411 = CARTESIAN_POINT ( 'NONE',  ( -201.0000000000000000, -14.00000000000000000, 460.0000000000000000 ) ) ;
#412 = CARTESIAN_POINT ( 'NONE',  ( -201.5999999999999900, -14.00000000000000000, 460.0000000000000000 ) ) ;
#413 = CARTESIAN_POINT ( 'NONE',  ( -201.0000000000000000, 0.0000000000000000000, 460.0000000000000000 ) ) ;
#414 = CARTESIAN_POINT ( 'NONE',  ( -201.0000000000000000, 0.5999999999999999800, 460.0000000000000000 ) ) ;
#415 = DIRECTION ( 'NONE',  ( 0.0000000000000000000, 1.000000000000000000, 0.0000000000000000000 ) ) ;
#416 = DIRECTION ( 'NONE',  ( -1.000000000000000000, 0.0000000000000000000, 0.0000000000000000000 ) ) ;
#417 = DIRECTION ( 'NONE',  ( -0.0000000000000000000, -0.0000000000000000000, -1.000000000000000000 ) ) ;
#418 = CARTESIAN_POINT ( 'NONE',  ( -201.5999999999999900, -14.00000000000000000, 0.0000000000000000000 ) ) ;
#419 = CARTESIAN_POINT ( 'NONE',  ( 201.5999999999999900, -14.00000000000000000, 0.0000000000000000000 ) ) ;
#420 = CARTESIAN_POINT ( 'NONE',  ( -201.5999999999999900, 0.5999999999999999800, 460.0000000000000000 ) ) ;
#421 = CARTESIAN_POINT ( 'NONE',  ( -201.0000000000000000, 0.5999999999999999800, 0.0000000000000000000 ) ) ;
#422 = DIRECTION ( 'NONE',  ( 0.0000000000000000000, 0.0000000000000000000, -1.000000000000000000 ) ) ;
#423 = DIRECTION ( 'NONE',  ( -0.0000000000000000000, -0.0000000000000000000, -1.000000000000000000 ) ) ;
#424 = DIRECTION ( 'NONE',  ( -0.0000000000000000000, 1.000000000000000000, -0.0000000000000000000 ) ) ;
#425 = CARTESIAN_POINT ( 'NONE',  ( 201.0000000000000000, 0.0000000000000000000, 460.0000000000000000 ) ) ;
#426 = CARTESIAN_POINT ( 'NONE',  ( 0.0000000000000000000, 0.5999999999999999800, 445.0000000000000600 ) ) ;
#427 = DIRECTION ( 'NONE',  ( -0.0000000000000000000, -0.0000000000000000000, -1.000000000000000000 ) ) ;
#428 = DIRECTION ( 'NONE',  ( 1.000000000000000000, 0.0000000000000000000, 0.0000000000000000000 ) ) ;
#429 = CARTESIAN_POINT ( 'NONE',  ( -201.0000000000000000, 0.5999999999999999800, 460.0000000000000000 ) ) ;
#430 = CARTESIAN_POINT ( 'NONE',  ( -201.5999999999999900, 0.0000000000000000000, 460.0000000000000000 ) ) ;
#431 = DIRECTION ( 'NONE',  ( 0.0000000000000000000, 1.000000000000000000, 0.0000000000000000000 ) ) ;
#432 = CARTESIAN_POINT ( 'NONE',  ( 1.734723475976807100E-015, 0.5999999999999999800, 14.99999999999999300 ) ) ;
#433 = DIRECTION ( 'NONE',  ( 0.0000000000000000000, 0.0000000000000000000, 1.000000000000000000 ) ) ;
#434 = DIRECTION ( 'NONE',  ( -0.0000000000000000000, -1.000000000000000000, 0.0000000000000000000 ) ) ;
#435 = CARTESIAN_POINT ( 'NONE',  ( 201.5999999999999900, 0.0000000000000000000, 460.0000000000000000 ) ) ;
#436 = CARTESIAN_POINT ( 'NONE',  ( -201.5999999999999900, 0.0000000000000000000, 0.0000000000000000000 ) ) ;
#437 = DIRECTION ( 'NONE',  ( -1.000000000000000000, 0.0000000000000000000, 0.0000000000000000000 ) ) ;
ENDSEC;
END-ISO-10303-21;
