ISO-10303-21;
HEADER;
FILE_DESCRIPTION(('OneSpaceDesigner STEP Export'),'2;1');
FILE_NAME('CBD.50-PT.stp','2008-07-03T15:58:42',(''),(''),
'OneSpace Designer STEP processor for AP214 (Solid Model)',
'OneSpace Modeling 15.50  10-Aug-2007 (C) CoCreate Software GmbH','');
FILE_SCHEMA(('AUTOMOTIVE_DESIGN { 1 0 10303 214 1 1 1 1 }'));
ENDSEC;
DATA;
#10=CARTESIAN_POINT('',(13.737274,39.907324,0.));
#20=DIRECTION('',(0.,0.,1.));
#30=DIRECTION('',(1.,0.,0.));
#40=AXIS2_PLACEMENT_3D('',#10,#20,#30);
#50=PLANE('',#40);
#60=CARTESIAN_POINT('',(26.9999999999985,1.50000000000128,0.));
#70=DIRECTION('',(-0.,0.,1.));
#80=DIRECTION('',(1.,0.,0.));
#90=AXIS2_PLACEMENT_3D('',#60,#70,#80);
#100=CIRCLE('',#90,1.5);
#110=CARTESIAN_POINT('',(26.9999999999985,1.27897692436818E-12,0.));
#120=VERTEX_POINT('',#110);
#130=CARTESIAN_POINT('',(28.4999999999985,1.50000000000128,0.));
#140=VERTEX_POINT('',#130);
#150=EDGE_CURVE('',#120,#140,#100,.T.);
#160=ORIENTED_EDGE('',*,*,#150,.F.);
#170=CARTESIAN_POINT('',(28.4999999999985,39.907324,0.));
#180=DIRECTION('',(2.77555756156289E-17,1.,0.));
#190=VECTOR('',#180,1.);
#200=LINE('',#170,#190);
#210=CARTESIAN_POINT('',(28.4999999999985,36.90995894132,0.));
#220=VERTEX_POINT('',#210);
#230=EDGE_CURVE('',#140,#220,#200,.T.);
#240=ORIENTED_EDGE('',*,*,#230,.F.);
#250=CARTESIAN_POINT('',(26.4999999999985,36.90995894132,0.));
#260=DIRECTION('',(-0.,0.,1.));
#270=DIRECTION('',(1.,0.,0.));
#280=AXIS2_PLACEMENT_3D('',#250,#260,#270);
#290=CIRCLE('',#280,2.);
#300=CARTESIAN_POINT('',(28.3793852415703,37.5939992279713,0.));
#310=VERTEX_POINT('',#300);
#320=EDGE_CURVE('',#220,#310,#290,.T.);
#330=ORIENTED_EDGE('',*,*,#320,.F.);
#340=CARTESIAN_POINT('',(27.5374038823612,39.907324,0.));
#350=DIRECTION('',(0.342020143325694,-0.939692620785899,-0.));
#360=VECTOR('',#350,1.);
#370=LINE('',#340,#360);
#380=CARTESIAN_POINT('',(23.7394850825775,50.342020143327,0.));
#390=VERTEX_POINT('',#380);
#400=EDGE_CURVE('',#390,#310,#370,.T.);
#410=ORIENTED_EDGE('',*,*,#400,.T.);
#420=CARTESIAN_POINT('',(22.7997924617916,50.0000000000013,0.));
#430=DIRECTION('',(0.,0.,-1.));
#440=DIRECTION('',(-1.,0.,-0.));
#450=AXIS2_PLACEMENT_3D('',#420,#430,#440);
#460=CIRCLE('',#450,1.);
#470=CARTESIAN_POINT('',(22.7997924617916,51.0000000000013,0.));
#480=VERTEX_POINT('',#470);
#490=EDGE_CURVE('',#480,#390,#460,.T.);
#500=ORIENTED_EDGE('',*,*,#490,.T.);
#510=CARTESIAN_POINT('',(13.737274,51.0000000000013,0.));
#520=DIRECTION('',(-1.,2.77555756156289E-17,0.));
#530=VECTOR('',#520,1.);
#540=LINE('',#510,#530);
#550=CARTESIAN_POINT('',(-22.7997924617943,51.0000000000013,0.));
#560=VERTEX_POINT('',#550);
#570=EDGE_CURVE('',#480,#560,#540,.T.);
#580=ORIENTED_EDGE('',*,*,#570,.F.);
#590=CARTESIAN_POINT('',(-22.7997924617943,50.0000000000013,0.));
#600=DIRECTION('',(0.,0.,-1.));
#610=DIRECTION('',(-1.,0.,-0.));
#620=AXIS2_PLACEMENT_3D('',#590,#600,#610);
#630=CIRCLE('',#620,1.);
#640=CARTESIAN_POINT('',(-23.7394850825802,50.342020143327,0.));
#650=VERTEX_POINT('',#640);
#660=EDGE_CURVE('',#650,#560,#630,.T.);
#670=ORIENTED_EDGE('',*,*,#660,.T.);
#680=CARTESIAN_POINT('',(-27.5374038823639,39.907324,0.));
#690=DIRECTION('',(-0.342020143325694,-0.939692620785899,-0.));
#700=VECTOR('',#690,1.);
#710=LINE('',#680,#700);
#720=CARTESIAN_POINT('',(-28.3793852415731,37.5939992279713,0.));
#730=VERTEX_POINT('',#720);
#740=EDGE_CURVE('',#650,#730,#710,.T.);
#750=ORIENTED_EDGE('',*,*,#740,.F.);
#760=CARTESIAN_POINT('',(-26.5000000000015,36.90995894132,0.));
#770=DIRECTION('',(0.,0.,-1.));
#780=DIRECTION('',(-1.,0.,-0.));
#790=AXIS2_PLACEMENT_3D('',#760,#770,#780);
#800=CIRCLE('',#790,1.99999999999977);
#810=CARTESIAN_POINT('',(-28.5000000000012,36.90995894132,0.));
#820=VERTEX_POINT('',#810);
#830=EDGE_CURVE('',#820,#730,#800,.T.);
#840=ORIENTED_EDGE('',*,*,#830,.T.);
#850=CARTESIAN_POINT('',(-28.5000000000013,39.907324,0.));
#860=DIRECTION('',(2.77555756156289E-17,1.,0.));
#870=VECTOR('',#860,1.);
#880=LINE('',#850,#870);
#890=CARTESIAN_POINT('',(-28.5000000000013,1.50000000000128,0.));
#900=VERTEX_POINT('',#890);
#910=EDGE_CURVE('',#900,#820,#880,.T.);
#920=ORIENTED_EDGE('',*,*,#910,.T.);
#930=CARTESIAN_POINT('',(-27.0000000000013,1.50000000000128,0.));
#940=DIRECTION('',(-0.,0.,1.));
#950=DIRECTION('',(1.,0.,0.));
#960=AXIS2_PLACEMENT_3D('',#930,#940,#950);
#970=CIRCLE('',#960,1.5);
#980=CARTESIAN_POINT('',(-27.0000000000013,1.27897692436818E-12,0.));
#990=VERTEX_POINT('',#980);
#1000=EDGE_CURVE('',#900,#990,#970,.T.);
#1010=ORIENTED_EDGE('',*,*,#1000,.F.);
#1020=CARTESIAN_POINT('',(13.737274,1.27897692436818E-12,0.));
#1030=DIRECTION('',(-1.,2.77555756156289E-17,0.));
#1040=VECTOR('',#1030,1.);
#1050=LINE('',#1020,#1040);
#1060=EDGE_CURVE('',#120,#990,#1050,.T.);
#1070=ORIENTED_EDGE('',*,*,#1060,.T.);
#1080=EDGE_LOOP('',(#1070,#1010,#920,#840,#750,#670,#580,#500,#410,#330,
#240,#160));
#1090=FACE_OUTER_BOUND('',#1080,.T.);
#1100=ADVANCED_FACE('',(#1090),#50,.F.);
#1110=CARTESIAN_POINT('',(13.737274,39.907324,1.5));
#1120=DIRECTION('',(0.,0.,1.));
#1130=DIRECTION('',(1.,0.,0.));
#1140=AXIS2_PLACEMENT_3D('',#1110,#1120,#1130);
#1150=PLANE('',#1140);
#1160=CARTESIAN_POINT('',(-27.0000000000013,1.50000000000128,1.5));
#1170=DIRECTION('',(-0.,0.,1.));
#1180=DIRECTION('',(1.,0.,0.));
#1190=AXIS2_PLACEMENT_3D('',#1160,#1170,#1180);
#1200=CIRCLE('',#1190,1.5);
#1210=CARTESIAN_POINT('',(-28.5000000000013,1.50000000000128,1.5));
#1220=VERTEX_POINT('',#1210);
#1230=CARTESIAN_POINT('',(-27.0000000000013,1.27897692436818E-12,1.5));
#1240=VERTEX_POINT('',#1230);
#1250=EDGE_CURVE('',#1220,#1240,#1200,.T.);
#1260=ORIENTED_EDGE('',*,*,#1250,.T.);
#1270=CARTESIAN_POINT('',(-28.5000000000013,39.907324,1.5));
#1280=DIRECTION('',(2.77555756156289E-17,1.,0.));
#1290=VECTOR('',#1280,1.);
#1300=LINE('',#1270,#1290);
#1310=CARTESIAN_POINT('',(-28.5000000000012,36.90995894132,1.5));
#1320=VERTEX_POINT('',#1310);
#1330=EDGE_CURVE('',#1220,#1320,#1300,.T.);
#1340=ORIENTED_EDGE('',*,*,#1330,.F.);
#1350=CARTESIAN_POINT('',(-26.5000000000015,36.90995894132,1.5));
#1360=DIRECTION('',(0.,0.,-1.));
#1370=DIRECTION('',(-1.,0.,-0.));
#1380=AXIS2_PLACEMENT_3D('',#1350,#1360,#1370);
#1390=CIRCLE('',#1380,1.99999999999977);
#1400=CARTESIAN_POINT('',(-28.3793852415731,37.5939992279713,1.5));
#1410=VERTEX_POINT('',#1400);
#1420=EDGE_CURVE('',#1320,#1410,#1390,.T.);
#1430=ORIENTED_EDGE('',*,*,#1420,.F.);
#1440=CARTESIAN_POINT('',(-27.5374038823639,39.907324,1.5));
#1450=DIRECTION('',(-0.342020143325694,-0.939692620785899,-0.));
#1460=VECTOR('',#1450,1.);
#1470=LINE('',#1440,#1460);
#1480=CARTESIAN_POINT('',(-23.7394850825802,50.342020143327,1.5));
#1490=VERTEX_POINT('',#1480);
#1500=EDGE_CURVE('',#1490,#1410,#1470,.T.);
#1510=ORIENTED_EDGE('',*,*,#1500,.T.);
#1520=CARTESIAN_POINT('',(-22.7997924617943,50.0000000000013,1.5));
#1530=DIRECTION('',(0.,0.,-1.));
#1540=DIRECTION('',(-1.,0.,-0.));
#1550=AXIS2_PLACEMENT_3D('',#1520,#1530,#1540);
#1560=CIRCLE('',#1550,1.);
#1570=CARTESIAN_POINT('',(-22.7997924617943,51.0000000000013,1.5));
#1580=VERTEX_POINT('',#1570);
#1590=EDGE_CURVE('',#1490,#1580,#1560,.T.);
#1600=ORIENTED_EDGE('',*,*,#1590,.F.);
#1610=CARTESIAN_POINT('',(13.737274,51.0000000000013,1.5));
#1620=DIRECTION('',(-1.,2.77555756156289E-17,0.));
#1630=VECTOR('',#1620,1.);
#1640=LINE('',#1610,#1630);
#1650=CARTESIAN_POINT('',(22.7997924617916,51.0000000000013,1.5));
#1660=VERTEX_POINT('',#1650);
#1670=EDGE_CURVE('',#1660,#1580,#1640,.T.);
#1680=ORIENTED_EDGE('',*,*,#1670,.T.);
#1690=CARTESIAN_POINT('',(22.7997924617916,50.0000000000013,1.5));
#1700=DIRECTION('',(0.,0.,-1.));
#1710=DIRECTION('',(-1.,0.,-0.));
#1720=AXIS2_PLACEMENT_3D('',#1690,#1700,#1710);
#1730=CIRCLE('',#1720,1.);
#1740=CARTESIAN_POINT('',(23.7394850825775,50.342020143327,1.5));
#1750=VERTEX_POINT('',#1740);
#1760=EDGE_CURVE('',#1660,#1750,#1730,.T.);
#1770=ORIENTED_EDGE('',*,*,#1760,.F.);
#1780=CARTESIAN_POINT('',(27.5374038823612,39.907324,1.5));
#1790=DIRECTION('',(0.342020143325694,-0.939692620785899,-0.));
#1800=VECTOR('',#1790,1.);
#1810=LINE('',#1780,#1800);
#1820=CARTESIAN_POINT('',(28.3793852415703,37.5939992279713,1.5));
#1830=VERTEX_POINT('',#1820);
#1840=EDGE_CURVE('',#1750,#1830,#1810,.T.);
#1850=ORIENTED_EDGE('',*,*,#1840,.F.);
#1860=CARTESIAN_POINT('',(26.4999999999985,36.90995894132,1.5));
#1870=DIRECTION('',(-0.,0.,1.));
#1880=DIRECTION('',(1.,0.,0.));
#1890=AXIS2_PLACEMENT_3D('',#1860,#1870,#1880);
#1900=CIRCLE('',#1890,2.);
#1910=CARTESIAN_POINT('',(28.4999999999985,36.90995894132,1.5));
#1920=VERTEX_POINT('',#1910);
#1930=EDGE_CURVE('',#1920,#1830,#1900,.T.);
#1940=ORIENTED_EDGE('',*,*,#1930,.T.);
#1950=CARTESIAN_POINT('',(28.4999999999985,39.907324,1.5));
#1960=DIRECTION('',(2.77555756156289E-17,1.,0.));
#1970=VECTOR('',#1960,1.);
#1980=LINE('',#1950,#1970);
#1990=CARTESIAN_POINT('',(28.4999999999985,1.50000000000128,1.5));
#2000=VERTEX_POINT('',#1990);
#2010=EDGE_CURVE('',#2000,#1920,#1980,.T.);
#2020=ORIENTED_EDGE('',*,*,#2010,.T.);
#2030=CARTESIAN_POINT('',(26.9999999999985,1.50000000000128,1.5));
#2040=DIRECTION('',(-0.,0.,1.));
#2050=DIRECTION('',(1.,0.,0.));
#2060=AXIS2_PLACEMENT_3D('',#2030,#2040,#2050);
#2070=CIRCLE('',#2060,1.5);
#2080=CARTESIAN_POINT('',(26.9999999999985,1.27897692436818E-12,1.5));
#2090=VERTEX_POINT('',#2080);
#2100=EDGE_CURVE('',#2090,#2000,#2070,.T.);
#2110=ORIENTED_EDGE('',*,*,#2100,.T.);
#2120=CARTESIAN_POINT('',(13.737274,1.27897692436818E-12,1.5));
#2130=DIRECTION('',(-1.,2.77555756156289E-17,0.));
#2140=VECTOR('',#2130,1.);
#2150=LINE('',#2120,#2140);
#2160=EDGE_CURVE('',#2090,#1240,#2150,.T.);
#2170=ORIENTED_EDGE('',*,*,#2160,.F.);
#2180=EDGE_LOOP('',(#2170,#2110,#2020,#1940,#1850,#1770,#1680,#1600,
#1510,#1430,#1340,#1260));
#2190=FACE_OUTER_BOUND('',#2180,.T.);
#2200=ADVANCED_FACE('',(#2190),#1150,.T.);
#2210=CARTESIAN_POINT('',(-28.1001709277347,38.3611342504308,-9.));
#2220=DIRECTION('',(-0.939692620785899,0.342020143325694,-0.));
#2230=DIRECTION('',(0.342020143325694,0.9396926207859,0.));
#2240=AXIS2_PLACEMENT_3D('',#2210,#2220,#2230);
#2250=PLANE('',#2240);
#2260=CARTESIAN_POINT('',(-23.7394850825802,50.342020143327,0.));
#2270=DIRECTION('',(0.,0.,-1.));
#2280=VECTOR('',#2270,1.);
#2290=LINE('',#2260,#2280);
#2300=EDGE_CURVE('',#1490,#650,#2290,.T.);
#2310=ORIENTED_EDGE('',*,*,#2300,.T.);
#2320=ORIENTED_EDGE('',*,*,#1500,.F.);
#2330=CARTESIAN_POINT('',(-28.3793852415731,37.5939992279713,0.));
#2340=DIRECTION('',(0.,0.,-1.));
#2350=VECTOR('',#2340,1.);
#2360=LINE('',#2330,#2350);
#2370=EDGE_CURVE('',#1410,#730,#2360,.T.);
#2380=ORIENTED_EDGE('',*,*,#2370,.F.);
#2390=ORIENTED_EDGE('',*,*,#740,.T.);
#2400=EDGE_LOOP('',(#2390,#2380,#2320,#2310));
#2410=FACE_OUTER_BOUND('',#2400,.T.);
#2420=ADVANCED_FACE('',(#2410),#2250,.T.);
#2430=CARTESIAN_POINT('',(-26.5000000000015,36.90995894132,0.));
#2440=DIRECTION('',(0.,0.,-1.));
#2450=DIRECTION('',(-1.,0.,-0.));
#2460=AXIS2_PLACEMENT_3D('',#2430,#2440,#2450);
#2470=CYLINDRICAL_SURFACE('',#2460,1.99999999999977);
#2480=ORIENTED_EDGE('',*,*,#830,.F.);
#2490=ORIENTED_EDGE('',*,*,#2370,.T.);
#2500=ORIENTED_EDGE('',*,*,#1420,.T.);
#2510=CARTESIAN_POINT('',(-28.5000000000012,36.90995894132,0.));
#2520=DIRECTION('',(0.,0.,-1.));
#2530=VECTOR('',#2520,1.);
#2540=LINE('',#2510,#2530);
#2550=EDGE_CURVE('',#1320,#820,#2540,.T.);
#2560=ORIENTED_EDGE('',*,*,#2550,.F.);
#2570=EDGE_LOOP('',(#2560,#2500,#2490,#2480));
#2580=FACE_OUTER_BOUND('',#2570,.T.);
#2590=ADVANCED_FACE('',(#2580),#2470,.T.);
#2600=CARTESIAN_POINT('',(-28.5000000000013,8.03529525034915,0.));
#2610=DIRECTION('',(1.,-2.77555756156289E-17,0.));
#2620=DIRECTION('',(-2.77555756156289E-17,-1.,0.));
#2630=AXIS2_PLACEMENT_3D('',#2600,#2610,#2620);
#2640=PLANE('',#2630);
#2650=ORIENTED_EDGE('',*,*,#1330,.T.);
#2660=CARTESIAN_POINT('',(-28.5000000000013,1.50000000000128,0.));
#2670=DIRECTION('',(-0.,0.,1.));
#2680=VECTOR('',#2670,1.);
#2690=LINE('',#2660,#2680);
#2700=EDGE_CURVE('',#900,#1220,#2690,.T.);
#2710=ORIENTED_EDGE('',*,*,#2700,.T.);
#2720=ORIENTED_EDGE('',*,*,#910,.F.);
#2730=ORIENTED_EDGE('',*,*,#2550,.T.);
#2740=EDGE_LOOP('',(#2730,#2720,#2710,#2650));
#2750=FACE_OUTER_BOUND('',#2740,.T.);
#2760=ADVANCED_FACE('',(#2750),#2640,.F.);
#2770=CARTESIAN_POINT('',(22.7997924617888,51.0000000000013,0.));
#2780=DIRECTION('',(2.77555756156289E-17,1.,0.));
#2790=DIRECTION('',(1.,-2.77555756156289E-17,0.));
#2800=AXIS2_PLACEMENT_3D('',#2770,#2780,#2790);
#2810=PLANE('',#2800);
#2820=ORIENTED_EDGE('',*,*,#570,.T.);
#2830=CARTESIAN_POINT('',(22.7997924617916,51.0000000000013,0.));
#2840=DIRECTION('',(0.,0.,-1.));
#2850=VECTOR('',#2840,1.);
#2860=LINE('',#2830,#2850);
#2870=EDGE_CURVE('',#1660,#480,#2860,.T.);
#2880=ORIENTED_EDGE('',*,*,#2870,.T.);
#2890=ORIENTED_EDGE('',*,*,#1670,.F.);
#2900=CARTESIAN_POINT('',(-22.7997924617943,51.0000000000013,0.));
#2910=DIRECTION('',(0.,0.,-1.));
#2920=VECTOR('',#2910,1.);
#2930=LINE('',#2900,#2920);
#2940=EDGE_CURVE('',#1580,#560,#2930,.T.);
#2950=ORIENTED_EDGE('',*,*,#2940,.F.);
#2960=EDGE_LOOP('',(#2950,#2890,#2880,#2820));
#2970=FACE_OUTER_BOUND('',#2960,.T.);
#2980=ADVANCED_FACE('',(#2970),#2810,.T.);
#2990=CARTESIAN_POINT('',(22.7997924617916,50.0000000000013,0.));
#3000=DIRECTION('',(0.,0.,-1.));
#3010=DIRECTION('',(-1.,0.,-0.));
#3020=AXIS2_PLACEMENT_3D('',#2990,#3000,#3010);
#3030=CYLINDRICAL_SURFACE('',#3020,1.);
#3040=ORIENTED_EDGE('',*,*,#1760,.T.);
#3050=ORIENTED_EDGE('',*,*,#2870,.F.);
#3060=ORIENTED_EDGE('',*,*,#490,.F.);
#3070=CARTESIAN_POINT('',(23.7394850825775,50.342020143327,0.));
#3080=DIRECTION('',(0.,0.,-1.));
#3090=VECTOR('',#3080,1.);
#3100=LINE('',#3070,#3090);
#3110=EDGE_CURVE('',#1750,#390,#3100,.T.);
#3120=ORIENTED_EDGE('',*,*,#3110,.T.);
#3130=EDGE_LOOP('',(#3120,#3060,#3050,#3040));
#3140=FACE_OUTER_BOUND('',#3130,.T.);
#3150=ADVANCED_FACE('',(#3140),#3030,.T.);
#3160=CARTESIAN_POINT('',(20.4655998354575,1.27897692436818E-12,0.));
#3170=DIRECTION('',(-2.77555756156289E-17,-1.,0.));
#3180=DIRECTION('',(-1.,2.77555756156289E-17,0.));
#3190=AXIS2_PLACEMENT_3D('',#3160,#3170,#3180);
#3200=PLANE('',#3190);
#3210=ORIENTED_EDGE('',*,*,#2160,.T.);
#3220=CARTESIAN_POINT('',(26.9999999999985,1.27897692436818E-12,0.));
#3230=DIRECTION('',(-0.,0.,1.));
#3240=VECTOR('',#3230,1.);
#3250=LINE('',#3220,#3240);
#3260=EDGE_CURVE('',#120,#2090,#3250,.T.);
#3270=ORIENTED_EDGE('',*,*,#3260,.T.);
#3280=ORIENTED_EDGE('',*,*,#1060,.F.);
#3290=CARTESIAN_POINT('',(-27.0000000000013,1.27897692436818E-12,0.));
#3300=DIRECTION('',(-0.,0.,1.));
#3310=VECTOR('',#3300,1.);
#3320=LINE('',#3290,#3310);
#3330=EDGE_CURVE('',#990,#1240,#3320,.T.);
#3340=ORIENTED_EDGE('',*,*,#3330,.F.);
#3350=EDGE_LOOP('',(#3340,#3280,#3270,#3210));
#3360=FACE_OUTER_BOUND('',#3350,.T.);
#3370=ADVANCED_FACE('',(#3360),#3200,.T.);
#3380=CARTESIAN_POINT('',(-22.7997924617943,50.0000000000013,0.));
#3390=DIRECTION('',(0.,0.,-1.));
#3400=DIRECTION('',(-1.,0.,-0.));
#3410=AXIS2_PLACEMENT_3D('',#3380,#3390,#3400);
#3420=CYLINDRICAL_SURFACE('',#3410,1.);
#3430=ORIENTED_EDGE('',*,*,#1590,.T.);
#3440=ORIENTED_EDGE('',*,*,#2300,.F.);
#3450=ORIENTED_EDGE('',*,*,#660,.F.);
#3460=ORIENTED_EDGE('',*,*,#2940,.T.);
#3470=EDGE_LOOP('',(#3460,#3450,#3440,#3430));
#3480=FACE_OUTER_BOUND('',#3470,.T.);
#3490=ADVANCED_FACE('',(#3480),#3420,.T.);
#3500=CARTESIAN_POINT('',(28.4999999999985,8.03529525034915,0.));
#3510=DIRECTION('',(1.,-2.77555756156289E-17,0.));
#3520=DIRECTION('',(-2.77555756156289E-17,-1.,0.));
#3530=AXIS2_PLACEMENT_3D('',#3500,#3510,#3520);
#3540=PLANE('',#3530);
#3550=ORIENTED_EDGE('',*,*,#2010,.F.);
#3560=CARTESIAN_POINT('',(28.4999999999985,36.90995894132,0.));
#3570=DIRECTION('',(-0.,0.,1.));
#3580=VECTOR('',#3570,1.);
#3590=LINE('',#3560,#3580);
#3600=EDGE_CURVE('',#220,#1920,#3590,.T.);
#3610=ORIENTED_EDGE('',*,*,#3600,.T.);
#3620=ORIENTED_EDGE('',*,*,#230,.T.);
#3630=CARTESIAN_POINT('',(28.4999999999985,1.50000000000128,0.));
#3640=DIRECTION('',(-0.,0.,1.));
#3650=VECTOR('',#3640,1.);
#3660=LINE('',#3630,#3650);
#3670=EDGE_CURVE('',#140,#2000,#3660,.T.);
#3680=ORIENTED_EDGE('',*,*,#3670,.F.);
#3690=EDGE_LOOP('',(#3680,#3620,#3610,#3550));
#3700=FACE_OUTER_BOUND('',#3690,.T.);
#3710=ADVANCED_FACE('',(#3700),#3540,.T.);
#3720=CARTESIAN_POINT('',(28.1001709277319,38.3611342504308,-9.));
#3730=DIRECTION('',(-0.939692620785899,-0.342020143325694,0.));
#3740=DIRECTION('',(-0.342020143325694,0.9396926207859,0.));
#3750=AXIS2_PLACEMENT_3D('',#3720,#3730,#3740);
#3760=PLANE('',#3750);
#3770=ORIENTED_EDGE('',*,*,#400,.F.);
#3780=CARTESIAN_POINT('',(28.3793852415703,37.5939992279713,0.));
#3790=DIRECTION('',(-0.,0.,1.));
#3800=VECTOR('',#3790,1.);
#3810=LINE('',#3780,#3800);
#3820=EDGE_CURVE('',#310,#1830,#3810,.T.);
#3830=ORIENTED_EDGE('',*,*,#3820,.F.);
#3840=ORIENTED_EDGE('',*,*,#1840,.T.);
#3850=ORIENTED_EDGE('',*,*,#3110,.F.);
#3860=EDGE_LOOP('',(#3850,#3840,#3830,#3770));
#3870=FACE_OUTER_BOUND('',#3860,.T.);
#3880=ADVANCED_FACE('',(#3870),#3760,.F.);
#3890=CARTESIAN_POINT('',(-27.0000000000013,1.50000000000128,0.));
#3900=DIRECTION('',(-0.,0.,1.));
#3910=DIRECTION('',(1.,0.,0.));
#3920=AXIS2_PLACEMENT_3D('',#3890,#3900,#3910);
#3930=CYLINDRICAL_SURFACE('',#3920,1.5);
#3940=ORIENTED_EDGE('',*,*,#1000,.T.);
#3950=ORIENTED_EDGE('',*,*,#2700,.F.);
#3960=ORIENTED_EDGE('',*,*,#1250,.F.);
#3970=ORIENTED_EDGE('',*,*,#3330,.T.);
#3980=EDGE_LOOP('',(#3970,#3960,#3950,#3940));
#3990=FACE_OUTER_BOUND('',#3980,.T.);
#4000=ADVANCED_FACE('',(#3990),#3930,.T.);
#4010=CARTESIAN_POINT('',(26.4999999999985,36.90995894132,0.));
#4020=DIRECTION('',(-0.,0.,1.));
#4030=DIRECTION('',(1.,0.,0.));
#4040=AXIS2_PLACEMENT_3D('',#4010,#4020,#4030);
#4050=CYLINDRICAL_SURFACE('',#4040,2.);
#4060=ORIENTED_EDGE('',*,*,#1930,.F.);
#4070=ORIENTED_EDGE('',*,*,#3820,.T.);
#4080=ORIENTED_EDGE('',*,*,#320,.T.);
#4090=ORIENTED_EDGE('',*,*,#3600,.F.);
#4100=EDGE_LOOP('',(#4090,#4080,#4070,#4060));
#4110=FACE_OUTER_BOUND('',#4100,.T.);
#4120=ADVANCED_FACE('',(#4110),#4050,.T.);
#4130=CARTESIAN_POINT('',(26.9999999999985,1.50000000000128,0.));
#4140=DIRECTION('',(-0.,0.,1.));
#4150=DIRECTION('',(1.,0.,0.));
#4160=AXIS2_PLACEMENT_3D('',#4130,#4140,#4150);
#4170=CYLINDRICAL_SURFACE('',#4160,1.5);
#4180=ORIENTED_EDGE('',*,*,#150,.T.);
#4190=ORIENTED_EDGE('',*,*,#3260,.F.);
#4200=ORIENTED_EDGE('',*,*,#2100,.F.);
#4210=ORIENTED_EDGE('',*,*,#3670,.T.);
#4220=EDGE_LOOP('',(#4210,#4200,#4190,#4180));
#4230=FACE_OUTER_BOUND('',#4220,.T.);
#4240=ADVANCED_FACE('',(#4230),#4170,.T.);
#4250=CLOSED_SHELL('',(#2420,#2590,#2760,#2980,#3150,#3370,#3490,#3710,
#3880,#4000,#4120,#4240,#2200,#1100));
#4260=MANIFOLD_SOLID_BREP('',#4250);
#4270=CARTESIAN_POINT('',(0.,0.,0.));
#4280=DIRECTION('',(0.,0.,1.));
#4290=DIRECTION('',(1.,0.,0.));
#4300=AXIS2_PLACEMENT_3D('',#4270,#4280,#4290);
#4310=APPLICATION_CONTEXT(' ');
#4320=APPLICATION_PROTOCOL_DEFINITION(' ','automotive_design',1998,#4310
);
#4330=PRODUCT_CONTEXT('',#4310,'mechanical');
#4340=PRODUCT_DEFINITION_CONTEXT('part definition',#4310,'design');
#4350=PRODUCT('CBD.50-PT','CBD.50-PT','',(#4330));
#4360=PRODUCT_RELATED_PRODUCT_CATEGORY('part',' ',(#4350));
#4370=PRODUCT_DEFINITION_FORMATION_WITH_SPECIFIED_SOURCE('','',#4350,
.BOUGHT.);
#4380=PRODUCT_DEFINITION('',' ',#4370,#4340);
#4390=PRODUCT_DEFINITION_SHAPE('','',#4380);
#4400=DIMENSIONAL_EXPONENTS(1.,0.,0.,0.,0.,0.,0.);
#4410=DIMENSIONAL_EXPONENTS(0.,0.,0.,0.,0.,0.,0.);
#4420=DIMENSIONAL_EXPONENTS(0.,0.,0.,0.,0.,0.,0.);
#4430=(LENGTH_UNIT() NAMED_UNIT(*) SI_UNIT(.MILLI.,.METRE.));
#4440=(NAMED_UNIT(*) PLANE_ANGLE_UNIT() SI_UNIT($,.RADIAN.));
#4450=(NAMED_UNIT(*) SI_UNIT($,.STERADIAN.) SOLID_ANGLE_UNIT());
#4460=(GEOMETRIC_REPRESENTATION_CONTEXT(3) 
GLOBAL_UNCERTAINTY_ASSIGNED_CONTEXT((#4470)) 
GLOBAL_UNIT_ASSIGNED_CONTEXT((#4430,#4440,#4450)) REPRESENTATION_CONTEXT
('',''));
#4470=UNCERTAINTY_MEASURE_WITH_UNIT(LENGTH_MEASURE(1.E-6),#4430,
'distance_accuracy_value','maximum gap value');
#4480=ADVANCED_BREP_SHAPE_REPRESENTATION('',(#4300,#4260),#4460);
#4490=SHAPE_DEFINITION_REPRESENTATION(#4390,#4480);
#4500=COLOUR_RGB('',1.,0.878431439399719,0.701960802078247);
#4510=FILL_AREA_STYLE_COLOUR('',#4500);
#4520=FILL_AREA_STYLE('',(#4510));
#4530=SURFACE_STYLE_FILL_AREA(#4520);
#4540=SURFACE_SIDE_STYLE('',(#4530));
#4550=SURFACE_STYLE_USAGE(.BOTH.,#4540);
#4560=PRESENTATION_STYLE_ASSIGNMENT((#4550));
#4570=STYLED_ITEM('',(#4560),#4260);
#4580=DRAUGHTING_MODEL('',(#4570),#4460);
ENDSEC;
END-ISO-10303-21;
