ISO-10303-21;
HEADER;
FILE_DESCRIPTION (( 'STEP AP203' ),
    '1' );
FILE_NAME ('Êðûøêà íà îòâåòâèòåëü Ò-îáðàçíûé âåðòèêàëüíûé áîêîâîé TDS_38328.STEP',
    '2012-11-09T08:44:38',
    ( 'Àñååâ' ),
    ( '' ),
    'SwSTEP 2.0',
    'SolidWorks 2012',
    '' );
FILE_SCHEMA (( 'CONFIG_CONTROL_DESIGN' ));
ENDSEC;

DATA;
#1 = DIRECTION ( 'NONE',  ( 1.000000000000000000, 0.0000000000000000000, -0.0000000000000000000 ) ) ;
#2 = CARTESIAN_POINT ( 'NONE',  ( 1.734723475976807100E-015, 0.0000000000000000000, 17.49999999999999600 ) ) ;
#3 = PLANE ( 'NONE',  #167 ) ;
#4 = CARTESIAN_POINT ( 'NONE',  ( 301.8000000000000100, 0.0000000000000000000, 860.0000000000000000 ) ) ;
#5 = CARTESIAN_POINT ( 'NONE',  ( -301.0000000000000000, 0.8000000000000000400, 860.0000000000000000 ) ) ;
#6 = DIRECTION ( 'NONE',  ( 0.0000000000000000000, 1.000000000000000000, 0.0000000000000000000 ) ) ;
#7 = CARTESIAN_POINT ( 'NONE',  ( 2.653208575337321100E-015, -14.00099999999999900, 845.0000000000001100 ) ) ;
#8 = DIRECTION ( 'NONE',  ( -0.0000000000000000000, 0.0000000000000000000, -1.000000000000000000 ) ) ;
#9 = DIRECTION ( 'NONE',  ( 1.000000000000000000, 0.0000000000000000000, -0.0000000000000000000 ) ) ;
#10 = DIRECTION ( 'NONE',  ( -0.0000000000000000000, 1.000000000000000000, -0.0000000000000000000 ) ) ;
#11 = PLANE ( 'NONE',  #104 ) ;
#12 = DIRECTION ( 'NONE',  ( 0.0000000000000000000, -0.0000000000000000000, -1.000000000000000000 ) ) ;
#13 = DIRECTION ( 'NONE',  ( 0.0000000000000000000, -1.000000000000000000, 0.0000000000000000000 ) ) ;
#14 = DIRECTION ( 'NONE',  ( 0.0000000000000000000, 0.0000000000000000000, 1.000000000000000000 ) ) ;
#15 = PLANE ( 'NONE',  #105 ) ;
#16 = DIRECTION ( 'NONE',  ( 0.0000000000000000000, -0.0000000000000000000, -1.000000000000000000 ) ) ;
#17 = CARTESIAN_POINT ( 'NONE',  ( 301.0000000000000000, 0.0000000000000000000, 0.0000000000000000000 ) ) ;
#18 = DIRECTION ( 'NONE',  ( 0.0000000000000000000, 0.0000000000000000000, 1.000000000000000000 ) ) ;
#19 = DIRECTION ( 'NONE',  ( 0.0000000000000000000, -0.0000000000000000000, 1.000000000000000000 ) ) ;
#20 = CARTESIAN_POINT ( 'NONE',  ( -301.8000000000000100, 0.0000000000000000000, 860.0000000000000000 ) ) ;
#21 = PLANE ( 'NONE',  #133 ) ;
#22 = CARTESIAN_POINT ( 'NONE',  ( -301.0000000000000000, 0.0000000000000000000, 860.0000000000000000 ) ) ;
#23 = PLANE ( 'NONE',  #161 ) ;
#24 = CARTESIAN_POINT ( 'NONE',  ( 301.0000000000000000, 0.0000000000000000000, 860.0000000000000000 ) ) ;
#25 = APPROVAL_ROLE ( '' ) ;
#26 = DIRECTION ( 'NONE',  ( 0.0000000000000000000, -1.000000000000000000, 0.0000000000000000000 ) ) ;
#27 = PLANE ( 'NONE',  #107 ) ;
#28 = DIRECTION ( 'NONE',  ( -0.0000000000000000000, 1.000000000000000000, -0.0000000000000000000 ) ) ;
#29 = DIRECTION ( 'NONE',  ( -0.0000000000000000000, 0.0000000000000000000, -1.000000000000000000 ) ) ;
#30 = DIRECTION ( 'NONE',  ( -1.000000000000000000, 0.0000000000000000000, 0.0000000000000000000 ) ) ;
#31 = PLANE ( 'NONE',  #162 ) ;
#32 =( NAMED_UNIT ( * ) SI_UNIT ( $, .STERADIAN. ) SOLID_ANGLE_UNIT ( ) );
#33 =( NAMED_UNIT ( * ) PLANE_ANGLE_UNIT ( ) SI_UNIT ( $, .RADIAN. ) );
#34 =( LENGTH_UNIT ( ) NAMED_UNIT ( * ) SI_UNIT ( .MILLI., .METRE. ) );
#35 = APPROVAL_STATUS ( 'not_yet_approved' ) ;
#36 = DATE_TIME_ROLE ( 'classification_date' ) ;
#37 = PERSON_AND_ORGANIZATION_ROLE ( 'classification_officer' ) ;
#38 = DIRECTION ( 'NONE',  ( 0.0000000000000000000, 0.0000000000000000000, 1.000000000000000000 ) ) ;
#39 = DIRECTION ( 'NONE',  ( -1.000000000000000000, 0.0000000000000000000, 0.0000000000000000000 ) ) ;
#40 = PERSON_AND_ORGANIZATION_ROLE ( 'design_supplier' ) ;
#41 = PERSON_AND_ORGANIZATION_ROLE ( 'creator' ) ;
#42 = CARTESIAN_POINT ( 'NONE',  ( 1.734723475976807100E-015, 0.8000000000000000400, 17.49999999999999600 ) ) ;
#43 = DIRECTION ( 'NONE',  ( 0.0000000000000000000, 1.000000000000000000, 0.0000000000000000000 ) ) ;
#44 = CARTESIAN_POINT ( 'NONE',  ( -301.0000000000000000, 0.0000000000000000000, 860.0000000000000000 ) ) ;
#45 = DIRECTION ( 'NONE',  ( 1.000000000000000000, 0.0000000000000000000, 0.0000000000000000000 ) ) ;
#46 = DIRECTION ( 'NONE',  ( 1.000000000000000000, 0.0000000000000000000, 0.0000000000000000000 ) ) ;
#47 = APPROVAL_ROLE ( '' ) ;
#48 = APPROVAL_ROLE ( '' ) ;
#49 = APPROVAL_STATUS ( 'not_yet_approved' ) ;
#50 = MECHANICAL_CONTEXT ( 'NONE', #52, 'mechanical' ) ;
#51 = DIRECTION ( 'NONE',  ( 1.000000000000000000, 0.0000000000000000000, 0.0000000000000000000 ) ) ;
#52 = APPLICATION_CONTEXT ( 'configuration controlled 3d designs of mechanical parts and assemblies' ) ;
#53 = DIRECTION ( 'NONE',  ( -0.0000000000000000000, -1.000000000000000000, -0.0000000000000000000 ) ) ;
#54 = APPLICATION_CONTEXT ( 'configuration controlled 3d designs of mechanical parts and assemblies' ) ;
#55 = PERSON_AND_ORGANIZATION_ROLE ( 'design_owner' ) ;
#56 = PERSON_AND_ORGANIZATION_ROLE ( 'creator' ) ;
#57 = CARTESIAN_POINT ( 'NONE',  ( -301.0000000000000000, -14.00000000000000000, 860.0000000000000000 ) ) ;
#58 = PLANE ( 'NONE',  #111 ) ;
#59 = DIRECTION ( 'NONE',  ( -1.000000000000000000, 0.0000000000000000000, 0.0000000000000000000 ) ) ;
#60 = DIRECTION ( 'NONE',  ( 0.0000000000000000000, -0.0000000000000000000, 1.000000000000000000 ) ) ;
#61 = DIRECTION ( 'NONE',  ( -0.0000000000000000000, 0.0000000000000000000, -1.000000000000000000 ) ) ;
#62 = CARTESIAN_POINT ( 'NONE',  ( 301.8000000000000100, -14.00000000000000000, 860.0000000000000000 ) ) ;
#63 = DIRECTION ( 'NONE',  ( 0.0000000000000000000, 0.0000000000000000000, 1.000000000000000000 ) ) ;
#64 = DIRECTION ( 'NONE',  ( -1.000000000000000000, 0.0000000000000000000, 0.0000000000000000000 ) ) ;
#65 = CARTESIAN_POINT ( 'NONE',  ( 0.0000000000000000000, 0.0000000000000000000, 0.0000000000000000000 ) ) ;
#66 = CARTESIAN_POINT ( 'NONE',  ( 2.653208575337321100E-015, 0.0000000000000000000, 847.5000000000001100 ) ) ;
#67 = CARTESIAN_POINT ( 'NONE',  ( 2.653208575337321100E-015, 0.8000000000000000400, 842.5000000000000000 ) ) ;
#68 = DIRECTION ( 'NONE',  ( 0.0000000000000000000, 0.0000000000000000000, 1.000000000000000000 ) ) ;
#69 = CARTESIAN_POINT ( 'NONE',  ( 0.0000000000000000000, 0.0000000000000000000, 0.0000000000000000000 ) ) ;
#70 = PLANE ( 'NONE',  #114 ) ;
#71 = CARTESIAN_POINT ( 'NONE',  ( 1.734723475976807100E-015, -14.00099999999999900, 14.99999999999999300 ) ) ;
#72 = DIRECTION ( 'NONE',  ( 0.0000000000000000000, 0.0000000000000000000, 1.000000000000000000 ) ) ;
#73 = CARTESIAN_POINT ( 'NONE',  ( 301.8000000000000100, -14.00000000000000000, 860.0000000000000000 ) ) ;
#74 = DIRECTION ( 'NONE',  ( -1.000000000000000000, 0.0000000000000000000, 0.0000000000000000000 ) ) ;
#75 = CARTESIAN_POINT ( 'NONE',  ( 301.8000000000000100, -14.00000000000000000, 860.0000000000000000 ) ) ;
#76 = DIRECTION ( 'NONE',  ( -0.0000000000000000000, -1.000000000000000000, 0.0000000000000000000 ) ) ;
#77 = DIRECTION ( 'NONE',  ( -0.0000000000000000000, -0.0000000000000000000, -1.000000000000000000 ) ) ;
#78 = CARTESIAN_POINT ( 'NONE',  ( 0.0000000000000000000, 0.0000000000000000000, 860.0000000000000000 ) ) ;
#79 = PLANE ( 'NONE',  #115 ) ;
#80 = SECURITY_CLASSIFICATION_LEVEL ( 'unclassified' ) ;
#81 = DATE_TIME_ROLE ( 'creation_date' ) ;
#82 = APPROVAL_STATUS ( 'not_yet_approved' ) ;
#83 = APPLICATION_PROTOCOL_DEFINITION ( 'international standard', 'config_control_design', 1994, #54 ) ;
#84 = APPLICATION_PROTOCOL_DEFINITION ( 'international standard', 'config_control_design', 1994, #52 ) ;
#85 = CARTESIAN_POINT ( 'NONE',  ( 301.8000000000000100, 0.0000000000000000000, 860.0000000000000000 ) ) ;
#86 = DIRECTION ( 'NONE',  ( -0.0000000000000000000, 0.0000000000000000000, -1.000000000000000000 ) ) ;
#87 = VERTEX_POINT ( 'NONE', #433 ) ;
#88 = VERTEX_POINT ( 'NONE', #432 ) ;
#89 = VERTEX_POINT ( 'NONE', #374 ) ;
#90 = VERTEX_POINT ( 'NONE', #437 ) ;
#91 = VERTEX_POINT ( 'NONE', #425 ) ;
#92 = VERTEX_POINT ( 'NONE', #373 ) ;
#93 = VERTEX_POINT ( 'NONE', #435 ) ;
#94 = EDGE_LOOP ( 'NONE', ( #268 ) ) ;
#95 = LINE ( 'NONE', #422, #218 ) ;
#96 = VERTEX_POINT ( 'NONE', #436 ) ;
#97 = VERTEX_POINT ( 'NONE', #434 ) ;
#98 = VERTEX_POINT ( 'NONE', #431 ) ;
#99 = VERTEX_POINT ( 'NONE', #430 ) ;
#100 = VERTEX_POINT ( 'NONE', #429 ) ;
#101 = VERTEX_POINT ( 'NONE', #428 ) ;
#102 = VERTEX_POINT ( 'NONE', #427 ) ;
#103 = VERTEX_POINT ( 'NONE', #426 ) ;
#104 = AXIS2_PLACEMENT_3D ( 'NONE', #24, #9, #8 ) ;
#105 = AXIS2_PLACEMENT_3D ( 'NONE', #62, #13, #12 ) ;
#106 = AXIS2_PLACEMENT_3D ( 'NONE', #7, #10, #14 ) ;
#107 = AXIS2_PLACEMENT_3D ( 'NONE', #57, #26, #16 ) ;
#108 = CC_DESIGN_PERSON_AND_ORGANIZATION_ASSIGNMENT ( #313, #41, ( #146 ) ) ;
#109 = SECURITY_CLASSIFICATION ( '', '', #80 ) ;
#110 = CC_DESIGN_APPROVAL ( #141, ( #146 ) ) ;
#111 = AXIS2_PLACEMENT_3D ( 'NONE', #69, #61, #59 ) ;
#112 = AXIS2_PLACEMENT_3D ( 'NONE', #71, #28, #18 ) ;
#113 = PRODUCT_RELATED_PRODUCT_CATEGORY ( 'detail', '', ( #168 ) ) ;
#114 = AXIS2_PLACEMENT_3D ( 'NONE', #78, #29, #30 ) ;
#115 = AXIS2_PLACEMENT_3D ( 'NONE', #44, #43, #60 ) ;
#116 = AXIS2_PLACEMENT_3D ( 'NONE', #381, #53, #72 ) ;
#117 = AXIS2_PLACEMENT_3D ( 'NONE', #375, #387, #410 ) ;
#118 = AXIS2_PLACEMENT_3D ( 'NONE', #404, #403, #402 ) ;
#119 = AXIS2_PLACEMENT_3D ( 'NONE', #408, #407, #406 ) ;
#120 = EDGE_CURVE ( 'NONE', #97, #266, #95, .T. ) ;
#121 = EDGE_CURVE ( 'NONE', #98, #91, #223, .T. ) ;
#122 = EDGE_CURVE ( 'NONE', #102, #91, #182, .T. ) ;
#123 = EDGE_CURVE ( 'NONE', #266, #91, #217, .T. ) ;
#124 = EDGE_CURVE ( 'NONE', #97, #98, #228, .T. ) ;
#125 = EDGE_CURVE ( 'NONE', #342, #342, #216, .T. ) ;
#126 = EDGE_CURVE ( 'NONE', #341, #341, #229, .T. ) ;
#127 = EDGE_CURVE ( 'NONE', #101, #92, #221, .T. ) ;
#128 = EDGE_CURVE ( 'NONE', #101, #87, #219, .T. ) ;
#129 = EDGE_CURVE ( 'NONE', #99, #92, #222, .T. ) ;
#130 = EDGE_CURVE ( 'NONE', #100, #99, #177, .T. ) ;
#131 = EDGE_CURVE ( 'NONE', #100, #101, #178, .T. ) ;
#132 = EDGE_CURVE ( 'NONE', #88, #99, #173, .T. ) ;
#133 = AXIS2_PLACEMENT_3D ( 'NONE', #5, #6, #19 ) ;
#134 = EDGE_CURVE ( 'NONE', #89, #88, #171, .T. ) ;
#135 = EDGE_CURVE ( 'NONE', #87, #96, #175, .T. ) ;
#136 = EDGE_CURVE ( 'NONE', #89, #100, #360, .T. ) ;
#137 = EDGE_CURVE ( 'NONE', #88, #90, #365, .T. ) ;
#138 = APPROVAL ( #35, 'UNSPECIFIED' ) ;
#139 = EDGE_CURVE ( 'NONE', #93, #90, #364, .T. ) ;
#140 = EDGE_CURVE ( 'NONE', #92, #96, #352, .T. ) ;
#141 = APPROVAL ( #82, 'UNSPECIFIED' ) ;
#142 = EDGE_CURVE ( 'NONE', #89, #93, #366, .T. ) ;
#143 = EDGE_CURVE ( 'NONE', #339, #339, #368, .T. ) ;
#144 = EDGE_CURVE ( 'NONE', #96, #102, #294, .T. ) ;
#145 = EDGE_CURVE ( 'NONE', #340, #340, #353, .T. ) ;
#146 = PRODUCT_DEFINITION_FORMATION_WITH_SPECIFIED_SOURCE ( 'ANY', '', #168, .NOT_KNOWN. ) ;
#147 = CC_DESIGN_SECURITY_CLASSIFICATION ( #109, ( #146 ) ) ;
#148 = EDGE_CURVE ( 'NONE', #90, #266, #361, .T. ) ;
#149 = EDGE_CURVE ( 'NONE', #93, #97, #291, .T. ) ;
#150 = EDGE_CURVE ( 'NONE', #103, #98, #293, .T. ) ;
#151 = CC_DESIGN_PERSON_AND_ORGANIZATION_ASSIGNMENT ( #329, #56, ( #157 ) ) ;
#152 = CC_DESIGN_DATE_AND_TIME_ASSIGNMENT ( #325, #81, ( #157 ) ) ;
#153 = EDGE_CURVE ( 'NONE', #103, #102, #295, .T. ) ;
#154 = CC_DESIGN_APPROVAL ( #158, ( #157 ) ) ;
#155 = EDGE_CURVE ( 'NONE', #87, #103, #367, .T. ) ;
#156 = CC_DESIGN_PERSON_AND_ORGANIZATION_ASSIGNMENT ( #337, #55, ( #168 ) ) ;
#157 = PRODUCT_DEFINITION ( 'UNKNOWN', '', #146, #372 ) ;
#158 = APPROVAL ( #49, 'UNSPECIFIED' ) ;
#159 = AXIS2_PLACEMENT_3D ( 'NONE', #65, #68, #51 ) ;
#160 = CC_DESIGN_PERSON_AND_ORGANIZATION_ASSIGNMENT ( #314, #40, ( #146 ) ) ;
#161 = AXIS2_PLACEMENT_3D ( 'NONE', #20, #39, #38 ) ;
#162 = AXIS2_PLACEMENT_3D ( 'NONE', #22, #64, #63 ) ;
#163 = CC_DESIGN_PERSON_AND_ORGANIZATION_ASSIGNMENT ( #315, #37, ( #109 ) ) ;
#164 = CC_DESIGN_DATE_AND_TIME_ASSIGNMENT ( #309, #36, ( #109 ) ) ;
#165 = CC_DESIGN_APPROVAL ( #138, ( #109 ) ) ;
#166 =( GEOMETRIC_REPRESENTATION_CONTEXT ( 3 ) GLOBAL_UNCERTAINTY_ASSIGNED_CONTEXT ( ( #271 ) ) GLOBAL_UNIT_ASSIGNED_CONTEXT ( ( #34, #33, #32 ) ) REPRESENTATION_CONTEXT ( 'NONE', 'WORKASPACE' ) );
#167 = AXIS2_PLACEMENT_3D ( 'NONE', #4, #1, #86 ) ;
#168 = PRODUCT ( 'Êðûøêà íà îòâåòâèòåëü Ò-îáðàçíûé âåðòèêàëüíûé áîêîâîé TDS_38328', 'Êðûøêà íà îòâåòâèòåëü Ò-îáðàçíûé âåðòèêàëüíûé áîêîâîé TDS_38328', '', ( #50 ) ) ;
#169 = PERSON ( 'UNSPECIFIED', 'UNSPECIFIED', 'UNSPECIFIED', ('UNSPECIFIED'), ('UNSPECIFIED'), ('UNSPECIFIED') ) ;
#170 = VECTOR ( 'NONE', #392, 1000.000000000000000 ) ;
#171 = LINE ( 'NONE', #391, #188 ) ;
#172 = VECTOR ( 'NONE', #394, 1000.000000000000000 ) ;
#173 = LINE ( 'NONE', #393, #170 ) ;
#174 = VECTOR ( 'NONE', #395, 1000.000000000000000 ) ;
#175 = LINE ( 'NONE', #399, #369 ) ;
#176 = VECTOR ( 'NONE', #398, 1000.000000000000000 ) ;
#177 = LINE ( 'NONE', #397, #174 ) ;
#178 = LINE ( 'NONE', #405, #172 ) ;
#179 = VECTOR ( 'NONE', #401, 1000.000000000000000 ) ;
#180 = VECTOR ( 'NONE', #411, 1000.000000000000000 ) ;
#181 = VECTOR ( 'NONE', #418, 1000.000000000000000 ) ;
#182 = LINE ( 'NONE', #424, #181 ) ;
#183 = EDGE_LOOP ( 'NONE', ( #238, #214, #213, #226 ) ) ;
#184 = EDGE_LOOP ( 'NONE', ( #233 ) ) ;
#185 = EDGE_LOOP ( 'NONE', ( #209, #204, #206, #201 ) ) ;
#186 = EDGE_LOOP ( 'NONE', ( #258 ) ) ;
#187 = EDGE_LOOP ( 'NONE', ( #267 ) ) ;
#188 = VECTOR ( 'NONE', #389, 1000.000000000000000 ) ;
#189 = EDGE_LOOP ( 'NONE', ( #259, #262, #265, #269, #263, #261, #260, #264 ) ) ;
#190 = EDGE_LOOP ( 'NONE', ( #237 ) ) ;
#191 = EDGE_LOOP ( 'NONE', ( #225, #239, #244, #240 ) ) ;
#192 = EDGE_LOOP ( 'NONE', ( #207 ) ) ;
#193 = EDGE_LOOP ( 'NONE', ( #203, #242, #245, #243 ) ) ;
#194 = EDGE_LOOP ( 'NONE', ( #247, #249, #250, #252, #253, #257, #254, #255 ) ) ;
#195 = EDGE_LOOP ( 'NONE', ( #241, #234, #208, #205 ) ) ;
#196 = EDGE_LOOP ( 'NONE', ( #202, #231, #236, #235 ) ) ;
#197 = EDGE_LOOP ( 'NONE', ( #232, #246, #227, #210 ) ) ;
#198 = EDGE_LOOP ( 'NONE', ( #211 ) ) ;
#199 = EDGE_LOOP ( 'NONE', ( #256 ) ) ;
#200 = EDGE_LOOP ( 'NONE', ( #230, #212, #251, #248 ) ) ;
#201 = ORIENTED_EDGE ( 'NONE', *, *, #135, .T. ) ;
#202 = ORIENTED_EDGE ( 'NONE', *, *, #129, .F. ) ;
#203 = ORIENTED_EDGE ( 'NONE', *, *, #122, .F. ) ;
#204 = ORIENTED_EDGE ( 'NONE', *, *, #127, .F. ) ;
#205 = ORIENTED_EDGE ( 'NONE', *, *, #120, .T. ) ;
#206 = ORIENTED_EDGE ( 'NONE', *, *, #128, .T. ) ;
#207 = ORIENTED_EDGE ( 'NONE', *, *, #126, .F. ) ;
#208 = ORIENTED_EDGE ( 'NONE', *, *, #124, .F. ) ;
#209 = ORIENTED_EDGE ( 'NONE', *, *, #140, .F. ) ;
#210 = ORIENTED_EDGE ( 'NONE', *, *, #153, .T. ) ;
#211 = ORIENTED_EDGE ( 'NONE', *, *, #125, .F. ) ;
#212 = ORIENTED_EDGE ( 'NONE', *, *, #120, .F. ) ;
#213 = ORIENTED_EDGE ( 'NONE', *, *, #136, .T. ) ;
#214 = ORIENTED_EDGE ( 'NONE', *, *, #134, .F. ) ;
#215 = VECTOR ( 'NONE', #420, 1000.000000000000000 ) ;
#216 = CIRCLE ( 'NONE', #119, 2.500000000000057700 ) ;
#217 = LINE ( 'NONE', #423, #224 ) ;
#218 = VECTOR ( 'NONE', #421, 1000.000000000000000 ) ;
#219 = LINE ( 'NONE', #400, #180 ) ;
#220 = VECTOR ( 'NONE', #413, 1000.000000000000000 ) ;
#221 = LINE ( 'NONE', #415, #179 ) ;
#222 = LINE ( 'NONE', #409, #176 ) ;
#223 = LINE ( 'NONE', #419, #215 ) ;
#224 = VECTOR ( 'NONE', #417, 1000.000000000000000 ) ;
#225 = ORIENTED_EDGE ( 'NONE', *, *, #137, .T. ) ;
#226 = ORIENTED_EDGE ( 'NONE', *, *, #130, .T. ) ;
#227 = ORIENTED_EDGE ( 'NONE', *, *, #155, .T. ) ;
#228 = LINE ( 'NONE', #416, #220 ) ;
#229 = CIRCLE ( 'NONE', #118, 2.500000000000002200 ) ;
#230 = ORIENTED_EDGE ( 'NONE', *, *, #148, .T. ) ;
#231 = ORIENTED_EDGE ( 'NONE', *, *, #130, .F. ) ;
#232 = ORIENTED_EDGE ( 'NONE', *, *, #144, .F. ) ;
#233 = ORIENTED_EDGE ( 'NONE', *, *, #145, .F. ) ;
#234 = ORIENTED_EDGE ( 'NONE', *, *, #121, .F. ) ;
#235 = ORIENTED_EDGE ( 'NONE', *, *, #127, .T. ) ;
#236 = ORIENTED_EDGE ( 'NONE', *, *, #131, .T. ) ;
#237 = ORIENTED_EDGE ( 'NONE', *, *, #143, .F. ) ;
#238 = ORIENTED_EDGE ( 'NONE', *, *, #132, .F. ) ;
#239 = ORIENTED_EDGE ( 'NONE', *, *, #139, .F. ) ;
#240 = ORIENTED_EDGE ( 'NONE', *, *, #134, .T. ) ;
#241 = ORIENTED_EDGE ( 'NONE', *, *, #123, .T. ) ;
#242 = ORIENTED_EDGE ( 'NONE', *, *, #153, .F. ) ;
#243 = ORIENTED_EDGE ( 'NONE', *, *, #121, .T. ) ;
#244 = ORIENTED_EDGE ( 'NONE', *, *, #142, .F. ) ;
#245 = ORIENTED_EDGE ( 'NONE', *, *, #150, .T. ) ;
#246 = ORIENTED_EDGE ( 'NONE', *, *, #135, .F. ) ;
#247 = ORIENTED_EDGE ( 'NONE', *, *, #124, .T. ) ;
#248 = ORIENTED_EDGE ( 'NONE', *, *, #139, .T. ) ;
#249 = ORIENTED_EDGE ( 'NONE', *, *, #150, .F. ) ;
#250 = ORIENTED_EDGE ( 'NONE', *, *, #155, .F. ) ;
#251 = ORIENTED_EDGE ( 'NONE', *, *, #149, .F. ) ;
#252 = ORIENTED_EDGE ( 'NONE', *, *, #128, .F. ) ;
#253 = ORIENTED_EDGE ( 'NONE', *, *, #131, .F. ) ;
#254 = ORIENTED_EDGE ( 'NONE', *, *, #142, .T. ) ;
#255 = ORIENTED_EDGE ( 'NONE', *, *, #149, .T. ) ;
#256 = ORIENTED_EDGE ( 'NONE', *, *, #143, .T. ) ;
#257 = ORIENTED_EDGE ( 'NONE', *, *, #136, .F. ) ;
#258 = ORIENTED_EDGE ( 'NONE', *, *, #125, .T. ) ;
#259 = ORIENTED_EDGE ( 'NONE', *, *, #123, .F. ) ;
#260 = ORIENTED_EDGE ( 'NONE', *, *, #144, .T. ) ;
#261 = ORIENTED_EDGE ( 'NONE', *, *, #140, .T. ) ;
#262 = ORIENTED_EDGE ( 'NONE', *, *, #148, .F. ) ;
#263 = ORIENTED_EDGE ( 'NONE', *, *, #129, .T. ) ;
#264 = ORIENTED_EDGE ( 'NONE', *, *, #122, .T. ) ;
#265 = ORIENTED_EDGE ( 'NONE', *, *, #137, .F. ) ;
#266 = VERTEX_POINT ( 'NONE', #17 ) ;
#267 = ORIENTED_EDGE ( 'NONE', *, *, #145, .T. ) ;
#268 = ORIENTED_EDGE ( 'NONE', *, *, #126, .T. ) ;
#269 = ORIENTED_EDGE ( 'NONE', *, *, #132, .T. ) ;
#270 = CLOSED_SHELL ( 'NONE', ( #280, #279, #284, #282, #283, #278, #285, #274, #275, #277, #276, #281 ) ) ;
#271 = UNCERTAINTY_MEASURE_WITH_UNIT (LENGTH_MEASURE( 1.000000000000000100E-005 ), #34, 'distance_accuracy_value', 'NONE');
#272 = ADVANCED_BREP_SHAPE_REPRESENTATION ( '¦¨v°úð ýð þªòõªòøªõû¹ T-þñ¨ð÷ývù òõ¨ªøúðû¹ývù ñþúþòþù TDS_38328', ( #273, #159 ), #166 ) ;
#273 = MANIFOLD_SOLID_BREP ( 'Âûðåç-Âûòÿíóòü1', #270 ) ;
#274 = ADVANCED_FACE ( 'NONE', ( #289, #300, #288 ), #79, .F. ) ;
#275 = ADVANCED_FACE ( 'NONE', ( #348 ), #70, .F. ) ;
#276 = ADVANCED_FACE ( 'NONE', ( #349, #302 ), #359, .F. ) ;
#277 = ADVANCED_FACE ( 'NONE', ( #296 ), #58, .T. ) ;
#278 = ADVANCED_FACE ( 'NONE', ( #354 ), #27, .T. ) ;
#279 = ADVANCED_FACE ( 'NONE', ( #301 ), #15, .T. ) ;
#280 = ADVANCED_FACE ( 'NONE', ( #362 ), #11, .F. ) ;
#281 = ADVANCED_FACE ( 'NONE', ( #297, #347 ), #345, .F. ) ;
#282 = ADVANCED_FACE ( 'NONE', ( #370, #343, #350 ), #21, .T. ) ;
#283 = ADVANCED_FACE ( 'NONE', ( #346 ), #23, .T. ) ;
#284 = ADVANCED_FACE ( 'NONE', ( #298 ), #3, .T. ) ;
#285 = ADVANCED_FACE ( 'NONE', ( #299 ), #31, .F. ) ;
#286 = VECTOR ( 'NONE', #74, 1000.000000000000000 ) ;
#287 = VECTOR ( 'NONE', #77, 1000.000000000000000 ) ;
#288 = FACE_OUTER_BOUND ( 'NONE', #200, .T. ) ;
#289 = FACE_BOUND ( 'NONE', #190, .T. ) ;
#290 = VECTOR ( 'NONE', #76, 1000.000000000000000 ) ;
#291 = LINE ( 'NONE', #376, #363 ) ;
#292 = VECTOR ( 'NONE', #379, 1000.000000000000000 ) ;
#293 = LINE ( 'NONE', #73, #286 ) ;
#294 = LINE ( 'NONE', #390, #351 ) ;
#295 = LINE ( 'NONE', #75, #287 ) ;
#296 = FACE_OUTER_BOUND ( 'NONE', #189, .T. ) ;
#297 = FACE_OUTER_BOUND ( 'NONE', #186, .T. ) ;
#298 = FACE_OUTER_BOUND ( 'NONE', #197, .T. ) ;
#299 = FACE_OUTER_BOUND ( 'NONE', #191, .T. ) ;
#300 = FACE_BOUND ( 'NONE', #184, .T. ) ;
#301 = FACE_OUTER_BOUND ( 'NONE', #193, .T. ) ;
#302 = FACE_OUTER_BOUND ( 'NONE', #187, .T. ) ;
#303 = VECTOR ( 'NONE', #45, 1000.000000000000000 ) ;
#304 = LOCAL_TIME ( 12, 44, 38.00000000000000000, #312 ) ;
#305 = CALENDAR_DATE ( 2012, 9, 11 ) ;
#306 = DATE_AND_TIME ( #305, #304 ) ;
#307 = APPROVAL_DATE_TIME ( #306, #138 ) ;
#308 = CALENDAR_DATE ( 2012, 9, 11 ) ;
#309 = DATE_AND_TIME ( #308, #317 ) ;
#310 = PERSON_AND_ORGANIZATION ( #169, #338 ) ;
#311 = APPROVAL_PERSON_ORGANIZATION ( #310, #138, #25 ) ;
#312 = COORDINATED_UNIVERSAL_TIME_OFFSET ( 4, 0, .AHEAD. ) ;
#313 = PERSON_AND_ORGANIZATION ( #169, #338 ) ;
#314 = PERSON_AND_ORGANIZATION ( #169, #338 ) ;
#315 = PERSON_AND_ORGANIZATION ( #169, #338 ) ;
#316 = COORDINATED_UNIVERSAL_TIME_OFFSET ( 4, 0, .AHEAD. ) ;
#317 = LOCAL_TIME ( 12, 44, 38.00000000000000000, #316 ) ;
#318 = COORDINATED_UNIVERSAL_TIME_OFFSET ( 4, 0, .AHEAD. ) ;
#319 = LOCAL_TIME ( 12, 44, 38.00000000000000000, #318 ) ;
#320 = CALENDAR_DATE ( 2012, 9, 11 ) ;
#321 = DATE_AND_TIME ( #320, #319 ) ;
#322 = APPROVAL_DATE_TIME ( #321, #141 ) ;
#323 = APPROVAL_PERSON_ORGANIZATION ( #324, #141, #47 ) ;
#324 = PERSON_AND_ORGANIZATION ( #169, #338 ) ;
#325 = DATE_AND_TIME ( #326, #327 ) ;
#326 = CALENDAR_DATE ( 2012, 9, 11 ) ;
#327 = LOCAL_TIME ( 12, 44, 38.00000000000000000, #328 ) ;
#328 = COORDINATED_UNIVERSAL_TIME_OFFSET ( 4, 0, .AHEAD. ) ;
#329 = PERSON_AND_ORGANIZATION ( #169, #338 ) ;
#330 = APPROVAL_DATE_TIME ( #331, #158 ) ;
#331 = DATE_AND_TIME ( #332, #333 ) ;
#332 = CALENDAR_DATE ( 2012, 9, 11 ) ;
#333 = LOCAL_TIME ( 12, 44, 38.00000000000000000, #334 ) ;
#334 = COORDINATED_UNIVERSAL_TIME_OFFSET ( 4, 0, .AHEAD. ) ;
#335 = APPROVAL_PERSON_ORGANIZATION ( #336, #158, #48 ) ;
#336 = PERSON_AND_ORGANIZATION ( #169, #338 ) ;
#337 = PERSON_AND_ORGANIZATION ( #169, #338 ) ;
#338 = ORGANIZATION ( 'UNSPECIFIED', 'UNSPECIFIED', '' ) ;
#339 = VERTEX_POINT ( 'NONE', #66 ) ;
#340 = VERTEX_POINT ( 'NONE', #2 ) ;
#341 = VERTEX_POINT ( 'NONE', #42 ) ;
#342 = VERTEX_POINT ( 'NONE', #67 ) ;
#343 = FACE_BOUND ( 'NONE', #192, .T. ) ;
#344 = SHAPE_DEFINITION_REPRESENTATION ( #371, #272 ) ;
#345 = CYLINDRICAL_SURFACE ( 'NONE', #106, 2.500000000000057700 ) ;
#346 = FACE_OUTER_BOUND ( 'NONE', #196, .T. ) ;
#347 = FACE_OUTER_BOUND ( 'NONE', #199, .T. ) ;
#348 = FACE_OUTER_BOUND ( 'NONE', #194, .T. ) ;
#349 = FACE_OUTER_BOUND ( 'NONE', #94, .T. ) ;
#350 = FACE_OUTER_BOUND ( 'NONE', #185, .T. ) ;
#351 = VECTOR ( 'NONE', #412, 1000.000000000000000 ) ;
#352 = LINE ( 'NONE', #396, #292 ) ;
#353 = CIRCLE ( 'NONE', #116, 2.500000000000002200 ) ;
#354 = FACE_OUTER_BOUND ( 'NONE', #183, .T. ) ;
#355 = VECTOR ( 'NONE', #385, 1000.000000000000000 ) ;
#356 = VECTOR ( 'NONE', #377, 1000.000000000000000 ) ;
#357 = VECTOR ( 'NONE', #382, 1000.000000000000000 ) ;
#358 = VECTOR ( 'NONE', #380, 1000.000000000000000 ) ;
#359 = CYLINDRICAL_SURFACE ( 'NONE', #112, 2.500000000000002200 ) ;
#360 = LINE ( 'NONE', #386, #355 ) ;
#361 = LINE ( 'NONE', #414, #303 ) ;
#362 = FACE_OUTER_BOUND ( 'NONE', #195, .T. ) ;
#363 = VECTOR ( 'NONE', #46, 1000.000000000000000 ) ;
#364 = LINE ( 'NONE', #383, #358 ) ;
#365 = LINE ( 'NONE', #384, #357 ) ;
#366 = LINE ( 'NONE', #378, #356 ) ;
#367 = LINE ( 'NONE', #85, #290 ) ;
#368 = CIRCLE ( 'NONE', #117, 2.500000000000057700 ) ;
#369 = VECTOR ( 'NONE', #388, 1000.000000000000000 ) ;
#370 = FACE_BOUND ( 'NONE', #198, .T. ) ;
#371 = PRODUCT_DEFINITION_SHAPE ( 'NONE', 'NONE',  #157 ) ;
#372 = DESIGN_CONTEXT ( 'detailed design', #54, 'design' ) ;
#373 = CARTESIAN_POINT ( 'NONE',  ( -301.8000000000000100, 0.8000000000000000400, 0.0000000000000000000 ) ) ;
#374 = CARTESIAN_POINT ( 'NONE',  ( -301.0000000000000000, -14.00000000000000000, 860.0000000000000000 ) ) ;
#375 = CARTESIAN_POINT ( 'NONE',  ( 2.653208575337321100E-015, 0.0000000000000000000, 845.0000000000001100 ) ) ;
#376 = CARTESIAN_POINT ( 'NONE',  ( -301.0000000000000000, 0.0000000000000000000, 860.0000000000000000 ) ) ;
#377 = DIRECTION ( 'NONE',  ( -0.0000000000000000000, 1.000000000000000000, -0.0000000000000000000 ) ) ;
#378 = CARTESIAN_POINT ( 'NONE',  ( -301.0000000000000000, 0.0000000000000000000, 860.0000000000000000 ) ) ;
#379 = DIRECTION ( 'NONE',  ( 1.000000000000000000, 0.0000000000000000000, 0.0000000000000000000 ) ) ;
#380 = DIRECTION ( 'NONE',  ( -0.0000000000000000000, -0.0000000000000000000, -1.000000000000000000 ) ) ;
#381 = CARTESIAN_POINT ( 'NONE',  ( 1.734723475976807100E-015, 0.0000000000000000000, 14.99999999999999300 ) ) ;
#382 = DIRECTION ( 'NONE',  ( -0.0000000000000000000, 1.000000000000000000, -0.0000000000000000000 ) ) ;
#383 = CARTESIAN_POINT ( 'NONE',  ( -301.0000000000000000, 0.0000000000000000000, 860.0000000000000000 ) ) ;
#384 = CARTESIAN_POINT ( 'NONE',  ( -301.0000000000000000, 0.0000000000000000000, 0.0000000000000000000 ) ) ;
#385 = DIRECTION ( 'NONE',  ( -1.000000000000000000, 0.0000000000000000000, 0.0000000000000000000 ) ) ;
#386 = CARTESIAN_POINT ( 'NONE',  ( -301.0000000000000000, -14.00000000000000000, 860.0000000000000000 ) ) ;
#387 = DIRECTION ( 'NONE',  ( -0.0000000000000000000, -1.000000000000000000, -0.0000000000000000000 ) ) ;
#388 = DIRECTION ( 'NONE',  ( -0.0000000000000000000, -0.0000000000000000000, -1.000000000000000000 ) ) ;
#389 = DIRECTION ( 'NONE',  ( -0.0000000000000000000, -0.0000000000000000000, -1.000000000000000000 ) ) ;
#390 = CARTESIAN_POINT ( 'NONE',  ( 301.8000000000000100, 0.0000000000000000000, 0.0000000000000000000 ) ) ;
#391 = CARTESIAN_POINT ( 'NONE',  ( -301.0000000000000000, -14.00000000000000000, 860.0000000000000000 ) ) ;
#392 = DIRECTION ( 'NONE',  ( -1.000000000000000000, 0.0000000000000000000, 0.0000000000000000000 ) ) ;
#393 = CARTESIAN_POINT ( 'NONE',  ( -301.0000000000000000, -14.00000000000000000, 0.0000000000000000000 ) ) ;
#394 = DIRECTION ( 'NONE',  ( 0.0000000000000000000, 1.000000000000000000, 0.0000000000000000000 ) ) ;
#395 = DIRECTION ( 'NONE',  ( -0.0000000000000000000, -0.0000000000000000000, -1.000000000000000000 ) ) ;
#396 = CARTESIAN_POINT ( 'NONE',  ( -301.0000000000000000, 0.8000000000000000400, 0.0000000000000000000 ) ) ;
#397 = CARTESIAN_POINT ( 'NONE',  ( -301.8000000000000100, -14.00000000000000000, 860.0000000000000000 ) ) ;
#398 = DIRECTION ( 'NONE',  ( 0.0000000000000000000, 1.000000000000000000, 0.0000000000000000000 ) ) ;
#399 = CARTESIAN_POINT ( 'NONE',  ( 301.8000000000000100, 0.8000000000000000400, 860.0000000000000000 ) ) ;
#400 = CARTESIAN_POINT ( 'NONE',  ( -301.0000000000000000, 0.8000000000000000400, 860.0000000000000000 ) ) ;
#401 = DIRECTION ( 'NONE',  ( -0.0000000000000000000, -0.0000000000000000000, -1.000000000000000000 ) ) ;
#402 = DIRECTION ( 'NONE',  ( 0.0000000000000000000, 0.0000000000000000000, 1.000000000000000000 ) ) ;
#403 = DIRECTION ( 'NONE',  ( 0.0000000000000000000, 1.000000000000000000, 0.0000000000000000000 ) ) ;
#404 = CARTESIAN_POINT ( 'NONE',  ( 1.734723475976807100E-015, 0.8000000000000000400, 14.99999999999999300 ) ) ;
#405 = CARTESIAN_POINT ( 'NONE',  ( -301.8000000000000100, 0.0000000000000000000, 860.0000000000000000 ) ) ;
#406 = DIRECTION ( 'NONE',  ( 0.0000000000000000000, 0.0000000000000000000, -1.000000000000000000 ) ) ;
#407 = DIRECTION ( 'NONE',  ( -0.0000000000000000000, 1.000000000000000000, -0.0000000000000000000 ) ) ;
#408 = CARTESIAN_POINT ( 'NONE',  ( 2.653208575337321100E-015, 0.8000000000000000400, 845.0000000000001100 ) ) ;
#409 = CARTESIAN_POINT ( 'NONE',  ( -301.8000000000000100, 0.0000000000000000000, 0.0000000000000000000 ) ) ;
#410 = DIRECTION ( 'NONE',  ( 0.0000000000000000000, 0.0000000000000000000, 1.000000000000000000 ) ) ;
#411 = DIRECTION ( 'NONE',  ( 1.000000000000000000, 0.0000000000000000000, 0.0000000000000000000 ) ) ;
#412 = DIRECTION ( 'NONE',  ( -0.0000000000000000000, -1.000000000000000000, 0.0000000000000000000 ) ) ;
#413 = DIRECTION ( 'NONE',  ( 0.0000000000000000000, -1.000000000000000000, 0.0000000000000000000 ) ) ;
#414 = CARTESIAN_POINT ( 'NONE',  ( -301.0000000000000000, 0.0000000000000000000, 0.0000000000000000000 ) ) ;
#415 = CARTESIAN_POINT ( 'NONE',  ( -301.8000000000000100, 0.8000000000000000400, 860.0000000000000000 ) ) ;
#416 = CARTESIAN_POINT ( 'NONE',  ( 301.0000000000000000, 0.0000000000000000000, 860.0000000000000000 ) ) ;
#417 = DIRECTION ( 'NONE',  ( 0.0000000000000000000, -1.000000000000000000, 0.0000000000000000000 ) ) ;
#418 = DIRECTION ( 'NONE',  ( -1.000000000000000000, 0.0000000000000000000, 0.0000000000000000000 ) ) ;
#419 = CARTESIAN_POINT ( 'NONE',  ( 301.0000000000000000, -14.00000000000000000, 860.0000000000000000 ) ) ;
#420 = DIRECTION ( 'NONE',  ( -0.0000000000000000000, -0.0000000000000000000, -1.000000000000000000 ) ) ;
#421 = DIRECTION ( 'NONE',  ( -0.0000000000000000000, -0.0000000000000000000, -1.000000000000000000 ) ) ;
#422 = CARTESIAN_POINT ( 'NONE',  ( 301.0000000000000000, 0.0000000000000000000, 860.0000000000000000 ) ) ;
#423 = CARTESIAN_POINT ( 'NONE',  ( 301.0000000000000000, 0.0000000000000000000, 0.0000000000000000000 ) ) ;
#424 = CARTESIAN_POINT ( 'NONE',  ( 301.8000000000000100, -14.00000000000000000, 0.0000000000000000000 ) ) ;
#425 = CARTESIAN_POINT ( 'NONE',  ( 301.0000000000000000, -14.00000000000000000, 0.0000000000000000000 ) ) ;
#426 = CARTESIAN_POINT ( 'NONE',  ( 301.8000000000000100, -14.00000000000000000, 860.0000000000000000 ) ) ;
#427 = CARTESIAN_POINT ( 'NONE',  ( 301.8000000000000100, -14.00000000000000000, 0.0000000000000000000 ) ) ;
#428 = CARTESIAN_POINT ( 'NONE',  ( -301.8000000000000100, 0.8000000000000000400, 860.0000000000000000 ) ) ;
#429 = CARTESIAN_POINT ( 'NONE',  ( -301.8000000000000100, -14.00000000000000000, 860.0000000000000000 ) ) ;
#430 = CARTESIAN_POINT ( 'NONE',  ( -301.8000000000000100, -14.00000000000000000, 0.0000000000000000000 ) ) ;
#431 = CARTESIAN_POINT ( 'NONE',  ( 301.0000000000000000, -14.00000000000000000, 860.0000000000000000 ) ) ;
#432 = CARTESIAN_POINT ( 'NONE',  ( -301.0000000000000000, -14.00000000000000000, 0.0000000000000000000 ) ) ;
#433 = CARTESIAN_POINT ( 'NONE',  ( 301.8000000000000100, 0.8000000000000000400, 860.0000000000000000 ) ) ;
#434 = CARTESIAN_POINT ( 'NONE',  ( 301.0000000000000000, 0.0000000000000000000, 860.0000000000000000 ) ) ;
#435 = CARTESIAN_POINT ( 'NONE',  ( -301.0000000000000000, 0.0000000000000000000, 860.0000000000000000 ) ) ;
#436 = CARTESIAN_POINT ( 'NONE',  ( 301.8000000000000100, 0.8000000000000000400, 0.0000000000000000000 ) ) ;
#437 = CARTESIAN_POINT ( 'NONE',  ( -301.0000000000000000, 0.0000000000000000000, 0.0000000000000000000 ) ) ;
ENDSEC;
END-ISO-10303-21;
