ISO-10303-21;
HEADER;
FILE_DESCRIPTION (( 'STEP AP203' ),
    '1' );
FILE_NAME ('Êðûøêà íà óãîë âåðòèêàëüíûé âíåøíèé CDSD 90_38287.STEP',
    '2012-11-09T08:45:06',
    ( 'Àñååâ' ),
    ( '' ),
    'SwSTEP 2.0',
    'SolidWorks 2012',
    '' );
FILE_SCHEMA (( 'CONFIG_CONTROL_DESIGN' ));
ENDSEC;

DATA;
#1 = CARTESIAN_POINT ( 'NONE',  ( -251.8000000000000100, 0.8000000000000000400, 0.0000000000000000000 ) ) ;
#2 = DIRECTION ( 'NONE',  ( -0.0000000000000000000, 1.000000000000000000, -0.0000000000000000000 ) ) ;
#3 = CARTESIAN_POINT ( 'NONE',  ( -251.0000000000000000, 0.0000000000000000000, 0.0000000000000000000 ) ) ;
#4 = DIRECTION ( 'NONE',  ( -1.000000000000000000, 0.0000000000000000000, 0.0000000000000000000 ) ) ;
#5 = CARTESIAN_POINT ( 'NONE',  ( 251.0000000000000000, 0.0000000000000000000, 0.0000000000000000000 ) ) ;
#6 = CARTESIAN_POINT ( 'NONE',  ( -251.8000000000000100, 0.8000000000000000400, 631.0000000000000000 ) ) ;
#7 = CARTESIAN_POINT ( 'NONE',  ( 251.8000000000000100, 0.0000000000000000000, 631.0000000000000000 ) ) ;
#8 = CARTESIAN_POINT ( 'NONE',  ( -251.0000000000000000, 0.0000000000000000000, 0.0000000000000000000 ) ) ;
#9 = CARTESIAN_POINT ( 'NONE',  ( -251.0000000000000000, 0.0000000000000000000, 631.0000000000000000 ) ) ;
#10 = CARTESIAN_POINT ( 'NONE',  ( -251.8000000000000100, -14.00000000000000000, 631.0000000000000000 ) ) ;
#11 = CARTESIAN_POINT ( 'NONE',  ( 251.8000000000000100, 0.8000000000000000400, 631.0000000000000000 ) ) ;
#12 = CARTESIAN_POINT ( 'NONE',  ( -251.0000000000000000, -14.00000000000000000, 631.0000000000000000 ) ) ;
#13 = CARTESIAN_POINT ( 'NONE',  ( 251.0000000000000000, -14.00000000000000000, 631.0000000000000000 ) ) ;
#14 = CARTESIAN_POINT ( 'NONE',  ( 251.0000000000000000, -14.00000000000000000, 631.0000000000000000 ) ) ;
#15 = CARTESIAN_POINT ( 'NONE',  ( -251.8000000000000100, -14.00000000000000000, 0.0000000000000000000 ) ) ;
#16 = CARTESIAN_POINT ( 'NONE',  ( 2.653208575337321500E-015, 0.0000000000000000000, 616.0000000000001100 ) ) ;
#17 = CARTESIAN_POINT ( 'NONE',  ( -251.0000000000000000, 0.0000000000000000000, 631.0000000000000000 ) ) ;
#18 = CARTESIAN_POINT ( 'NONE',  ( 251.8000000000000100, 0.0000000000000000000, 0.0000000000000000000 ) ) ;
#19 = DIRECTION ( 'NONE',  ( -0.0000000000000000000, -1.000000000000000000, -0.0000000000000000000 ) ) ;
#20 = CARTESIAN_POINT ( 'NONE',  ( -251.0000000000000000, -14.00000000000000000, 0.0000000000000000000 ) ) ;
#21 = CARTESIAN_POINT ( 'NONE',  ( 251.0000000000000000, -14.00000000000000000, 0.0000000000000000000 ) ) ;
#22 = DIRECTION ( 'NONE',  ( -0.0000000000000000000, -1.000000000000000000, 0.0000000000000000000 ) ) ;
#23 = CARTESIAN_POINT ( 'NONE',  ( 251.0000000000000000, 0.0000000000000000000, 631.0000000000000000 ) ) ;
#24 = CARTESIAN_POINT ( 'NONE',  ( 1.734723475976807100E-015, 0.8000000000000000400, 14.99999999999999300 ) ) ;
#25 = DIRECTION ( 'NONE',  ( 0.0000000000000000000, 1.000000000000000000, 0.0000000000000000000 ) ) ;
#26 = CARTESIAN_POINT ( 'NONE',  ( 251.8000000000000100, -14.00000000000000000, 631.0000000000000000 ) ) ;
#27 = DIRECTION ( 'NONE',  ( 0.0000000000000000000, 0.0000000000000000000, 1.000000000000000000 ) ) ;
#28 = DIRECTION ( 'NONE',  ( -0.0000000000000000000, 1.000000000000000000, -0.0000000000000000000 ) ) ;
#29 = DIRECTION ( 'NONE',  ( 1.000000000000000000, 0.0000000000000000000, 0.0000000000000000000 ) ) ;
#30 = CARTESIAN_POINT ( 'NONE',  ( 0.0000000000000000000, 0.0000000000000000000, 0.0000000000000000000 ) ) ;
#31 = CARTESIAN_POINT ( 'NONE',  ( 2.653208575337321500E-015, 0.0000000000000000000, 618.5000000000001100 ) ) ;
#32 = CARTESIAN_POINT ( 'NONE',  ( 2.653208575337321500E-015, 0.8000000000000000400, 613.5000000000000000 ) ) ;
#33 = CARTESIAN_POINT ( 'NONE',  ( 1.734723475976807100E-015, 0.8000000000000000400, 17.49999999999999600 ) ) ;
#34 = DIRECTION ( 'NONE',  ( 0.0000000000000000000, -0.0000000000000000000, -1.000000000000000000 ) ) ;
#35 = DIRECTION ( 'NONE',  ( 0.0000000000000000000, -1.000000000000000000, 0.0000000000000000000 ) ) ;
#36 = PLANE ( 'NONE',  #407 ) ;
#37 = DIRECTION ( 'NONE',  ( -0.0000000000000000000, -1.000000000000000000, -0.0000000000000000000 ) ) ;
#38 = DIRECTION ( 'NONE',  ( 0.0000000000000000000, -0.0000000000000000000, 1.000000000000000000 ) ) ;
#39 = CARTESIAN_POINT ( 'NONE',  ( 251.8000000000000100, 0.8000000000000000400, 631.0000000000000000 ) ) ;
#40 = CARTESIAN_POINT ( 'NONE',  ( 1.734723475976807100E-015, 0.0000000000000000000, 14.99999999999999300 ) ) ;
#41 = CARTESIAN_POINT ( 'NONE',  ( -251.0000000000000000, -14.00000000000000000, 631.0000000000000000 ) ) ;
#42 = PLANE ( 'NONE',  #418 ) ;
#43 = DIRECTION ( 'NONE',  ( 0.0000000000000000000, 0.0000000000000000000, 1.000000000000000000 ) ) ;
#44 = DIRECTION ( 'NONE',  ( 0.0000000000000000000, 0.0000000000000000000, 1.000000000000000000 ) ) ;
#45 = DIRECTION ( 'NONE',  ( 0.0000000000000000000, 0.0000000000000000000, 1.000000000000000000 ) ) ;
#46 = DIRECTION ( 'NONE',  ( 1.000000000000000000, 0.0000000000000000000, 0.0000000000000000000 ) ) ;
#47 = APPLICATION_CONTEXT ( 'configuration controlled 3d designs of mechanical parts and assemblies' ) ;
#48 = CARTESIAN_POINT ( 'NONE',  ( 1.734723475976807100E-015, 0.0000000000000000000, 17.49999999999999600 ) ) ;
#49 = CARTESIAN_POINT ( 'NONE',  ( -251.0000000000000000, 0.0000000000000000000, 631.0000000000000000 ) ) ;
#50 = DIRECTION ( 'NONE',  ( -0.0000000000000000000, 0.0000000000000000000, -1.000000000000000000 ) ) ;
#51 = DIRECTION ( 'NONE',  ( 1.000000000000000000, 0.0000000000000000000, -0.0000000000000000000 ) ) ;
#52 = PLANE ( 'NONE',  #420 ) ;
#53 = DIRECTION ( 'NONE',  ( -0.0000000000000000000, -0.0000000000000000000, -1.000000000000000000 ) ) ;
#54 = DIRECTION ( 'NONE',  ( 0.0000000000000000000, -0.0000000000000000000, -1.000000000000000000 ) ) ;
#55 = DIRECTION ( 'NONE',  ( 0.0000000000000000000, -1.000000000000000000, 0.0000000000000000000 ) ) ;
#56 = CARTESIAN_POINT ( 'NONE',  ( 251.8000000000000100, -14.00000000000000000, 0.0000000000000000000 ) ) ;
#57 = DIRECTION ( 'NONE',  ( 0.0000000000000000000, 1.000000000000000000, 0.0000000000000000000 ) ) ;
#58 = PLANE ( 'NONE',  #421 ) ;
#59 = DIRECTION ( 'NONE',  ( -0.0000000000000000000, 0.0000000000000000000, -1.000000000000000000 ) ) ;
#60 = DIRECTION ( 'NONE',  ( 1.000000000000000000, 0.0000000000000000000, -0.0000000000000000000 ) ) ;
#61 = DATE_TIME_ROLE ( 'creation_date' ) ;
#62 = CARTESIAN_POINT ( 'NONE',  ( 251.8000000000000100, 0.0000000000000000000, 631.0000000000000000 ) ) ;
#63 = APPROVAL_STATUS ( 'not_yet_approved' ) ;
#64 = APPROVAL_ROLE ( '' ) ;
#65 = PERSON_AND_ORGANIZATION_ROLE ( 'classification_officer' ) ;
#66 = PERSON_AND_ORGANIZATION_ROLE ( 'creator' ) ;
#67 = SECURITY_CLASSIFICATION_LEVEL ( 'unclassified' ) ;
#68 = APPROVAL_STATUS ( 'not_yet_approved' ) ;
#69 = DIRECTION ( 'NONE',  ( -0.0000000000000000000, 1.000000000000000000, -0.0000000000000000000 ) ) ;
#70 = CARTESIAN_POINT ( 'NONE',  ( 251.8000000000000100, -14.00000000000000000, 0.0000000000000000000 ) ) ;
#71 = APPROVAL_ROLE ( '' ) ;
#72 = CARTESIAN_POINT ( 'NONE',  ( 251.8000000000000100, 0.8000000000000000400, 0.0000000000000000000 ) ) ;
#73 = DATE_TIME_ROLE ( 'classification_date' ) ;
#74 = CARTESIAN_POINT ( 'NONE',  ( -251.8000000000000100, 0.0000000000000000000, 631.0000000000000000 ) ) ;
#75 = APPLICATION_PROTOCOL_DEFINITION ( 'international standard', 'config_control_design', 1994, #47 ) ;
#76 = DIRECTION ( 'NONE',  ( 0.0000000000000000000, 0.0000000000000000000, -1.000000000000000000 ) ) ;
#77 = DIRECTION ( 'NONE',  ( -0.0000000000000000000, -0.0000000000000000000, -1.000000000000000000 ) ) ;
#78 = CARTESIAN_POINT ( 'NONE',  ( -251.0000000000000000, 0.8000000000000000400, 0.0000000000000000000 ) ) ;
#79 = DIRECTION ( 'NONE',  ( -1.000000000000000000, 0.0000000000000000000, 0.0000000000000000000 ) ) ;
#80 = DIRECTION ( 'NONE',  ( -0.0000000000000000000, 0.0000000000000000000, -1.000000000000000000 ) ) ;
#81 = DIRECTION ( 'NONE',  ( 1.000000000000000000, 0.0000000000000000000, 0.0000000000000000000 ) ) ;
#82 = DIRECTION ( 'NONE',  ( 0.0000000000000000000, 0.0000000000000000000, 1.000000000000000000 ) ) ;
#83 = DIRECTION ( 'NONE',  ( -0.0000000000000000000, 1.000000000000000000, -0.0000000000000000000 ) ) ;
#84 = CARTESIAN_POINT ( 'NONE',  ( 251.8000000000000100, -14.00000000000000000, 631.0000000000000000 ) ) ;
#85 = CARTESIAN_POINT ( 'NONE',  ( -251.0000000000000000, 0.8000000000000000400, 631.0000000000000000 ) ) ;
#86 = DIRECTION ( 'NONE',  ( 0.0000000000000000000, -1.000000000000000000, 0.0000000000000000000 ) ) ;
#87 = PERSON_AND_ORGANIZATION_ROLE ( 'design_supplier' ) ;
#88 = PLANE ( 'NONE',  #362 ) ;
#89 = APPROVAL_ROLE ( '' ) ;
#90 = DIRECTION ( 'NONE',  ( 1.000000000000000000, 0.0000000000000000000, 0.0000000000000000000 ) ) ;
#91 = MECHANICAL_CONTEXT ( 'NONE', #47, 'mechanical' ) ;
#92 = CARTESIAN_POINT ( 'NONE',  ( -251.8000000000000100, 0.8000000000000000400, 631.0000000000000000 ) ) ;
#93 = CARTESIAN_POINT ( 'NONE',  ( 251.0000000000000000, 0.0000000000000000000, 0.0000000000000000000 ) ) ;
#94 = CARTESIAN_POINT ( 'NONE',  ( 2.653208575337321500E-015, 0.8000000000000000400, 616.0000000000001100 ) ) ;
#95 = CARTESIAN_POINT ( 'NONE',  ( -251.8000000000000100, 0.0000000000000000000, 631.0000000000000000 ) ) ;
#96 = DIRECTION ( 'NONE',  ( -0.0000000000000000000, -0.0000000000000000000, -1.000000000000000000 ) ) ;
#97 = DIRECTION ( 'NONE',  ( -1.000000000000000000, 0.0000000000000000000, 0.0000000000000000000 ) ) ;
#98 = DIRECTION ( 'NONE',  ( 0.0000000000000000000, 0.0000000000000000000, 1.000000000000000000 ) ) ;
#99 = PLANE ( 'NONE',  #367 ) ;
#100 = DIRECTION ( 'NONE',  ( 0.0000000000000000000, 0.0000000000000000000, 1.000000000000000000 ) ) ;
#101 = DIRECTION ( 'NONE',  ( -1.000000000000000000, 0.0000000000000000000, 0.0000000000000000000 ) ) ;
#102 = CARTESIAN_POINT ( 'NONE',  ( 251.0000000000000000, 0.0000000000000000000, 631.0000000000000000 ) ) ;
#103 = CARTESIAN_POINT ( 'NONE',  ( 251.0000000000000000, 0.0000000000000000000, 631.0000000000000000 ) ) ;
#104 = DIRECTION ( 'NONE',  ( -0.0000000000000000000, -0.0000000000000000000, -1.000000000000000000 ) ) ;
#105 = DIRECTION ( 'NONE',  ( -0.0000000000000000000, -0.0000000000000000000, -1.000000000000000000 ) ) ;
#106 = CARTESIAN_POINT ( 'NONE',  ( 251.8000000000000100, -14.00000000000000000, 631.0000000000000000 ) ) ;
#107 = CARTESIAN_POINT ( 'NONE',  ( -251.0000000000000000, -14.00000000000000000, 631.0000000000000000 ) ) ;
#108 = APPROVAL_STATUS ( 'not_yet_approved' ) ;
#109 = PERSON_AND_ORGANIZATION_ROLE ( 'creator' ) ;
#110 = DIRECTION ( 'NONE',  ( -0.0000000000000000000, -1.000000000000000000, 0.0000000000000000000 ) ) ;
#111 =( NAMED_UNIT ( * ) PLANE_ANGLE_UNIT ( ) SI_UNIT ( $, .RADIAN. ) );
#112 =( LENGTH_UNIT ( ) NAMED_UNIT ( * ) SI_UNIT ( .MILLI., .METRE. ) );
#113 = DIRECTION ( 'NONE',  ( -1.000000000000000000, 0.0000000000000000000, 0.0000000000000000000 ) ) ;
#114 = DIRECTION ( 'NONE',  ( 0.0000000000000000000, -1.000000000000000000, 0.0000000000000000000 ) ) ;
#115 = CARTESIAN_POINT ( 'NONE',  ( 1.734723475976807100E-015, -14.00099999999999900, 14.99999999999999300 ) ) ;
#116 =( NAMED_UNIT ( * ) SI_UNIT ( $, .STERADIAN. ) SOLID_ANGLE_UNIT ( ) );
#117 = DIRECTION ( 'NONE',  ( -0.0000000000000000000, -0.0000000000000000000, -1.000000000000000000 ) ) ;
#118 = DIRECTION ( 'NONE',  ( -1.000000000000000000, 0.0000000000000000000, 0.0000000000000000000 ) ) ;
#119 = CARTESIAN_POINT ( 'NONE',  ( 2.653208575337321500E-015, -14.00099999999999900, 616.0000000000001100 ) ) ;
#120 = PLANE ( 'NONE',  #364 ) ;
#121 = PLANE ( 'NONE',  #368 ) ;
#122 = CARTESIAN_POINT ( 'NONE',  ( -251.0000000000000000, 0.0000000000000000000, 631.0000000000000000 ) ) ;
#123 = PLANE ( 'NONE',  #423 ) ;
#124 = DIRECTION ( 'NONE',  ( -0.0000000000000000000, 0.0000000000000000000, -1.000000000000000000 ) ) ;
#125 = CARTESIAN_POINT ( 'NONE',  ( -251.8000000000000100, 0.0000000000000000000, 0.0000000000000000000 ) ) ;
#126 = DIRECTION ( 'NONE',  ( 0.0000000000000000000, 1.000000000000000000, 0.0000000000000000000 ) ) ;
#127 = CARTESIAN_POINT ( 'NONE',  ( 251.8000000000000100, -14.00000000000000000, 631.0000000000000000 ) ) ;
#128 = CARTESIAN_POINT ( 'NONE',  ( -251.8000000000000100, -14.00000000000000000, 631.0000000000000000 ) ) ;
#129 = DIRECTION ( 'NONE',  ( 0.0000000000000000000, 1.000000000000000000, 0.0000000000000000000 ) ) ;
#130 = CARTESIAN_POINT ( 'NONE',  ( -251.0000000000000000, 0.0000000000000000000, 631.0000000000000000 ) ) ;
#131 = CARTESIAN_POINT ( 'NONE',  ( -251.0000000000000000, 0.8000000000000000400, 631.0000000000000000 ) ) ;
#132 = PLANE ( 'NONE',  #422 ) ;
#133 = PERSON_AND_ORGANIZATION_ROLE ( 'design_owner' ) ;
#134 = DIRECTION ( 'NONE',  ( -0.0000000000000000000, -0.0000000000000000000, -1.000000000000000000 ) ) ;
#135 = APPLICATION_PROTOCOL_DEFINITION ( 'international standard', 'config_control_design', 1994, #138 ) ;
#136 = DIRECTION ( 'NONE',  ( 0.0000000000000000000, 1.000000000000000000, 0.0000000000000000000 ) ) ;
#137 = DIRECTION ( 'NONE',  ( 0.0000000000000000000, -0.0000000000000000000, 1.000000000000000000 ) ) ;
#138 = APPLICATION_CONTEXT ( 'configuration controlled 3d designs of mechanical parts and assemblies' ) ;
#139 = CARTESIAN_POINT ( 'NONE',  ( -251.0000000000000000, -14.00000000000000000, 0.0000000000000000000 ) ) ;
#140 = DIRECTION ( 'NONE',  ( 1.000000000000000000, 0.0000000000000000000, 0.0000000000000000000 ) ) ;
#141 = CARTESIAN_POINT ( 'NONE',  ( 0.0000000000000000000, 0.0000000000000000000, 0.0000000000000000000 ) ) ;
#142 = DIRECTION ( 'NONE',  ( -1.000000000000000000, 0.0000000000000000000, 0.0000000000000000000 ) ) ;
#143 = CARTESIAN_POINT ( 'NONE',  ( 251.0000000000000000, 0.0000000000000000000, 631.0000000000000000 ) ) ;
#144 = CARTESIAN_POINT ( 'NONE',  ( -251.0000000000000000, -14.00000000000000000, 631.0000000000000000 ) ) ;
#145 = DIRECTION ( 'NONE',  ( -0.0000000000000000000, -0.0000000000000000000, -1.000000000000000000 ) ) ;
#146 = DIRECTION ( 'NONE',  ( -1.000000000000000000, 0.0000000000000000000, 0.0000000000000000000 ) ) ;
#147 = CARTESIAN_POINT ( 'NONE',  ( 0.0000000000000000000, 0.0000000000000000000, 631.0000000000000000 ) ) ;
#148 = DIRECTION ( 'NONE',  ( 0.0000000000000000000, 0.0000000000000000000, 1.000000000000000000 ) ) ;
#149 = CARTESIAN_POINT ( 'NONE',  ( -251.0000000000000000, 0.0000000000000000000, 0.0000000000000000000 ) ) ;
#150 = DIRECTION ( 'NONE',  ( -0.0000000000000000000, 1.000000000000000000, -0.0000000000000000000 ) ) ;
#151 = CARTESIAN_POINT ( 'NONE',  ( -251.0000000000000000, 0.0000000000000000000, 631.0000000000000000 ) ) ;
#152 = PRODUCT ( 'Êðûøêà íà óãîë âåðòèêàëüíûé âíåøíèé CDSD 90_38287', 'Êðûøêà íà óãîë âåðòèêàëüíûé âíåøíèé CDSD 90_38287', '', ( #91 ) ) ;
#153 = PERSON ( 'UNSPECIFIED', 'UNSPECIFIED', 'UNSPECIFIED', ('UNSPECIFIED'), ('UNSPECIFIED'), ('UNSPECIFIED') ) ;
#154 = APPROVAL_DATE_TIME ( #155, #394 ) ;
#155 = DATE_AND_TIME ( #156, #157 ) ;
#156 = CALENDAR_DATE ( 2012, 9, 11 ) ;
#157 = LOCAL_TIME ( 12, 45, 6.000000000000000000, #158 ) ;
#158 = COORDINATED_UNIVERSAL_TIME_OFFSET ( 4, 0, .AHEAD. ) ;
#159 = APPROVAL_PERSON_ORGANIZATION ( #160, #394, #71 ) ;
#160 = PERSON_AND_ORGANIZATION ( #153, #198 ) ;
#161 = DATE_AND_TIME ( #162, #163 ) ;
#162 = CALENDAR_DATE ( 2012, 9, 11 ) ;
#163 = LOCAL_TIME ( 12, 45, 6.000000000000000000, #164 ) ;
#164 = COORDINATED_UNIVERSAL_TIME_OFFSET ( 4, 0, .AHEAD. ) ;
#165 = PERSON_AND_ORGANIZATION ( #153, #198 ) ;
#166 = PERSON_AND_ORGANIZATION ( #153, #198 ) ;
#167 = PERSON_AND_ORGANIZATION ( #153, #198 ) ;
#168 = APPROVAL_DATE_TIME ( #169, #363 ) ;
#169 = DATE_AND_TIME ( #170, #171 ) ;
#170 = CALENDAR_DATE ( 2012, 9, 11 ) ;
#171 = LOCAL_TIME ( 12, 45, 6.000000000000000000, #172 ) ;
#172 = COORDINATED_UNIVERSAL_TIME_OFFSET ( 4, 0, .AHEAD. ) ;
#173 = LINE ( 'NONE', #7, #314 ) ;
#174 = VECTOR ( 'NONE', #110, 1000.000000000000000 ) ;
#175 = APPROVAL_PERSON_ORGANIZATION ( #176, #363, #64 ) ;
#176 = PERSON_AND_ORGANIZATION ( #153, #198 ) ;
#177 = DATE_AND_TIME ( #184, #185 ) ;
#178 = ORIENTED_EDGE ( 'NONE', *, *, #396, .F. ) ;
#179 = ORIENTED_EDGE ( 'NONE', *, *, #390, .T. ) ;
#180 = ORIENTED_EDGE ( 'NONE', *, *, #397, .F. ) ;
#181 = ORIENTED_EDGE ( 'NONE', *, *, #393, .T. ) ;
#182 = ORIENTED_EDGE ( 'NONE', *, *, #400, .F. ) ;
#183 = ORIENTED_EDGE ( 'NONE', *, *, #405, .T. ) ;
#184 = CALENDAR_DATE ( 2012, 9, 11 ) ;
#185 = LOCAL_TIME ( 12, 45, 6.000000000000000000, #186 ) ;
#186 = COORDINATED_UNIVERSAL_TIME_OFFSET ( 4, 0, .AHEAD. ) ;
#187 = ORIENTED_EDGE ( 'NONE', *, *, #406, .F. ) ;
#188 = PERSON_AND_ORGANIZATION ( #153, #198 ) ;
#189 = APPROVAL_DATE_TIME ( #191, #416 ) ;
#190 = ORIENTED_EDGE ( 'NONE', *, *, #398, .T. ) ;
#191 = DATE_AND_TIME ( #192, #193 ) ;
#192 = CALENDAR_DATE ( 2012, 9, 11 ) ;
#193 = LOCAL_TIME ( 12, 45, 6.000000000000000000, #194 ) ;
#194 = COORDINATED_UNIVERSAL_TIME_OFFSET ( 4, 0, .AHEAD. ) ;
#195 = APPROVAL_PERSON_ORGANIZATION ( #196, #416, #89 ) ;
#196 = PERSON_AND_ORGANIZATION ( #153, #198 ) ;
#197 = PERSON_AND_ORGANIZATION ( #153, #198 ) ;
#198 = ORGANIZATION ( 'UNSPECIFIED', 'UNSPECIFIED', '' ) ;
#199 = VERTEX_POINT ( 'NONE', #48 ) ;
#200 = VERTEX_POINT ( 'NONE', #31 ) ;
#201 = VERTEX_POINT ( 'NONE', #33 ) ;
#202 = VERTEX_POINT ( 'NONE', #32 ) ;
#203 = SHAPE_DEFINITION_REPRESENTATION ( #437, #358 ) ;
#204 = FACE_BOUND ( 'NONE', #342, .T. ) ;
#205 = FACE_OUTER_BOUND ( 'NONE', #341, .T. ) ;
#206 = FACE_OUTER_BOUND ( 'NONE', #289, .T. ) ;
#207 = FACE_BOUND ( 'NONE', #345, .T. ) ;
#208 = FACE_OUTER_BOUND ( 'NONE', #331, .T. ) ;
#209 = FACE_OUTER_BOUND ( 'NONE', #335, .T. ) ;
#210 = FACE_OUTER_BOUND ( 'NONE', #330, .T. ) ;
#211 = FACE_BOUND ( 'NONE', #336, .T. ) ;
#212 = CYLINDRICAL_SURFACE ( 'NONE', #366, 2.500000000000002200 ) ;
#213 = FACE_OUTER_BOUND ( 'NONE', #332, .T. ) ;
#214 = FACE_OUTER_BOUND ( 'NONE', #329, .T. ) ;
#215 = FACE_OUTER_BOUND ( 'NONE', #337, .T. ) ;
#216 = FACE_OUTER_BOUND ( 'NONE', #343, .T. ) ;
#217 = CYLINDRICAL_SURFACE ( 'NONE', #369, 2.500000000000057700 ) ;
#218 = FACE_BOUND ( 'NONE', #334, .T. ) ;
#219 = FACE_OUTER_BOUND ( 'NONE', #344, .T. ) ;
#220 = FACE_OUTER_BOUND ( 'NONE', #338, .T. ) ;
#221 = FACE_OUTER_BOUND ( 'NONE', #354, .T. ) ;
#222 = VECTOR ( 'NONE', #96, 1000.000000000000000 ) ;
#223 = FACE_OUTER_BOUND ( 'NONE', #333, .T. ) ;
#224 = VECTOR ( 'NONE', #86, 1000.000000000000000 ) ;
#225 = LINE ( 'NONE', #102, #222 ) ;
#226 = VECTOR ( 'NONE', #105, 1000.000000000000000 ) ;
#227 = ORIENTED_EDGE ( 'NONE', *, *, #377, .F. ) ;
#228 = LINE ( 'NONE', #103, #224 ) ;
#229 = VECTOR ( 'NONE', #79, 1000.000000000000000 ) ;
#230 = FACE_OUTER_BOUND ( 'NONE', #346, .T. ) ;
#231 = VECTOR ( 'NONE', #113, 1000.000000000000000 ) ;
#232 = LINE ( 'NONE', #106, #229 ) ;
#233 = VECTOR ( 'NONE', #114, 1000.000000000000000 ) ;
#234 = LINE ( 'NONE', #13, #226 ) ;
#235 = LINE ( 'NONE', #93, #233 ) ;
#236 = VECTOR ( 'NONE', #46, 1000.000000000000000 ) ;
#237 = VECTOR ( 'NONE', #81, 1000.000000000000000 ) ;
#238 = CIRCLE ( 'NONE', #370, 2.500000000000002200 ) ;
#239 = LINE ( 'NONE', #9, #237 ) ;
#240 = LINE ( 'NONE', #3, #236 ) ;
#241 = VECTOR ( 'NONE', #2, 1000.000000000000000 ) ;
#242 = LINE ( 'NONE', #56, #231 ) ;
#243 = VECTOR ( 'NONE', #77, 1000.000000000000000 ) ;
#244 = LINE ( 'NONE', #144, #349 ) ;
#245 = LINE ( 'NONE', #130, #241 ) ;
#246 = VECTOR ( 'NONE', #136, 1000.000000000000000 ) ;
#247 = LINE ( 'NONE', #151, #243 ) ;
#248 = ORIENTED_EDGE ( 'NONE', *, *, #396, .T. ) ;
#249 = CIRCLE ( 'NONE', #371, 2.500000000000057700 ) ;
#250 = VECTOR ( 'NONE', #146, 1000.000000000000000 ) ;
#251 = VECTOR ( 'NONE', #142, 1000.000000000000000 ) ;
#252 = ORIENTED_EDGE ( 'NONE', *, *, #403, .F. ) ;
#253 = ORIENTED_EDGE ( 'NONE', *, *, #385, .F. ) ;
#254 = ORIENTED_EDGE ( 'NONE', *, *, #402, .T. ) ;
#255 = ORIENTED_EDGE ( 'NONE', *, *, #388, .F. ) ;
#256 = LINE ( 'NONE', #149, #353 ) ;
#257 = VECTOR ( 'NONE', #134, 1000.000000000000000 ) ;
#258 = ORIENTED_EDGE ( 'NONE', *, *, #400, .T. ) ;
#259 = CLOSED_SHELL ( 'NONE', ( #433, #432, #431, #428, #425, #435, #429, #434, #430, #426, #427, #424 ) ) ;
#260 = ORIENTED_EDGE ( 'NONE', *, *, #379, .T. ) ;
#261 = ORIENTED_EDGE ( 'NONE', *, *, #397, .T. ) ;
#262 = ORIENTED_EDGE ( 'NONE', *, *, #378, .T. ) ;
#263 = ORIENTED_EDGE ( 'NONE', *, *, #393, .F. ) ;
#264 = ORIENTED_EDGE ( 'NONE', *, *, #391, .T. ) ;
#265 = ORIENTED_EDGE ( 'NONE', *, *, #392, .T. ) ;
#266 = ORIENTED_EDGE ( 'NONE', *, *, #395, .F. ) ;
#267 = ORIENTED_EDGE ( 'NONE', *, *, #401, .F. ) ;
#268 = ORIENTED_EDGE ( 'NONE', *, *, #392, .F. ) ;
#269 = ORIENTED_EDGE ( 'NONE', *, *, #381, .F. ) ;
#270 = ORIENTED_EDGE ( 'NONE', *, *, #404, .T. ) ;
#271 = ORIENTED_EDGE ( 'NONE', *, *, #386, .T. ) ;
#272 = ORIENTED_EDGE ( 'NONE', *, *, #389, .T. ) ;
#273 = ORIENTED_EDGE ( 'NONE', *, *, #375, .T. ) ;
#274 = ORIENTED_EDGE ( 'NONE', *, *, #381, .T. ) ;
#275 = ORIENTED_EDGE ( 'NONE', *, *, #391, .F. ) ;
#276 = ORIENTED_EDGE ( 'NONE', *, *, #375, .F. ) ;
#277 = LINE ( 'NONE', #139, #251 ) ;
#278 = ORIENTED_EDGE ( 'NONE', *, *, #398, .F. ) ;
#279 = ORIENTED_EDGE ( 'NONE', *, *, #395, .T. ) ;
#280 = ORIENTED_EDGE ( 'NONE', *, *, #390, .F. ) ;
#281 = ORIENTED_EDGE ( 'NONE', *, *, #389, .F. ) ;
#282 = ORIENTED_EDGE ( 'NONE', *, *, #376, .T. ) ;
#283 = ORIENTED_EDGE ( 'NONE', *, *, #387, .F. ) ;
#284 = ORIENTED_EDGE ( 'NONE', *, *, #386, .F. ) ;
#285 = ORIENTED_EDGE ( 'NONE', *, *, #388, .T. ) ;
#286 = ORIENTED_EDGE ( 'NONE', *, *, #403, .T. ) ;
#287 = ORIENTED_EDGE ( 'NONE', *, *, #382, .T. ) ;
#288 = ORIENTED_EDGE ( 'NONE', *, *, #401, .T. ) ;
#289 = EDGE_LOOP ( 'NONE', ( #190, #187, #182, #181 ) ) ;
#290 = CIRCLE ( 'NONE', #372, 2.500000000000002200 ) ;
#291 = VECTOR ( 'NONE', #104, 1000.000000000000000 ) ;
#292 = VECTOR ( 'NONE', #90, 1000.000000000000000 ) ;
#293 = LINE ( 'NONE', #18, #174 ) ;
#294 = VECTOR ( 'NONE', #117, 1000.000000000000000 ) ;
#295 = ORIENTED_EDGE ( 'NONE', *, *, #405, .F. ) ;
#296 = ORIENTED_EDGE ( 'NONE', *, *, #385, .T. ) ;
#297 = ORIENTED_EDGE ( 'NONE', *, *, #404, .F. ) ;
#298 = ORIENTED_EDGE ( 'NONE', *, *, #387, .T. ) ;
#299 = ORIENTED_EDGE ( 'NONE', *, *, #406, .T. ) ;
#300 = ORIENTED_EDGE ( 'NONE', *, *, #402, .F. ) ;
#301 = ORIENTED_EDGE ( 'NONE', *, *, #382, .F. ) ;
#302 = ORIENTED_EDGE ( 'NONE', *, *, #383, .F. ) ;
#303 = ORIENTED_EDGE ( 'NONE', *, *, #378, .F. ) ;
#304 = ORIENTED_EDGE ( 'NONE', *, *, #383, .T. ) ;
#305 = LINE ( 'NONE', #92, #291 ) ;
#306 = LINE ( 'NONE', #26, #356 ) ;
#307 = LINE ( 'NONE', #78, #292 ) ;
#308 = ORIENTED_EDGE ( 'NONE', *, *, #377, .T. ) ;
#309 = ORIENTED_EDGE ( 'NONE', *, *, #376, .F. ) ;
#310 = ORIENTED_EDGE ( 'NONE', *, *, #379, .F. ) ;
#311 = VERTEX_POINT ( 'NONE', #6 ) ;
#312 = VERTEX_POINT ( 'NONE', #1 ) ;
#313 = VERTEX_POINT ( 'NONE', #8 ) ;
#314 = VECTOR ( 'NONE', #22, 1000.000000000000000 ) ;
#315 = LINE ( 'NONE', #74, #246 ) ;
#316 = VERTEX_POINT ( 'NONE', #15 ) ;
#317 = VERTEX_POINT ( 'NONE', #20 ) ;
#318 = VERTEX_POINT ( 'NONE', #12 ) ;
#319 = VERTEX_POINT ( 'NONE', #17 ) ;
#320 = VERTEX_POINT ( 'NONE', #10 ) ;
#321 = VERTEX_POINT ( 'NONE', #11 ) ;
#322 = VERTEX_POINT ( 'NONE', #14 ) ;
#323 = VERTEX_POINT ( 'NONE', #21 ) ;
#324 = VERTEX_POINT ( 'NONE', #5 ) ;
#325 = VERTEX_POINT ( 'NONE', #70 ) ;
#326 = VERTEX_POINT ( 'NONE', #72 ) ;
#327 = VERTEX_POINT ( 'NONE', #23 ) ;
#328 = VERTEX_POINT ( 'NONE', #84 ) ;
#329 = EDGE_LOOP ( 'NONE', ( #261 ) ) ;
#330 = EDGE_LOOP ( 'NONE', ( #276, #309, #308, #304 ) ) ;
#331 = EDGE_LOOP ( 'NONE', ( #288, #297, #295, #299 ) ) ;
#332 = EDGE_LOOP ( 'NONE', ( #183, #252, #227, #253, #255, #275, #279, #258 ) ) ;
#333 = EDGE_LOOP ( 'NONE', ( #284, #283, #285, #287 ) ) ;
#334 = EDGE_LOOP ( 'NONE', ( #303 ) ) ;
#335 = EDGE_LOOP ( 'NONE', ( #300, #302, #286, #270 ) ) ;
#336 = EDGE_LOOP ( 'NONE', ( #310 ) ) ;
#337 = EDGE_LOOP ( 'NONE', ( #265, #263, #266, #179 ) ) ;
#338 = EDGE_LOOP ( 'NONE', ( #262 ) ) ;
#339 = LINE ( 'NONE', #39, #294 ) ;
#340 = CIRCLE ( 'NONE', #373, 2.500000000000057700 ) ;
#341 = EDGE_LOOP ( 'NONE', ( #281, #280, #264, #298 ) ) ;
#342 = EDGE_LOOP ( 'NONE', ( #180 ) ) ;
#343 = EDGE_LOOP ( 'NONE', ( #269, #301, #296, #282 ) ) ;
#344 = EDGE_LOOP ( 'NONE', ( #267, #278, #268, #272, #271, #274, #273, #254 ) ) ;
#345 = EDGE_LOOP ( 'NONE', ( #178 ) ) ;
#346 = EDGE_LOOP ( 'NONE', ( #248 ) ) ;
#347 = LINE ( 'NONE', #128, #257 ) ;
#348 = LINE ( 'NONE', #125, #352 ) ;
#349 = VECTOR ( 'NONE', #145, 1000.000000000000000 ) ;
#350 = VECTOR ( 'NONE', #29, 1000.000000000000000 ) ;
#351 = LINE ( 'NONE', #107, #250 ) ;
#352 = VECTOR ( 'NONE', #126, 1000.000000000000000 ) ;
#353 = VECTOR ( 'NONE', #150, 1000.000000000000000 ) ;
#354 = EDGE_LOOP ( 'NONE', ( #260 ) ) ;
#355 = LINE ( 'NONE', #85, #350 ) ;
#356 = VECTOR ( 'NONE', #53, 1000.000000000000000 ) ;
#357 = MANIFOLD_SOLID_BREP ( 'Âûðåç-Âûòÿíóòü1', #259 ) ;
#358 = ADVANCED_BREP_SHAPE_REPRESENTATION ( '¦¨v°úð ýð ºóþû òõ¨ªøúðû¹ývù òýõ°ýøù CDSD 90_38287', ( #357, #360 ), #419 ) ;
#359 = UNCERTAINTY_MEASURE_WITH_UNIT (LENGTH_MEASURE( 1.000000000000000100E-005 ), #112, 'distance_accuracy_value', 'NONE');
#360 = AXIS2_PLACEMENT_3D ( 'NONE', #30, #27, #140 ) ;
#361 = PRODUCT_RELATED_PRODUCT_CATEGORY ( 'detail', '', ( #152 ) ) ;
#362 = AXIS2_PLACEMENT_3D ( 'NONE', #122, #4, #148 ) ;
#363 = APPROVAL ( #63, 'UNSPECIFIED' ) ;
#364 = AXIS2_PLACEMENT_3D ( 'NONE', #131, #129, #137 ) ;
#365 = CC_DESIGN_SECURITY_CLASSIFICATION ( #412, ( #374 ) ) ;
#366 = AXIS2_PLACEMENT_3D ( 'NONE', #115, #28, #100 ) ;
#367 = AXIS2_PLACEMENT_3D ( 'NONE', #141, #124, #97 ) ;
#368 = AXIS2_PLACEMENT_3D ( 'NONE', #95, #101, #82 ) ;
#369 = AXIS2_PLACEMENT_3D ( 'NONE', #119, #83, #98 ) ;
#370 = AXIS2_PLACEMENT_3D ( 'NONE', #40, #37, #45 ) ;
#371 = AXIS2_PLACEMENT_3D ( 'NONE', #16, #19, #44 ) ;
#372 = AXIS2_PLACEMENT_3D ( 'NONE', #24, #25, #43 ) ;
#373 = AXIS2_PLACEMENT_3D ( 'NONE', #94, #69, #76 ) ;
#374 = PRODUCT_DEFINITION_FORMATION_WITH_SPECIFIED_SOURCE ( 'ANY', '', #152, .NOT_KNOWN. ) ;
#375 = EDGE_CURVE ( 'NONE', #326, #325, #293, .T. ) ;
#376 = EDGE_CURVE ( 'NONE', #321, #326, #339, .T. ) ;
#377 = EDGE_CURVE ( 'NONE', #321, #328, #173, .T. ) ;
#378 = EDGE_CURVE ( 'NONE', #202, #202, #340, .T. ) ;
#379 = EDGE_CURVE ( 'NONE', #201, #201, #290, .T. ) ;
#380 = CC_DESIGN_DATE_AND_TIME_ASSIGNMENT ( #177, #61, ( #411 ) ) ;
#381 = EDGE_CURVE ( 'NONE', #312, #326, #307, .T. ) ;
#382 = EDGE_CURVE ( 'NONE', #311, #312, #305, .T. ) ;
#383 = EDGE_CURVE ( 'NONE', #328, #325, #306, .T. ) ;
#384 = CC_DESIGN_APPROVAL ( #394, ( #412 ) ) ;
#385 = EDGE_CURVE ( 'NONE', #311, #321, #355, .T. ) ;
#386 = EDGE_CURVE ( 'NONE', #316, #312, #348, .T. ) ;
#387 = EDGE_CURVE ( 'NONE', #320, #316, #347, .T. ) ;
#388 = EDGE_CURVE ( 'NONE', #320, #311, #315, .T. ) ;
#389 = EDGE_CURVE ( 'NONE', #317, #316, #277, .T. ) ;
#390 = EDGE_CURVE ( 'NONE', #318, #317, #244, .T. ) ;
#391 = EDGE_CURVE ( 'NONE', #318, #320, #351, .T. ) ;
#392 = EDGE_CURVE ( 'NONE', #317, #313, #256, .T. ) ;
#393 = EDGE_CURVE ( 'NONE', #319, #313, #247, .T. ) ;
#394 = APPROVAL ( #68, 'UNSPECIFIED' ) ;
#395 = EDGE_CURVE ( 'NONE', #318, #319, #245, .T. ) ;
#396 = EDGE_CURVE ( 'NONE', #200, #200, #249, .T. ) ;
#397 = EDGE_CURVE ( 'NONE', #199, #199, #238, .T. ) ;
#398 = EDGE_CURVE ( 'NONE', #313, #324, #240, .T. ) ;
#399 = CC_DESIGN_PERSON_AND_ORGANIZATION_ASSIGNMENT ( #197, #133, ( #152 ) ) ;
#400 = EDGE_CURVE ( 'NONE', #319, #327, #239, .T. ) ;
#401 = EDGE_CURVE ( 'NONE', #324, #323, #235, .T. ) ;
#402 = EDGE_CURVE ( 'NONE', #325, #323, #242, .T. ) ;
#403 = EDGE_CURVE ( 'NONE', #328, #322, #232, .T. ) ;
#404 = EDGE_CURVE ( 'NONE', #322, #323, #234, .T. ) ;
#405 = EDGE_CURVE ( 'NONE', #327, #322, #228, .T. ) ;
#406 = EDGE_CURVE ( 'NONE', #327, #324, #225, .T. ) ;
#407 = AXIS2_PLACEMENT_3D ( 'NONE', #41, #35, #34 ) ;
#408 = CC_DESIGN_DATE_AND_TIME_ASSIGNMENT ( #161, #73, ( #412 ) ) ;
#409 = CC_DESIGN_PERSON_AND_ORGANIZATION_ASSIGNMENT ( #166, #87, ( #374 ) ) ;
#410 = CC_DESIGN_PERSON_AND_ORGANIZATION_ASSIGNMENT ( #165, #65, ( #412 ) ) ;
#411 = PRODUCT_DEFINITION ( 'UNKNOWN', '', #374, #436 ) ;
#412 = SECURITY_CLASSIFICATION ( '', '', #67 ) ;
#413 = CC_DESIGN_PERSON_AND_ORGANIZATION_ASSIGNMENT ( #167, #66, ( #374 ) ) ;
#414 = CC_DESIGN_APPROVAL ( #416, ( #411 ) ) ;
#415 = CC_DESIGN_PERSON_AND_ORGANIZATION_ASSIGNMENT ( #188, #109, ( #411 ) ) ;
#416 = APPROVAL ( #108, 'UNSPECIFIED' ) ;
#417 = CC_DESIGN_APPROVAL ( #363, ( #374 ) ) ;
#418 = AXIS2_PLACEMENT_3D ( 'NONE', #49, #57, #38 ) ;
#419 =( GEOMETRIC_REPRESENTATION_CONTEXT ( 3 ) GLOBAL_UNCERTAINTY_ASSIGNED_CONTEXT ( ( #359 ) ) GLOBAL_UNIT_ASSIGNED_CONTEXT ( ( #112, #111, #116 ) ) REPRESENTATION_CONTEXT ( 'NONE', 'WORKASPACE' ) );
#420 = AXIS2_PLACEMENT_3D ( 'NONE', #143, #51, #50 ) ;
#421 = AXIS2_PLACEMENT_3D ( 'NONE', #127, #55, #54 ) ;
#422 = AXIS2_PLACEMENT_3D ( 'NONE', #62, #60, #59 ) ;
#423 = AXIS2_PLACEMENT_3D ( 'NONE', #147, #80, #118 ) ;
#424 = ADVANCED_FACE ( 'NONE', ( #220, #230 ), #217, .F. ) ;
#425 = ADVANCED_FACE ( 'NONE', ( #223 ), #121, .T. ) ;
#426 = ADVANCED_FACE ( 'NONE', ( #219 ), #99, .T. ) ;
#427 = ADVANCED_FACE ( 'NONE', ( #221, #214 ), #212, .F. ) ;
#428 = ADVANCED_FACE ( 'NONE', ( #218, #211, #216 ), #120, .T. ) ;
#429 = ADVANCED_FACE ( 'NONE', ( #215 ), #88, .F. ) ;
#430 = ADVANCED_FACE ( 'NONE', ( #213 ), #123, .F. ) ;
#431 = ADVANCED_FACE ( 'NONE', ( #210 ), #132, .T. ) ;
#432 = ADVANCED_FACE ( 'NONE', ( #209 ), #58, .T. ) ;
#433 = ADVANCED_FACE ( 'NONE', ( #208 ), #52, .F. ) ;
#434 = ADVANCED_FACE ( 'NONE', ( #207, #204, #206 ), #42, .F. ) ;
#435 = ADVANCED_FACE ( 'NONE', ( #205 ), #36, .T. ) ;
#436 = DESIGN_CONTEXT ( 'detailed design', #138, 'design' ) ;
#437 = PRODUCT_DEFINITION_SHAPE ( 'NONE', 'NONE',  #411 ) ;
ENDSEC;
END-ISO-10303-21;
