ISO-10303-21;
HEADER;
FILE_DESCRIPTION (( 'STEP AP203' ),
    '1' );
FILE_NAME ('Êðûøêà íà îòâåòâèòåëü Ò-îáðàçíûé âåðòèêàëüíûé áîêîâîé TDS_38327.STEP',
    '2012-11-09T08:44:38',
    ( 'Àñååâ' ),
    ( '' ),
    'SwSTEP 2.0',
    'SolidWorks 2012',
    '' );
FILE_SCHEMA (( 'CONFIG_CONTROL_DESIGN' ));
ENDSEC;

DATA;
#1 = PERSON_AND_ORGANIZATION_ROLE ( 'creator' ) ;
#2 = APPROVAL_ROLE ( '' ) ;
#3 = APPROVAL_STATUS ( 'not_yet_approved' ) ;
#4 = APPROVAL_STATUS ( 'not_yet_approved' ) ;
#5 = APPROVAL_ROLE ( '' ) ;
#6 = APPROVAL_STATUS ( 'not_yet_approved' ) ;
#7 = DATE_TIME_ROLE ( 'classification_date' ) ;
#8 = PERSON_AND_ORGANIZATION_ROLE ( 'classification_officer' ) ;
#9 = SECURITY_CLASSIFICATION_LEVEL ( 'unclassified' ) ;
#10 = PERSON_AND_ORGANIZATION_ROLE ( 'design_supplier' ) ;
#11 = APPLICATION_PROTOCOL_DEFINITION ( 'international standard', 'config_control_design', 1994, #23 ) ;
#12 = DATE_TIME_ROLE ( 'creation_date' ) ;
#13 = APPROVAL_ROLE ( '' ) ;
#14 = PERSON_AND_ORGANIZATION_ROLE ( 'creator' ) ;
#15 =( NAMED_UNIT ( * ) PLANE_ANGLE_UNIT ( ) SI_UNIT ( $, .RADIAN. ) );
#16 =( NAMED_UNIT ( * ) SI_UNIT ( $, .STERADIAN. ) SOLID_ANGLE_UNIT ( ) );
#17 =( LENGTH_UNIT ( ) NAMED_UNIT ( * ) SI_UNIT ( .MILLI., .METRE. ) );
#18 = APPLICATION_PROTOCOL_DEFINITION ( 'international standard', 'config_control_design', 1994, #19 ) ;
#19 = APPLICATION_CONTEXT ( 'configuration controlled 3d designs of mechanical parts and assemblies' ) ;
#20 = DIRECTION ( 'NONE',  ( 1.000000000000000000, 0.0000000000000000000, 0.0000000000000000000 ) ) ;
#21 = MECHANICAL_CONTEXT ( 'NONE', #19, 'mechanical' ) ;
#22 = PERSON_AND_ORGANIZATION_ROLE ( 'design_owner' ) ;
#23 = APPLICATION_CONTEXT ( 'configuration controlled 3d designs of mechanical parts and assemblies' ) ;
#24 = VERTEX_POINT ( 'NONE', #302 ) ;
#25 = VERTEX_POINT ( 'NONE', #324 ) ;
#26 = VERTEX_POINT ( 'NONE', #330 ) ;
#27 = VERTEX_POINT ( 'NONE', #333 ) ;
#28 = VERTEX_POINT ( 'NONE', #332 ) ;
#29 = VERTEX_POINT ( 'NONE', #327 ) ;
#30 = VERTEX_POINT ( 'NONE', #313 ) ;
#31 = LINE ( 'NONE', #309, #281 ) ;
#32 = VERTEX_POINT ( 'NONE', #329 ) ;
#33 = VERTEX_POINT ( 'NONE', #299 ) ;
#34 = VERTEX_POINT ( 'NONE', #297 ) ;
#35 = VERTEX_POINT ( 'NONE', #301 ) ;
#36 = VERTEX_POINT ( 'NONE', #318 ) ;
#37 = VERTEX_POINT ( 'NONE', #316 ) ;
#38 = VERTEX_POINT ( 'NONE', #307 ) ;
#39 = VERTEX_POINT ( 'NONE', #323 ) ;
#40 = SECURITY_CLASSIFICATION ( '', '', #9 ) ;
#41 = AXIS2_PLACEMENT_3D ( 'NONE', #357, #361, #360 ) ;
#42 = CC_DESIGN_PERSON_AND_ORGANIZATION_ASSIGNMENT ( #117, #1, ( #86 ) ) ;
#43 = PRODUCT_RELATED_PRODUCT_CATEGORY ( 'detail', '', ( #105 ) ) ;
#44 = AXIS2_PLACEMENT_3D ( 'NONE', #349, #393, #399 ) ;
#45 = AXIS2_PLACEMENT_3D ( 'NONE', #403, #356, #355 ) ;
#46 = AXIS2_PLACEMENT_3D ( 'NONE', #416, #372, #354 ) ;
#47 = CC_DESIGN_APPROVAL ( #95, ( #40 ) ) ;
#48 = AXIS2_PLACEMENT_3D ( 'NONE', #375, #385, #350 ) ;
#49 = AXIS2_PLACEMENT_3D ( 'NONE', #381, #379, #378 ) ;
#50 = AXIS2_PLACEMENT_3D ( 'NONE', #404, #374, #373 ) ;
#51 = AXIS2_PLACEMENT_3D ( 'NONE', #314, #331, #305 ) ;
#52 = AXIS2_PLACEMENT_3D ( 'NONE', #312, #296, #304 ) ;
#53 = EDGE_CURVE ( 'NONE', #29, #36, #31, .T. ) ;
#54 = EDGE_CURVE ( 'NONE', #142, #142, #286, .T. ) ;
#55 = EDGE_CURVE ( 'NONE', #26, #35, #273, .T. ) ;
#56 = EDGE_CURVE ( 'NONE', #141, #141, #262, .T. ) ;
#57 = CC_DESIGN_PERSON_AND_ORGANIZATION_ASSIGNMENT ( #115, #8, ( #40 ) ) ;
#58 = EDGE_CURVE ( 'NONE', #37, #24, #280, .T. ) ;
#59 = EDGE_CURVE ( 'NONE', #30, #29, #284, .T. ) ;
#60 = EDGE_CURVE ( 'NONE', #33, #34, #287, .T. ) ;
#61 = EDGE_CURVE ( 'NONE', #37, #33, #285, .T. ) ;
#62 = EDGE_CURVE ( 'NONE', #30, #38, #223, .T. ) ;
#63 = EDGE_CURVE ( 'NONE', #27, #33, #221, .T. ) ;
#64 = EDGE_CURVE ( 'NONE', #38, #36, #217, .T. ) ;
#65 = EDGE_CURVE ( 'NONE', #26, #38, #219, .T. ) ;
#66 = EDGE_CURVE ( 'NONE', #24, #34, #213, .T. ) ;
#67 = EDGE_CURVE ( 'NONE', #32, #27, #211, .T. ) ;
#68 = EDGE_CURVE ( 'NONE', #32, #37, #215, .T. ) ;
#69 = EDGE_CURVE ( 'NONE', #25, #27, #206, .T. ) ;
#70 = EDGE_CURVE ( 'NONE', #28, #25, #204, .T. ) ;
#71 = EDGE_CURVE ( 'NONE', #28, #32, #208, .T. ) ;
#72 = EDGE_CURVE ( 'NONE', #25, #291, #196, .T. ) ;
#73 = CC_DESIGN_PERSON_AND_ORGANIZATION_ASSIGNMENT ( #116, #10, ( #86 ) ) ;
#74 = EDGE_CURVE ( 'NONE', #39, #291, #194, .T. ) ;
#75 = EDGE_CURVE ( 'NONE', #28, #39, #201, .T. ) ;
#76 = EDGE_CURVE ( 'NONE', #140, #140, #190, .T. ) ;
#77 = EDGE_CURVE ( 'NONE', #139, #139, #186, .T. ) ;
#78 = EDGE_CURVE ( 'NONE', #291, #29, #188, .T. ) ;
#79 = EDGE_CURVE ( 'NONE', #39, #30, #187, .T. ) ;
#80 = EDGE_CURVE ( 'NONE', #24, #26, #183, .T. ) ;
#81 = CC_DESIGN_APPROVAL ( #84, ( #86 ) ) ;
#82 = EDGE_CURVE ( 'NONE', #34, #35, #182, .T. ) ;
#83 = EDGE_CURVE ( 'NONE', #35, #36, #180, .T. ) ;
#84 = APPROVAL ( #3, 'UNSPECIFIED' ) ;
#85 = CC_DESIGN_DATE_AND_TIME_ASSIGNMENT ( #125, #12, ( #88 ) ) ;
#86 = PRODUCT_DEFINITION_FORMATION_WITH_SPECIFIED_SOURCE ( 'ANY', '', #105, .NOT_KNOWN. ) ;
#87 = CC_DESIGN_PERSON_AND_ORGANIZATION_ASSIGNMENT ( #129, #14, ( #88 ) ) ;
#88 = PRODUCT_DEFINITION ( 'UNKNOWN', '', #86, #346 ) ;
#89 = APPROVAL ( #4, 'UNSPECIFIED' ) ;
#90 = CC_DESIGN_APPROVAL ( #89, ( #88 ) ) ;
#91 = CC_DESIGN_PERSON_AND_ORGANIZATION_ASSIGNMENT ( #137, #22, ( #105 ) ) ;
#92 = AXIS2_PLACEMENT_3D ( 'NONE', #348, #352, #20 ) ;
#93 = AXIS2_PLACEMENT_3D ( 'NONE', #392, #366, #395 ) ;
#94 = CC_DESIGN_DATE_AND_TIME_ASSIGNMENT ( #146, #7, ( #40 ) ) ;
#95 = APPROVAL ( #6, 'UNSPECIFIED' ) ;
#96 = CC_DESIGN_SECURITY_CLASSIFICATION ( #40, ( #86 ) ) ;
#97 = AXIS2_PLACEMENT_3D ( 'NONE', #394, #433, #434 ) ;
#98 = AXIS2_PLACEMENT_3D ( 'NONE', #368, #411, #409 ) ;
#99 = AXIS2_PLACEMENT_3D ( 'NONE', #365, #363, #358 ) ;
#100 =( GEOMETRIC_REPRESENTATION_CONTEXT ( 3 ) GLOBAL_UNCERTAINTY_ASSIGNED_CONTEXT ( ( #295 ) ) GLOBAL_UNIT_ASSIGNED_CONTEXT ( ( #17, #15, #16 ) ) REPRESENTATION_CONTEXT ( 'NONE', 'WORKASPACE' ) );
#101 = AXIS2_PLACEMENT_3D ( 'NONE', #364, #389, #414 ) ;
#102 = AXIS2_PLACEMENT_3D ( 'NONE', #418, #351, #398 ) ;
#103 = AXIS2_PLACEMENT_3D ( 'NONE', #430, #432, #400 ) ;
#104 = PERSON ( 'UNSPECIFIED', 'UNSPECIFIED', 'UNSPECIFIED', ('UNSPECIFIED'), ('UNSPECIFIED'), ('UNSPECIFIED') ) ;
#105 = PRODUCT ( 'Êðûøêà íà îòâåòâèòåëü Ò-îáðàçíûé âåðòèêàëüíûé áîêîâîé TDS_38327', 'Êðûøêà íà îòâåòâèòåëü Ò-îáðàçíûé âåðòèêàëüíûé áîêîâîé TDS_38327', '', ( #21 ) ) ;
#106 = APPROVAL_DATE_TIME ( #107, #95 ) ;
#107 = DATE_AND_TIME ( #108, #109 ) ;
#108 = CALENDAR_DATE ( 2012, 9, 11 ) ;
#109 = LOCAL_TIME ( 12, 44, 38.00000000000000000, #110 ) ;
#110 = COORDINATED_UNIVERSAL_TIME_OFFSET ( 4, 0, .AHEAD. ) ;
#111 = APPROVAL_PERSON_ORGANIZATION ( #159, #95, #5 ) ;
#112 = ORIENTED_EDGE ( 'NONE', *, *, #83, .F. ) ;
#113 = LOCAL_TIME ( 12, 44, 38.00000000000000000, #114 ) ;
#114 = COORDINATED_UNIVERSAL_TIME_OFFSET ( 4, 0, .AHEAD. ) ;
#115 = PERSON_AND_ORGANIZATION ( #104, #138 ) ;
#116 = PERSON_AND_ORGANIZATION ( #104, #138 ) ;
#117 = PERSON_AND_ORGANIZATION ( #104, #138 ) ;
#118 = APPROVAL_DATE_TIME ( #119, #84 ) ;
#119 = DATE_AND_TIME ( #120, #121 ) ;
#120 = CALENDAR_DATE ( 2012, 9, 11 ) ;
#121 = LOCAL_TIME ( 12, 44, 38.00000000000000000, #122 ) ;
#122 = COORDINATED_UNIVERSAL_TIME_OFFSET ( 4, 0, .AHEAD. ) ;
#123 = APPROVAL_PERSON_ORGANIZATION ( #124, #84, #2 ) ;
#124 = PERSON_AND_ORGANIZATION ( #104, #138 ) ;
#125 = DATE_AND_TIME ( #126, #127 ) ;
#126 = CALENDAR_DATE ( 2012, 9, 11 ) ;
#127 = LOCAL_TIME ( 12, 44, 38.00000000000000000, #128 ) ;
#128 = COORDINATED_UNIVERSAL_TIME_OFFSET ( 4, 0, .AHEAD. ) ;
#129 = PERSON_AND_ORGANIZATION ( #104, #138 ) ;
#130 = APPROVAL_DATE_TIME ( #131, #89 ) ;
#131 = DATE_AND_TIME ( #132, #133 ) ;
#132 = CALENDAR_DATE ( 2012, 9, 11 ) ;
#133 = LOCAL_TIME ( 12, 44, 38.00000000000000000, #134 ) ;
#134 = COORDINATED_UNIVERSAL_TIME_OFFSET ( 4, 0, .AHEAD. ) ;
#135 = APPROVAL_PERSON_ORGANIZATION ( #136, #89, #13 ) ;
#136 = PERSON_AND_ORGANIZATION ( #104, #138 ) ;
#137 = PERSON_AND_ORGANIZATION ( #104, #138 ) ;
#138 = ORGANIZATION ( 'UNSPECIFIED', 'UNSPECIFIED', '' ) ;
#139 = VERTEX_POINT ( 'NONE', #431 ) ;
#140 = VERTEX_POINT ( 'NONE', #422 ) ;
#141 = VERTEX_POINT ( 'NONE', #408 ) ;
#142 = VERTEX_POINT ( 'NONE', #402 ) ;
#143 = SHAPE_DEFINITION_REPRESENTATION ( #347, #293 ) ;
#144 = FACE_BOUND ( 'NONE', #265, .T. ) ;
#145 = CYLINDRICAL_SURFACE ( 'NONE', #103, 2.500000000000002200 ) ;
#146 = DATE_AND_TIME ( #147, #113 ) ;
#147 = CALENDAR_DATE ( 2012, 9, 11 ) ;
#148 = ORIENTED_EDGE ( 'NONE', *, *, #55, .F. ) ;
#149 = ORIENTED_EDGE ( 'NONE', *, *, #65, .T. ) ;
#150 = ORIENTED_EDGE ( 'NONE', *, *, #64, .T. ) ;
#151 = ORIENTED_EDGE ( 'NONE', *, *, #82, .F. ) ;
#152 = ORIENTED_EDGE ( 'NONE', *, *, #66, .F. ) ;
#153 = ORIENTED_EDGE ( 'NONE', *, *, #80, .T. ) ;
#154 = ORIENTED_EDGE ( 'NONE', *, *, #55, .T. ) ;
#155 = ORIENTED_EDGE ( 'NONE', *, *, #54, .F. ) ;
#156 = FACE_OUTER_BOUND ( 'NONE', #292, .T. ) ;
#157 = FACE_OUTER_BOUND ( 'NONE', #270, .T. ) ;
#158 = FACE_OUTER_BOUND ( 'NONE', #266, .T. ) ;
#159 = PERSON_AND_ORGANIZATION ( #104, #138 ) ;
#160 = FACE_BOUND ( 'NONE', #277, .T. ) ;
#161 = FACE_BOUND ( 'NONE', #289, .T. ) ;
#162 = FACE_OUTER_BOUND ( 'NONE', #272, .T. ) ;
#163 = CYLINDRICAL_SURFACE ( 'NONE', #99, 2.500000000000057700 ) ;
#164 = FACE_OUTER_BOUND ( 'NONE', #279, .T. ) ;
#165 = ORIENTED_EDGE ( 'NONE', *, *, #56, .F. ) ;
#166 = FACE_OUTER_BOUND ( 'NONE', #274, .T. ) ;
#167 = FACE_OUTER_BOUND ( 'NONE', #276, .T. ) ;
#168 = ORIENTED_EDGE ( 'NONE', *, *, #60, .F. ) ;
#169 = FACE_BOUND ( 'NONE', #269, .T. ) ;
#170 = FACE_OUTER_BOUND ( 'NONE', #267, .T. ) ;
#171 = FACE_OUTER_BOUND ( 'NONE', #290, .T. ) ;
#172 = ORIENTED_EDGE ( 'NONE', *, *, #61, .F. ) ;
#173 = ORIENTED_EDGE ( 'NONE', *, *, #58, .T. ) ;
#174 = FACE_OUTER_BOUND ( 'NONE', #275, .T. ) ;
#175 = FACE_OUTER_BOUND ( 'NONE', #278, .T. ) ;
#176 = FACE_OUTER_BOUND ( 'NONE', #271, .T. ) ;
#177 = VECTOR ( 'NONE', #412, 1000.000000000000000 ) ;
#178 = FACE_OUTER_BOUND ( 'NONE', #288, .T. ) ;
#179 = VECTOR ( 'NONE', #415, 1000.000000000000000 ) ;
#180 = LINE ( 'NONE', #419, #177 ) ;
#181 = VECTOR ( 'NONE', #406, 1000.000000000000000 ) ;
#182 = LINE ( 'NONE', #407, #179 ) ;
#183 = LINE ( 'NONE', #377, #181 ) ;
#184 = VECTOR ( 'NONE', #376, 1000.000000000000000 ) ;
#185 = VECTOR ( 'NONE', #417, 1000.000000000000000 ) ;
#186 = CIRCLE ( 'NONE', #49, 2.500000000000002200 ) ;
#187 = LINE ( 'NONE', #369, #185 ) ;
#188 = LINE ( 'NONE', #384, #184 ) ;
#189 = VECTOR ( 'NONE', #382, 1000.000000000000000 ) ;
#190 = CIRCLE ( 'NONE', #50, 2.500000000000057700 ) ;
#191 = VECTOR ( 'NONE', #383, 1000.000000000000000 ) ;
#192 = FACE_OUTER_BOUND ( 'NONE', #268, .T. ) ;
#193 = VECTOR ( 'NONE', #386, 1000.000000000000000 ) ;
#194 = LINE ( 'NONE', #387, #191 ) ;
#195 = VECTOR ( 'NONE', #428, 1000.000000000000000 ) ;
#196 = LINE ( 'NONE', #436, #193 ) ;
#197 = ORIENTED_EDGE ( 'NONE', *, *, #66, .T. ) ;
#198 = ORIENTED_EDGE ( 'NONE', *, *, #63, .F. ) ;
#199 = VECTOR ( 'NONE', #435, 1000.000000000000000 ) ;
#200 = ORIENTED_EDGE ( 'NONE', *, *, #67, .F. ) ;
#201 = LINE ( 'NONE', #380, #189 ) ;
#202 = VECTOR ( 'NONE', #391, 1000.000000000000000 ) ;
#203 = ORIENTED_EDGE ( 'NONE', *, *, #68, .T. ) ;
#204 = LINE ( 'NONE', #390, #199 ) ;
#205 = VECTOR ( 'NONE', #370, 1000.000000000000000 ) ;
#206 = LINE ( 'NONE', #388, #202 ) ;
#207 = VECTOR ( 'NONE', #371, 1000.000000000000000 ) ;
#208 = LINE ( 'NONE', #423, #195 ) ;
#209 = VECTOR ( 'NONE', #421, 1000.000000000000000 ) ;
#210 = ORIENTED_EDGE ( 'NONE', *, *, #61, .T. ) ;
#211 = LINE ( 'NONE', #427, #207 ) ;
#212 = VECTOR ( 'NONE', #420, 1000.000000000000000 ) ;
#213 = LINE ( 'NONE', #424, #209 ) ;
#214 = VECTOR ( 'NONE', #410, 1000.000000000000000 ) ;
#215 = LINE ( 'NONE', #325, #205 ) ;
#216 = VECTOR ( 'NONE', #425, 1000.000000000000000 ) ;
#217 = LINE ( 'NONE', #396, #214 ) ;
#218 = VECTOR ( 'NONE', #315, 1000.000000000000000 ) ;
#219 = LINE ( 'NONE', #328, #212 ) ;
#220 = VECTOR ( 'NONE', #326, 1000.000000000000000 ) ;
#221 = LINE ( 'NONE', #300, #216 ) ;
#222 = VECTOR ( 'NONE', #303, 1000.000000000000000 ) ;
#223 = LINE ( 'NONE', #311, #218 ) ;
#224 = ORIENTED_EDGE ( 'NONE', *, *, #69, .F. ) ;
#225 = ORIENTED_EDGE ( 'NONE', *, *, #70, .F. ) ;
#226 = ORIENTED_EDGE ( 'NONE', *, *, #71, .T. ) ;
#227 = ORIENTED_EDGE ( 'NONE', *, *, #67, .T. ) ;
#228 = ORIENTED_EDGE ( 'NONE', *, *, #72, .T. ) ;
#229 = ORIENTED_EDGE ( 'NONE', *, *, #74, .F. ) ;
#230 = ORIENTED_EDGE ( 'NONE', *, *, #75, .F. ) ;
#231 = ORIENTED_EDGE ( 'NONE', *, *, #70, .T. ) ;
#232 = ORIENTED_EDGE ( 'NONE', *, *, #76, .F. ) ;
#233 = ORIENTED_EDGE ( 'NONE', *, *, #77, .F. ) ;
#234 = ORIENTED_EDGE ( 'NONE', *, *, #78, .T. ) ;
#235 = ORIENTED_EDGE ( 'NONE', *, *, #59, .F. ) ;
#236 = ORIENTED_EDGE ( 'NONE', *, *, #79, .F. ) ;
#237 = ORIENTED_EDGE ( 'NONE', *, *, #74, .T. ) ;
#238 = ORIENTED_EDGE ( 'NONE', *, *, #62, .T. ) ;
#239 = ORIENTED_EDGE ( 'NONE', *, *, #65, .F. ) ;
#240 = ORIENTED_EDGE ( 'NONE', *, *, #80, .F. ) ;
#241 = ORIENTED_EDGE ( 'NONE', *, *, #58, .F. ) ;
#242 = ORIENTED_EDGE ( 'NONE', *, *, #68, .F. ) ;
#243 = ORIENTED_EDGE ( 'NONE', *, *, #71, .F. ) ;
#244 = ORIENTED_EDGE ( 'NONE', *, *, #75, .T. ) ;
#245 = ORIENTED_EDGE ( 'NONE', *, *, #79, .T. ) ;
#246 = ORIENTED_EDGE ( 'NONE', *, *, #53, .F. ) ;
#247 = ORIENTED_EDGE ( 'NONE', *, *, #78, .F. ) ;
#248 = ORIENTED_EDGE ( 'NONE', *, *, #53, .T. ) ;
#249 = ORIENTED_EDGE ( 'NONE', *, *, #72, .F. ) ;
#250 = ORIENTED_EDGE ( 'NONE', *, *, #69, .T. ) ;
#251 = ORIENTED_EDGE ( 'NONE', *, *, #63, .T. ) ;
#252 = ORIENTED_EDGE ( 'NONE', *, *, #62, .F. ) ;
#253 = ORIENTED_EDGE ( 'NONE', *, *, #60, .T. ) ;
#254 = ORIENTED_EDGE ( 'NONE', *, *, #82, .T. ) ;
#255 = ORIENTED_EDGE ( 'NONE', *, *, #83, .T. ) ;
#256 = ORIENTED_EDGE ( 'NONE', *, *, #56, .T. ) ;
#257 = ORIENTED_EDGE ( 'NONE', *, *, #77, .T. ) ;
#258 = ORIENTED_EDGE ( 'NONE', *, *, #64, .F. ) ;
#259 = ORIENTED_EDGE ( 'NONE', *, *, #54, .T. ) ;
#260 = VECTOR ( 'NONE', #320, 1000.000000000000000 ) ;
#261 = ORIENTED_EDGE ( 'NONE', *, *, #59, .T. ) ;
#262 = CIRCLE ( 'NONE', #51, 2.500000000000002200 ) ;
#263 = ORIENTED_EDGE ( 'NONE', *, *, #76, .T. ) ;
#264 = CLOSED_SHELL ( 'NONE', ( #340, #338, #342, #341, #336, #335, #345, #344, #337, #334, #343, #339 ) ) ;
#265 = EDGE_LOOP ( 'NONE', ( #233 ) ) ;
#266 = EDGE_LOOP ( 'NONE', ( #234, #235, #236, #237 ) ) ;
#267 = EDGE_LOOP ( 'NONE', ( #259 ) ) ;
#268 = EDGE_LOOP ( 'NONE', ( #224, #225, #226, #227 ) ) ;
#269 = EDGE_LOOP ( 'NONE', ( #155 ) ) ;
#270 = EDGE_LOOP ( 'NONE', ( #228, #229, #230, #231 ) ) ;
#271 = EDGE_LOOP ( 'NONE', ( #198, #200, #203, #210 ) ) ;
#272 = EDGE_LOOP ( 'NONE', ( #151, #152, #153, #154 ) ) ;
#273 = LINE ( 'NONE', #319, #260 ) ;
#274 = EDGE_LOOP ( 'NONE', ( #263 ) ) ;
#275 = EDGE_LOOP ( 'NONE', ( #238, #239, #240, #241, #242, #243, #244, #245 ) ) ;
#276 = EDGE_LOOP ( 'NONE', ( #168, #172, #173, #197 ) ) ;
#277 = EDGE_LOOP ( 'NONE', ( #232 ) ) ;
#278 = EDGE_LOOP ( 'NONE', ( #248, #258, #252, #261 ) ) ;
#279 = EDGE_LOOP ( 'NONE', ( #256 ) ) ;
#280 = LINE ( 'NONE', #317, #283 ) ;
#281 = VECTOR ( 'NONE', #298, 1000.000000000000000 ) ;
#282 = VECTOR ( 'NONE', #310, 1000.000000000000000 ) ;
#283 = VECTOR ( 'NONE', #306, 1000.000000000000000 ) ;
#284 = LINE ( 'NONE', #322, #282 ) ;
#285 = LINE ( 'NONE', #308, #220 ) ;
#286 = CIRCLE ( 'NONE', #52, 2.500000000000057700 ) ;
#287 = LINE ( 'NONE', #321, #222 ) ;
#288 = EDGE_LOOP ( 'NONE', ( #246, #247, #249, #250, #251, #253, #254, #255 ) ) ;
#289 = EDGE_LOOP ( 'NONE', ( #165 ) ) ;
#290 = EDGE_LOOP ( 'NONE', ( #112, #148, #149, #150 ) ) ;
#291 = VERTEX_POINT ( 'NONE', #413 ) ;
#292 = EDGE_LOOP ( 'NONE', ( #257 ) ) ;
#293 = ADVANCED_BREP_SHAPE_REPRESENTATION ( '¦¨v°úð ýð þªòõªòøªõû¹ T-þñ¨ð÷ývù òõ¨ªøúðû¹ývù ñþúþòþù TDS_38327', ( #294, #92 ), #100 ) ;
#294 = MANIFOLD_SOLID_BREP ( 'Âûðåç-Âûòÿíóòü1', #264 ) ;
#295 = UNCERTAINTY_MEASURE_WITH_UNIT (LENGTH_MEASURE( 1.000000000000000100E-005 ), #17, 'distance_accuracy_value', 'NONE');
#296 = DIRECTION ( 'NONE',  ( -0.0000000000000000000, 1.000000000000000000, -0.0000000000000000000 ) ) ;
#297 = CARTESIAN_POINT ( 'NONE',  ( 251.8000000000000100, 0.8000000000000000400, 0.0000000000000000000 ) ) ;
#298 = DIRECTION ( 'NONE',  ( 0.0000000000000000000, -1.000000000000000000, 0.0000000000000000000 ) ) ;
#299 = CARTESIAN_POINT ( 'NONE',  ( -251.8000000000000100, 0.8000000000000000400, 0.0000000000000000000 ) ) ;
#300 = CARTESIAN_POINT ( 'NONE',  ( -251.8000000000000100, 0.0000000000000000000, 0.0000000000000000000 ) ) ;
#301 = CARTESIAN_POINT ( 'NONE',  ( 251.8000000000000100, -14.00000000000000000, 0.0000000000000000000 ) ) ;
#302 = CARTESIAN_POINT ( 'NONE',  ( 251.8000000000000100, 0.8000000000000000400, 760.0000000000000000 ) ) ;
#303 = DIRECTION ( 'NONE',  ( 1.000000000000000000, 0.0000000000000000000, 0.0000000000000000000 ) ) ;
#304 = DIRECTION ( 'NONE',  ( 0.0000000000000000000, 0.0000000000000000000, -1.000000000000000000 ) ) ;
#305 = DIRECTION ( 'NONE',  ( 0.0000000000000000000, 0.0000000000000000000, 1.000000000000000000 ) ) ;
#306 = DIRECTION ( 'NONE',  ( 1.000000000000000000, 0.0000000000000000000, 0.0000000000000000000 ) ) ;
#307 = CARTESIAN_POINT ( 'NONE',  ( 251.0000000000000000, -14.00000000000000000, 760.0000000000000000 ) ) ;
#308 = CARTESIAN_POINT ( 'NONE',  ( -251.8000000000000100, 0.8000000000000000400, 760.0000000000000000 ) ) ;
#309 = CARTESIAN_POINT ( 'NONE',  ( 251.0000000000000000, 0.0000000000000000000, 0.0000000000000000000 ) ) ;
#310 = DIRECTION ( 'NONE',  ( -0.0000000000000000000, -0.0000000000000000000, -1.000000000000000000 ) ) ;
#311 = CARTESIAN_POINT ( 'NONE',  ( 251.0000000000000000, 0.0000000000000000000, 760.0000000000000000 ) ) ;
#312 = CARTESIAN_POINT ( 'NONE',  ( 2.653208575337321500E-015, 0.8000000000000000400, 745.0000000000001100 ) ) ;
#313 = CARTESIAN_POINT ( 'NONE',  ( 251.0000000000000000, 0.0000000000000000000, 760.0000000000000000 ) ) ;
#314 = CARTESIAN_POINT ( 'NONE',  ( 1.734723475976807100E-015, 0.8000000000000000400, 14.99999999999999300 ) ) ;
#315 = DIRECTION ( 'NONE',  ( 0.0000000000000000000, -1.000000000000000000, 0.0000000000000000000 ) ) ;
#316 = CARTESIAN_POINT ( 'NONE',  ( -251.8000000000000100, 0.8000000000000000400, 760.0000000000000000 ) ) ;
#317 = CARTESIAN_POINT ( 'NONE',  ( -251.0000000000000000, 0.8000000000000000400, 760.0000000000000000 ) ) ;
#318 = CARTESIAN_POINT ( 'NONE',  ( 251.0000000000000000, -14.00000000000000000, 0.0000000000000000000 ) ) ;
#319 = CARTESIAN_POINT ( 'NONE',  ( 251.8000000000000100, -14.00000000000000000, 760.0000000000000000 ) ) ;
#320 = DIRECTION ( 'NONE',  ( -0.0000000000000000000, -0.0000000000000000000, -1.000000000000000000 ) ) ;
#321 = CARTESIAN_POINT ( 'NONE',  ( -251.0000000000000000, 0.8000000000000000400, 0.0000000000000000000 ) ) ;
#322 = CARTESIAN_POINT ( 'NONE',  ( 251.0000000000000000, 0.0000000000000000000, 760.0000000000000000 ) ) ;
#323 = CARTESIAN_POINT ( 'NONE',  ( -251.0000000000000000, 0.0000000000000000000, 760.0000000000000000 ) ) ;
#324 = CARTESIAN_POINT ( 'NONE',  ( -251.0000000000000000, -14.00000000000000000, 0.0000000000000000000 ) ) ;
#325 = CARTESIAN_POINT ( 'NONE',  ( -251.8000000000000100, 0.0000000000000000000, 760.0000000000000000 ) ) ;
#326 = DIRECTION ( 'NONE',  ( -0.0000000000000000000, -0.0000000000000000000, -1.000000000000000000 ) ) ;
#327 = CARTESIAN_POINT ( 'NONE',  ( 251.0000000000000000, 0.0000000000000000000, 0.0000000000000000000 ) ) ;
#328 = CARTESIAN_POINT ( 'NONE',  ( 251.8000000000000100, -14.00000000000000000, 760.0000000000000000 ) ) ;
#329 = CARTESIAN_POINT ( 'NONE',  ( -251.8000000000000100, -14.00000000000000000, 760.0000000000000000 ) ) ;
#330 = CARTESIAN_POINT ( 'NONE',  ( 251.8000000000000100, -14.00000000000000000, 760.0000000000000000 ) ) ;
#331 = DIRECTION ( 'NONE',  ( 0.0000000000000000000, 1.000000000000000000, 0.0000000000000000000 ) ) ;
#332 = CARTESIAN_POINT ( 'NONE',  ( -251.0000000000000000, -14.00000000000000000, 760.0000000000000000 ) ) ;
#333 = CARTESIAN_POINT ( 'NONE',  ( -251.8000000000000100, -14.00000000000000000, 0.0000000000000000000 ) ) ;
#334 = ADVANCED_FACE ( 'NONE', ( #178 ), #401, .T. ) ;
#335 = ADVANCED_FACE ( 'NONE', ( #192 ), #426, .T. ) ;
#336 = ADVANCED_FACE ( 'NONE', ( #176 ), #353, .T. ) ;
#337 = ADVANCED_FACE ( 'NONE', ( #174 ), #359, .F. ) ;
#338 = ADVANCED_FACE ( 'NONE', ( #171 ), #397, .T. ) ;
#339 = ADVANCED_FACE ( 'NONE', ( #170, #166 ), #163, .F. ) ;
#340 = ADVANCED_FACE ( 'NONE', ( #175 ), #367, .F. ) ;
#341 = ADVANCED_FACE ( 'NONE', ( #169, #161, #167 ), #405, .T. ) ;
#342 = ADVANCED_FACE ( 'NONE', ( #162 ), #362, .T. ) ;
#343 = ADVANCED_FACE ( 'NONE', ( #164, #156 ), #145, .F. ) ;
#344 = ADVANCED_FACE ( 'NONE', ( #160, #144, #158 ), #437, .F. ) ;
#345 = ADVANCED_FACE ( 'NONE', ( #157 ), #429, .F. ) ;
#346 = DESIGN_CONTEXT ( 'detailed design', #23, 'design' ) ;
#347 = PRODUCT_DEFINITION_SHAPE ( 'NONE', 'NONE',  #88 ) ;
#348 = CARTESIAN_POINT ( 'NONE',  ( 0.0000000000000000000, 0.0000000000000000000, 0.0000000000000000000 ) ) ;
#349 = CARTESIAN_POINT ( 'NONE',  ( 0.0000000000000000000, 0.0000000000000000000, 760.0000000000000000 ) ) ;
#350 = DIRECTION ( 'NONE',  ( -1.000000000000000000, 0.0000000000000000000, 0.0000000000000000000 ) ) ;
#351 = DIRECTION ( 'NONE',  ( 0.0000000000000000000, 1.000000000000000000, 0.0000000000000000000 ) ) ;
#352 = DIRECTION ( 'NONE',  ( 0.0000000000000000000, 0.0000000000000000000, 1.000000000000000000 ) ) ;
#353 = PLANE ( 'NONE',  #45 ) ;
#354 = DIRECTION ( 'NONE',  ( 0.0000000000000000000, -0.0000000000000000000, -1.000000000000000000 ) ) ;
#355 = DIRECTION ( 'NONE',  ( 0.0000000000000000000, 0.0000000000000000000, 1.000000000000000000 ) ) ;
#356 = DIRECTION ( 'NONE',  ( -1.000000000000000000, 0.0000000000000000000, 0.0000000000000000000 ) ) ;
#357 = CARTESIAN_POINT ( 'NONE',  ( 251.8000000000000100, -14.00000000000000000, 760.0000000000000000 ) ) ;
#358 = DIRECTION ( 'NONE',  ( 0.0000000000000000000, 0.0000000000000000000, 1.000000000000000000 ) ) ;
#359 = PLANE ( 'NONE',  #44 ) ;
#360 = DIRECTION ( 'NONE',  ( 0.0000000000000000000, -0.0000000000000000000, -1.000000000000000000 ) ) ;
#361 = DIRECTION ( 'NONE',  ( 0.0000000000000000000, -1.000000000000000000, 0.0000000000000000000 ) ) ;
#362 = PLANE ( 'NONE',  #97 ) ;
#363 = DIRECTION ( 'NONE',  ( -0.0000000000000000000, 1.000000000000000000, -0.0000000000000000000 ) ) ;
#364 = CARTESIAN_POINT ( 'NONE',  ( 251.0000000000000000, 0.0000000000000000000, 760.0000000000000000 ) ) ;
#365 = CARTESIAN_POINT ( 'NONE',  ( 2.653208575337321500E-015, -14.00099999999999900, 745.0000000000001100 ) ) ;
#366 = DIRECTION ( 'NONE',  ( 0.0000000000000000000, 1.000000000000000000, 0.0000000000000000000 ) ) ;
#367 = PLANE ( 'NONE',  #101 ) ;
#368 = CARTESIAN_POINT ( 'NONE',  ( -251.0000000000000000, 0.0000000000000000000, 760.0000000000000000 ) ) ;
#369 = CARTESIAN_POINT ( 'NONE',  ( -251.0000000000000000, 0.0000000000000000000, 760.0000000000000000 ) ) ;
#370 = DIRECTION ( 'NONE',  ( 0.0000000000000000000, 1.000000000000000000, 0.0000000000000000000 ) ) ;
#371 = DIRECTION ( 'NONE',  ( -0.0000000000000000000, -0.0000000000000000000, -1.000000000000000000 ) ) ;
#372 = DIRECTION ( 'NONE',  ( 0.0000000000000000000, -1.000000000000000000, 0.0000000000000000000 ) ) ;
#373 = DIRECTION ( 'NONE',  ( 0.0000000000000000000, 0.0000000000000000000, 1.000000000000000000 ) ) ;
#374 = DIRECTION ( 'NONE',  ( -0.0000000000000000000, -1.000000000000000000, -0.0000000000000000000 ) ) ;
#375 = CARTESIAN_POINT ( 'NONE',  ( 0.0000000000000000000, 0.0000000000000000000, 0.0000000000000000000 ) ) ;
#376 = DIRECTION ( 'NONE',  ( 1.000000000000000000, 0.0000000000000000000, 0.0000000000000000000 ) ) ;
#377 = CARTESIAN_POINT ( 'NONE',  ( 251.8000000000000100, 0.0000000000000000000, 760.0000000000000000 ) ) ;
#378 = DIRECTION ( 'NONE',  ( 0.0000000000000000000, 0.0000000000000000000, 1.000000000000000000 ) ) ;
#379 = DIRECTION ( 'NONE',  ( -0.0000000000000000000, -1.000000000000000000, -0.0000000000000000000 ) ) ;
#380 = CARTESIAN_POINT ( 'NONE',  ( -251.0000000000000000, 0.0000000000000000000, 760.0000000000000000 ) ) ;
#381 = CARTESIAN_POINT ( 'NONE',  ( 1.734723475976807100E-015, 0.0000000000000000000, 14.99999999999999300 ) ) ;
#382 = DIRECTION ( 'NONE',  ( -0.0000000000000000000, 1.000000000000000000, -0.0000000000000000000 ) ) ;
#383 = DIRECTION ( 'NONE',  ( -0.0000000000000000000, -0.0000000000000000000, -1.000000000000000000 ) ) ;
#384 = CARTESIAN_POINT ( 'NONE',  ( -251.0000000000000000, 0.0000000000000000000, 0.0000000000000000000 ) ) ;
#385 = DIRECTION ( 'NONE',  ( -0.0000000000000000000, 0.0000000000000000000, -1.000000000000000000 ) ) ;
#386 = DIRECTION ( 'NONE',  ( -0.0000000000000000000, 1.000000000000000000, -0.0000000000000000000 ) ) ;
#387 = CARTESIAN_POINT ( 'NONE',  ( -251.0000000000000000, 0.0000000000000000000, 760.0000000000000000 ) ) ;
#388 = CARTESIAN_POINT ( 'NONE',  ( -251.0000000000000000, -14.00000000000000000, 0.0000000000000000000 ) ) ;
#389 = DIRECTION ( 'NONE',  ( 1.000000000000000000, 0.0000000000000000000, -0.0000000000000000000 ) ) ;
#390 = CARTESIAN_POINT ( 'NONE',  ( -251.0000000000000000, -14.00000000000000000, 760.0000000000000000 ) ) ;
#391 = DIRECTION ( 'NONE',  ( -1.000000000000000000, 0.0000000000000000000, 0.0000000000000000000 ) ) ;
#392 = CARTESIAN_POINT ( 'NONE',  ( -251.0000000000000000, 0.8000000000000000400, 760.0000000000000000 ) ) ;
#393 = DIRECTION ( 'NONE',  ( -0.0000000000000000000, 0.0000000000000000000, -1.000000000000000000 ) ) ;
#394 = CARTESIAN_POINT ( 'NONE',  ( 251.8000000000000100, 0.0000000000000000000, 760.0000000000000000 ) ) ;
#395 = DIRECTION ( 'NONE',  ( 0.0000000000000000000, -0.0000000000000000000, 1.000000000000000000 ) ) ;
#396 = CARTESIAN_POINT ( 'NONE',  ( 251.0000000000000000, -14.00000000000000000, 760.0000000000000000 ) ) ;
#397 = PLANE ( 'NONE',  #41 ) ;
#398 = DIRECTION ( 'NONE',  ( 0.0000000000000000000, -0.0000000000000000000, 1.000000000000000000 ) ) ;
#399 = DIRECTION ( 'NONE',  ( -1.000000000000000000, 0.0000000000000000000, 0.0000000000000000000 ) ) ;
#400 = DIRECTION ( 'NONE',  ( 0.0000000000000000000, 0.0000000000000000000, 1.000000000000000000 ) ) ;
#401 = PLANE ( 'NONE',  #48 ) ;
#402 = CARTESIAN_POINT ( 'NONE',  ( 2.653208575337321500E-015, 0.8000000000000000400, 742.5000000000000000 ) ) ;
#403 = CARTESIAN_POINT ( 'NONE',  ( -251.8000000000000100, 0.0000000000000000000, 760.0000000000000000 ) ) ;
#404 = CARTESIAN_POINT ( 'NONE',  ( 2.653208575337321500E-015, 0.0000000000000000000, 745.0000000000001100 ) ) ;
#405 = PLANE ( 'NONE',  #93 ) ;
#406 = DIRECTION ( 'NONE',  ( -0.0000000000000000000, -1.000000000000000000, 0.0000000000000000000 ) ) ;
#407 = CARTESIAN_POINT ( 'NONE',  ( 251.8000000000000100, 0.0000000000000000000, 0.0000000000000000000 ) ) ;
#408 = CARTESIAN_POINT ( 'NONE',  ( 1.734723475976807100E-015, 0.8000000000000000400, 17.49999999999999600 ) ) ;
#409 = DIRECTION ( 'NONE',  ( 0.0000000000000000000, 0.0000000000000000000, 1.000000000000000000 ) ) ;
#410 = DIRECTION ( 'NONE',  ( -0.0000000000000000000, -0.0000000000000000000, -1.000000000000000000 ) ) ;
#411 = DIRECTION ( 'NONE',  ( -1.000000000000000000, 0.0000000000000000000, 0.0000000000000000000 ) ) ;
#412 = DIRECTION ( 'NONE',  ( -1.000000000000000000, 0.0000000000000000000, 0.0000000000000000000 ) ) ;
#413 = CARTESIAN_POINT ( 'NONE',  ( -251.0000000000000000, 0.0000000000000000000, 0.0000000000000000000 ) ) ;
#414 = DIRECTION ( 'NONE',  ( -0.0000000000000000000, 0.0000000000000000000, -1.000000000000000000 ) ) ;
#415 = DIRECTION ( 'NONE',  ( -0.0000000000000000000, -1.000000000000000000, 0.0000000000000000000 ) ) ;
#416 = CARTESIAN_POINT ( 'NONE',  ( -251.0000000000000000, -14.00000000000000000, 760.0000000000000000 ) ) ;
#417 = DIRECTION ( 'NONE',  ( 1.000000000000000000, 0.0000000000000000000, 0.0000000000000000000 ) ) ;
#418 = CARTESIAN_POINT ( 'NONE',  ( -251.0000000000000000, 0.0000000000000000000, 760.0000000000000000 ) ) ;
#419 = CARTESIAN_POINT ( 'NONE',  ( 251.8000000000000100, -14.00000000000000000, 0.0000000000000000000 ) ) ;
#420 = DIRECTION ( 'NONE',  ( -1.000000000000000000, 0.0000000000000000000, 0.0000000000000000000 ) ) ;
#421 = DIRECTION ( 'NONE',  ( -0.0000000000000000000, -0.0000000000000000000, -1.000000000000000000 ) ) ;
#422 = CARTESIAN_POINT ( 'NONE',  ( 2.653208575337321500E-015, 0.0000000000000000000, 747.5000000000001100 ) ) ;
#423 = CARTESIAN_POINT ( 'NONE',  ( -251.0000000000000000, -14.00000000000000000, 760.0000000000000000 ) ) ;
#424 = CARTESIAN_POINT ( 'NONE',  ( 251.8000000000000100, 0.8000000000000000400, 760.0000000000000000 ) ) ;
#425 = DIRECTION ( 'NONE',  ( 0.0000000000000000000, 1.000000000000000000, 0.0000000000000000000 ) ) ;
#426 = PLANE ( 'NONE',  #46 ) ;
#427 = CARTESIAN_POINT ( 'NONE',  ( -251.8000000000000100, -14.00000000000000000, 760.0000000000000000 ) ) ;
#428 = DIRECTION ( 'NONE',  ( -1.000000000000000000, 0.0000000000000000000, 0.0000000000000000000 ) ) ;
#429 = PLANE ( 'NONE',  #98 ) ;
#430 = CARTESIAN_POINT ( 'NONE',  ( 1.734723475976807100E-015, -14.00099999999999900, 14.99999999999999300 ) ) ;
#431 = CARTESIAN_POINT ( 'NONE',  ( 1.734723475976807100E-015, 0.0000000000000000000, 17.49999999999999600 ) ) ;
#432 = DIRECTION ( 'NONE',  ( -0.0000000000000000000, 1.000000000000000000, -0.0000000000000000000 ) ) ;
#433 = DIRECTION ( 'NONE',  ( 1.000000000000000000, 0.0000000000000000000, -0.0000000000000000000 ) ) ;
#434 = DIRECTION ( 'NONE',  ( -0.0000000000000000000, 0.0000000000000000000, -1.000000000000000000 ) ) ;
#435 = DIRECTION ( 'NONE',  ( -0.0000000000000000000, -0.0000000000000000000, -1.000000000000000000 ) ) ;
#436 = CARTESIAN_POINT ( 'NONE',  ( -251.0000000000000000, 0.0000000000000000000, 0.0000000000000000000 ) ) ;
#437 = PLANE ( 'NONE',  #102 ) ;
ENDSEC;
END-ISO-10303-21;
