ISO-10303-21;
HEADER;
FILE_DESCRIPTION (( 'STEP AP203' ),
    '1' );
FILE_NAME ('Ñîåäèíèòåëüíàÿ íàêëàäêà CGB_37351.STEP',
    '2012-11-09T08:54:43',
    ( 'Àñååâ' ),
    ( '' ),
    'SwSTEP 2.0',
    'SolidWorks 2012',
    '' );
FILE_SCHEMA (( 'CONFIG_CONTROL_DESIGN' ));
ENDSEC;

DATA;
#1 = PRODUCT_DEFINITION_SHAPE ( 'NONE', 'NONE',  #37 ) ;
#2 = DESIGN_CONTEXT ( 'detailed design', #146, 'design' ) ;
#3 = AXIS2_PLACEMENT_3D ( 'NONE', #219, #218, #217 ) ;
#4 = AXIS2_PLACEMENT_3D ( 'NONE', #236, #234, #233 ) ;
#5 = EDGE_CURVE ( 'NONE', #272, #291, #248, .T. ) ;
#6 = EDGE_CURVE ( 'NONE', #291, #273, #292, .T. ) ;
#7 = EDGE_CURVE ( 'NONE', #288, #271, #274, .T. ) ;
#8 = EDGE_CURVE ( 'NONE', #272, #290, #246, .T. ) ;
#9 = EDGE_CURVE ( 'NONE', #290, #288, #244, .T. ) ;
#10 = EDGE_CURVE ( 'NONE', #289, #272, #73, .T. ) ;
#11 = EDGE_CURVE ( 'NONE', #305, #290, #124, .T. ) ;
#12 = EDGE_CURVE ( 'NONE', #58, #58, #79, .T. ) ;
#13 = EDGE_CURVE ( 'NONE', #289, #305, #69, .T. ) ;
#14 = EDGE_CURVE ( 'NONE', #273, #289, #59, .T. ) ;
#15 = EDGE_CURVE ( 'NONE', #273, #271, #66, .T. ) ;
#16 = EDGE_CURVE ( 'NONE', #271, #305, #64, .T. ) ;
#17 = EDGE_CURVE ( 'NONE', #107, #107, #92, .T. ) ;
#18 = EDGE_CURVE ( 'NONE', #68, #68, #106, .T. ) ;
#19 = EDGE_CURVE ( 'NONE', #291, #288, #112, .T. ) ;
#20 = EDGE_CURVE ( 'NONE', #89, #89, #93, .T. ) ;
#21 = CC_DESIGN_SECURITY_CLASSIFICATION ( #27, ( #32 ) ) ;
#22 = PRODUCT_RELATED_PRODUCT_CATEGORY ( 'detail', '', ( #239 ) ) ;
#23 = CC_DESIGN_DATE_AND_TIME_ASSIGNMENT ( #83, #153, ( #27 ) ) ;
#24 = APPROVAL ( #235, 'UNSPECIFIED' ) ;
#25 = CC_DESIGN_APPROVAL ( #24, ( #27 ) ) ;
#26 = CC_DESIGN_PERSON_AND_ORGANIZATION_ASSIGNMENT ( #103, #151, ( #27 ) ) ;
#27 = SECURITY_CLASSIFICATION ( '', '', #136 ) ;
#28 = CC_DESIGN_PERSON_AND_ORGANIZATION_ASSIGNMENT ( #74, #137, ( #32 ) ) ;
#29 = CC_DESIGN_PERSON_AND_ORGANIZATION_ASSIGNMENT ( #65, #138, ( #32 ) ) ;
#30 = CC_DESIGN_APPROVAL ( #31, ( #32 ) ) ;
#31 = APPROVAL ( #162, 'UNSPECIFIED' ) ;
#32 = PRODUCT_DEFINITION_FORMATION_WITH_SPECIFIED_SOURCE ( 'ANY', '', #239, .NOT_KNOWN. ) ;
#33 = CC_DESIGN_DATE_AND_TIME_ASSIGNMENT ( #88, #164, ( #37 ) ) ;
#34 = CC_DESIGN_PERSON_AND_ORGANIZATION_ASSIGNMENT ( #104, #140, ( #37 ) ) ;
#35 = CC_DESIGN_APPROVAL ( #36, ( #37 ) ) ;
#36 = APPROVAL ( #144, 'UNSPECIFIED' ) ;
#37 = PRODUCT_DEFINITION ( 'UNKNOWN', '', #32, #2 ) ;
#38 = CC_DESIGN_PERSON_AND_ORGANIZATION_ASSIGNMENT ( #99, #147, ( #239 ) ) ;
#39 = AXIS2_PLACEMENT_3D ( 'NONE', #160, #157, #149 ) ;
#40 = AXIS2_PLACEMENT_3D ( 'NONE', #177, #173, #172 ) ;
#41 = AXIS2_PLACEMENT_3D ( 'NONE', #215, #214, #213 ) ;
#42 = AXIS2_PLACEMENT_3D ( 'NONE', #181, #183, #176 ) ;
#43 =( GEOMETRIC_REPRESENTATION_CONTEXT ( 3 ) GLOBAL_UNCERTAINTY_ASSIGNED_CONTEXT ( ( #125 ) ) GLOBAL_UNIT_ASSIGNED_CONTEXT ( ( #156, #155, #154 ) ) REPRESENTATION_CONTEXT ( 'NONE', 'WORKASPACE' ) );
#44 = AXIS2_PLACEMENT_3D ( 'NONE', #185, #184, #186 ) ;
#45 = AXIS2_PLACEMENT_3D ( 'NONE', #192, #200, #188 ) ;
#46 = AXIS2_PLACEMENT_3D ( 'NONE', #187, #191, #189 ) ;
#47 = AXIS2_PLACEMENT_3D ( 'NONE', #222, #194, #193 ) ;
#48 = AXIS2_PLACEMENT_3D ( 'NONE', #208, #198, #197 ) ;
#49 = AXIS2_PLACEMENT_3D ( 'NONE', #210, #203, #202 ) ;
#50 = AXIS2_PLACEMENT_3D ( 'NONE', #207, #206, #204 ) ;
#51 = FACE_BOUND ( 'NONE', #255, .T. ) ;
#52 = SHAPE_DEFINITION_REPRESENTATION ( #1, #126 ) ;
#53 = FACE_OUTER_BOUND ( 'NONE', #250, .T. ) ;
#54 = APPROVAL_DATE_TIME ( #121, #24 ) ;
#55 = FACE_OUTER_BOUND ( 'NONE', #257, .T. ) ;
#56 = FACE_BOUND ( 'NONE', #259, .T. ) ;
#57 = APPROVAL_DATE_TIME ( #110, #36 ) ;
#58 = VERTEX_POINT ( 'NONE', #161 ) ;
#59 = LINE ( 'NONE', #231, #94 ) ;
#60 = COORDINATED_UNIVERSAL_TIME_OFFSET ( 4, 0, .AHEAD. ) ;
#61 = ORGANIZATION ( 'UNSPECIFIED', 'UNSPECIFIED', '' ) ;
#62 = FACE_OUTER_BOUND ( 'NONE', #276, .T. ) ;
#63 = COORDINATED_UNIVERSAL_TIME_OFFSET ( 4, 0, .AHEAD. ) ;
#64 = LINE ( 'NONE', #227, #70 ) ;
#65 = PERSON_AND_ORGANIZATION ( #240, #61 ) ;
#66 = LINE ( 'NONE', #229, #116 ) ;
#67 = DATE_AND_TIME ( #122, #119 ) ;
#68 = VERTEX_POINT ( 'NONE', #159 ) ;
#69 = LINE ( 'NONE', #199, #81 ) ;
#70 = VECTOR ( 'NONE', #226, 1000.000000000000000 ) ;
#71 = APPROVAL_PERSON_ORGANIZATION ( #111, #36, #142 ) ;
#72 = FACE_OUTER_BOUND ( 'NONE', #293, .T. ) ;
#73 = LINE ( 'NONE', #168, #82 ) ;
#74 = PERSON_AND_ORGANIZATION ( #240, #61 ) ;
#75 = FACE_BOUND ( 'NONE', #254, .T. ) ;
#76 = LOCAL_TIME ( 12, 54, 43.00000000000000000, #91 ) ;
#77 = FACE_OUTER_BOUND ( 'NONE', #251, .T. ) ;
#78 = PERSON_AND_ORGANIZATION ( #240, #61 ) ;
#79 = CIRCLE ( 'NONE', #4, 2.500000000000000000 ) ;
#80 = CALENDAR_DATE ( 2012, 9, 11 ) ;
#81 = VECTOR ( 'NONE', #232, 1000.000000000000000 ) ;
#82 = VECTOR ( 'NONE', #143, 1000.000000000000000 ) ;
#83 = DATE_AND_TIME ( #115, #117 ) ;
#84 = APPROVAL_DATE_TIME ( #67, #31 ) ;
#85 = FACE_OUTER_BOUND ( 'NONE', #256, .T. ) ;
#86 = FACE_OUTER_BOUND ( 'NONE', #253, .T. ) ;
#87 = VECTOR ( 'NONE', #212, 1000.000000000000000 ) ;
#88 = DATE_AND_TIME ( #80, #76 ) ;
#89 = VERTEX_POINT ( 'NONE', #158 ) ;
#90 = APPROVAL_PERSON_ORGANIZATION ( #78, #31, #139 ) ;
#91 = COORDINATED_UNIVERSAL_TIME_OFFSET ( 4, 0, .AHEAD. ) ;
#92 = CIRCLE ( 'NONE', #3, 2.500000000000000000 ) ;
#93 = CIRCLE ( 'NONE', #50, 2.500000000000002200 ) ;
#94 = VECTOR ( 'NONE', #182, 1000.000000000000000 ) ;
#95 = LOCAL_TIME ( 12, 54, 43.00000000000000000, #105 ) ;
#96 = LOCAL_TIME ( 12, 54, 43.00000000000000000, #60 ) ;
#97 = CYLINDRICAL_SURFACE ( 'NONE', #44, 2.500000000000000000 ) ;
#98 = CALENDAR_DATE ( 2012, 9, 11 ) ;
#99 = PERSON_AND_ORGANIZATION ( #240, #61 ) ;
#100 = VECTOR ( 'NONE', #238, 1000.000000000000000 ) ;
#101 = FACE_OUTER_BOUND ( 'NONE', #252, .T. ) ;
#102 = FACE_BOUND ( 'NONE', #249, .T. ) ;
#103 = PERSON_AND_ORGANIZATION ( #240, #61 ) ;
#104 = PERSON_AND_ORGANIZATION ( #240, #61 ) ;
#105 = COORDINATED_UNIVERSAL_TIME_OFFSET ( 4, 0, .AHEAD. ) ;
#106 = CIRCLE ( 'NONE', #41, 2.499999999999998700 ) ;
#107 = VERTEX_POINT ( 'NONE', #163 ) ;
#108 = FACE_OUTER_BOUND ( 'NONE', #275, .T. ) ;
#109 = PERSON_AND_ORGANIZATION ( #240, #61 ) ;
#110 = DATE_AND_TIME ( #98, #95 ) ;
#111 = PERSON_AND_ORGANIZATION ( #240, #61 ) ;
#112 = LINE ( 'NONE', #237, #87 ) ;
#113 = CYLINDRICAL_SURFACE ( 'NONE', #46, 2.500000000000000000 ) ;
#114 = FACE_OUTER_BOUND ( 'NONE', #258, .T. ) ;
#115 = CALENDAR_DATE ( 2012, 9, 11 ) ;
#116 = VECTOR ( 'NONE', #228, 1000.000000000000000 ) ;
#117 = LOCAL_TIME ( 12, 54, 43.00000000000000000, #120 ) ;
#118 = CALENDAR_DATE ( 2012, 9, 11 ) ;
#119 = LOCAL_TIME ( 12, 54, 43.00000000000000000, #63 ) ;
#120 = COORDINATED_UNIVERSAL_TIME_OFFSET ( 4, 0, .AHEAD. ) ;
#121 = DATE_AND_TIME ( #118, #96 ) ;
#122 = CALENDAR_DATE ( 2012, 9, 11 ) ;
#123 = APPROVAL_PERSON_ORGANIZATION ( #109, #24, #230 ) ;
#124 = LINE ( 'NONE', #141, #100 ) ;
#125 = UNCERTAINTY_MEASURE_WITH_UNIT (LENGTH_MEASURE( 1.000000000000000100E-005 ), #156, 'distance_accuracy_value', 'NONE');
#126 = ADVANCED_BREP_SHAPE_REPRESENTATION ( 'Tþõôøýøªõû¹ýð  ýðúûðôúð CGB_37351', ( #127, #39 ), #43 ) ;
#127 = MANIFOLD_SOLID_BREP ( 'Çåðêàëüíîå îòðàæåíèå1', #270 ) ;
#128 = ADVANCED_FACE ( 'NONE', ( #77 ), #209, .F. ) ;
#129 = ADVANCED_FACE ( 'NONE', ( #55 ), #201, .T. ) ;
#130 = ADVANCED_FACE ( 'NONE', ( #53 ), #195, .T. ) ;
#131 = ADVANCED_FACE ( 'NONE', ( #75, #86, #51 ), #190, .T. ) ;
#132 = ADVANCED_FACE ( 'NONE', ( #114, #62 ), #113, .F. ) ;
#133 = ADVANCED_FACE ( 'NONE', ( #85, #72 ), #97, .F. ) ;
#134 = ADVANCED_FACE ( 'NONE', ( #102, #101, #56 ), #179, .T. ) ;
#135 = ADVANCED_FACE ( 'NONE', ( #108 ), #175, .T. ) ;
#136 = SECURITY_CLASSIFICATION_LEVEL ( 'unclassified' ) ;
#137 = PERSON_AND_ORGANIZATION_ROLE ( 'design_supplier' ) ;
#138 = PERSON_AND_ORGANIZATION_ROLE ( 'creator' ) ;
#139 = APPROVAL_ROLE ( '' ) ;
#140 = PERSON_AND_ORGANIZATION_ROLE ( 'creator' ) ;
#141 = CARTESIAN_POINT ( 'NONE',  ( -37.00000000000000000, 0.0000000000000000000, 0.0000000000000000000 ) ) ;
#142 = APPROVAL_ROLE ( '' ) ;
#143 = DIRECTION ( 'NONE',  ( -0.0000000000000000000, -1.000000000000000000, -0.0000000000000000000 ) ) ;
#144 = APPROVAL_STATUS ( 'not_yet_approved' ) ;
#145 = APPLICATION_PROTOCOL_DEFINITION ( 'international standard', 'config_control_design', 1994, #146 ) ;
#146 = APPLICATION_CONTEXT ( 'configuration controlled 3d designs of mechanical parts and assemblies' ) ;
#147 = PERSON_AND_ORGANIZATION_ROLE ( 'design_owner' ) ;
#148 = MECHANICAL_CONTEXT ( 'NONE', #150, 'mechanical' ) ;
#149 = DIRECTION ( 'NONE',  ( 1.000000000000000000, 0.0000000000000000000, 0.0000000000000000000 ) ) ;
#150 = APPLICATION_CONTEXT ( 'configuration controlled 3d designs of mechanical parts and assemblies' ) ;
#151 = PERSON_AND_ORGANIZATION_ROLE ( 'classification_officer' ) ;
#152 = APPLICATION_PROTOCOL_DEFINITION ( 'international standard', 'config_control_design', 1994, #150 ) ;
#153 = DATE_TIME_ROLE ( 'classification_date' ) ;
#154 =( NAMED_UNIT ( * ) SI_UNIT ( $, .STERADIAN. ) SOLID_ANGLE_UNIT ( ) );
#155 =( NAMED_UNIT ( * ) PLANE_ANGLE_UNIT ( ) SI_UNIT ( $, .RADIAN. ) );
#156 =( LENGTH_UNIT ( ) NAMED_UNIT ( * ) SI_UNIT ( .MILLI., .METRE. ) );
#157 = DIRECTION ( 'NONE',  ( 0.0000000000000000000, 0.0000000000000000000, 1.000000000000000000 ) ) ;
#158 = CARTESIAN_POINT ( 'NONE',  ( -3.884010462993036900E-014, 0.0000000000000000000, -50.00000000000000000 ) ) ;
#159 = CARTESIAN_POINT ( 'NONE',  ( -3.884010462993036900E-014, 0.0000000000000000000, -20.00000000000000000 ) ) ;
#160 = CARTESIAN_POINT ( 'NONE',  ( 0.0000000000000000000, 0.0000000000000000000, 0.0000000000000000000 ) ) ;
#161 = CARTESIAN_POINT ( 'NONE',  ( 2.499999999999960900, 0.8000000000000008200, -17.50000000000000000 ) ) ;
#162 = APPROVAL_STATUS ( 'not_yet_approved' ) ;
#163 = CARTESIAN_POINT ( 'NONE',  ( 2.499999999999960900, 0.8000000000000008200, -47.50000000000000000 ) ) ;
#164 = DATE_TIME_ROLE ( 'creation_date' ) ;
#165 = CARTESIAN_POINT ( 'NONE',  ( -37.00000000000000000, 0.0000000000000000000, 0.0000000000000000000 ) ) ;
#166 = CARTESIAN_POINT ( 'NONE',  ( -37.00000000000000000, 0.8000000000000016000, 0.0000000000000000000 ) ) ;
#167 = CARTESIAN_POINT ( 'NONE',  ( -37.00000000000000000, 0.8000000000000016000, -65.00000000000000000 ) ) ;
#168 = CARTESIAN_POINT ( 'NONE',  ( -37.00000000000000000, 0.0000000000000000000, -65.00000000000000000 ) ) ;
#169 = CARTESIAN_POINT ( 'NONE',  ( 37.00000000000000000, 0.0000000000000000000, 0.0000000000000000000 ) ) ;
#170 = CARTESIAN_POINT ( 'NONE',  ( 37.00000000000000000, 0.8000000000000000400, 0.0000000000000000000 ) ) ;
#171 = CARTESIAN_POINT ( 'NONE',  ( 37.00000000000000000, 0.0000000000000000000, -65.00000000000000000 ) ) ;
#172 = DIRECTION ( 'NONE',  ( 1.000000000000000000, 0.0000000000000000000, -0.0000000000000000000 ) ) ;
#173 = DIRECTION ( 'NONE',  ( 0.0000000000000000000, 0.0000000000000000000, 1.000000000000000000 ) ) ;
#174 = CARTESIAN_POINT ( 'NONE',  ( -37.00000000000000000, 0.0000000000000000000, -65.00000000000000000 ) ) ;
#175 = PLANE ( 'NONE',  #40 ) ;
#176 = DIRECTION ( 'NONE',  ( 0.0000000000000000000, -0.0000000000000000000, -1.000000000000000000 ) ) ;
#177 = CARTESIAN_POINT ( 'NONE',  ( 37.00000000000000000, 0.0000000000000000000, 0.0000000000000000000 ) ) ;
#178 = DIRECTION ( 'NONE',  ( 1.000000000000000000, 0.0000000000000000000, 0.0000000000000000000 ) ) ;
#179 = PLANE ( 'NONE',  #42 ) ;
#180 = CARTESIAN_POINT ( 'NONE',  ( 37.00000000000000000, 0.8000000000000000400, -65.00000000000000000 ) ) ;
#181 = CARTESIAN_POINT ( 'NONE',  ( -37.00000000000000000, 0.0000000000000000000, -65.00000000000000000 ) ) ;
#182 = DIRECTION ( 'NONE',  ( -1.000000000000000000, 2.051193299296900300E-017, -0.0000000000000000000 ) ) ;
#183 = DIRECTION ( 'NONE',  ( 0.0000000000000000000, -1.000000000000000000, 0.0000000000000000000 ) ) ;
#184 = DIRECTION ( 'NONE',  ( 5.162867488026211000E-018, 1.000000000000000000, 0.0000000000000000000 ) ) ;
#185 = CARTESIAN_POINT ( 'NONE',  ( -3.888760301082020700E-014, -9.199999999999999300, -17.50000000000000000 ) ) ;
#186 = DIRECTION ( 'NONE',  ( -1.000000000000000000, 0.0000000000000000000, 0.0000000000000000000 ) ) ;
#187 = CARTESIAN_POINT ( 'NONE',  ( -3.888760301082020700E-014, -9.199999999999999300, -47.50000000000000000 ) ) ;
#188 = DIRECTION ( 'NONE',  ( -1.000000000000000000, 2.051193299296900300E-017, 0.0000000000000000000 ) ) ;
#189 = DIRECTION ( 'NONE',  ( -1.000000000000000000, 0.0000000000000000000, 0.0000000000000000000 ) ) ;
#190 = PLANE ( 'NONE',  #45 ) ;
#191 = DIRECTION ( 'NONE',  ( 5.162867488026211000E-018, 1.000000000000000000, 0.0000000000000000000 ) ) ;
#192 = CARTESIAN_POINT ( 'NONE',  ( -37.00000000000000000, 0.8000000000000016000, -65.00000000000000000 ) ) ;
#193 = DIRECTION ( 'NONE',  ( 0.0000000000000000000, 0.0000000000000000000, -1.000000000000000000 ) ) ;
#194 = DIRECTION ( 'NONE',  ( 1.000000000000000000, 0.0000000000000000000, 0.0000000000000000000 ) ) ;
#195 = PLANE ( 'NONE',  #47 ) ;
#196 = DIRECTION ( 'NONE',  ( 0.0000000000000000000, 0.0000000000000000000, 1.000000000000000000 ) ) ;
#197 = DIRECTION ( 'NONE',  ( 0.0000000000000000000, 0.0000000000000000000, 1.000000000000000000 ) ) ;
#198 = DIRECTION ( 'NONE',  ( -1.000000000000000000, 0.0000000000000000000, 0.0000000000000000000 ) ) ;
#199 = CARTESIAN_POINT ( 'NONE',  ( -37.00000000000000000, 0.8000000000000016000, -65.00000000000000000 ) ) ;
#200 = DIRECTION ( 'NONE',  ( 2.051193299296900300E-017, 1.000000000000000000, -0.0000000000000000000 ) ) ;
#201 = PLANE ( 'NONE',  #48 ) ;
#202 = DIRECTION ( 'NONE',  ( 1.000000000000000000, 0.0000000000000000000, -0.0000000000000000000 ) ) ;
#203 = DIRECTION ( 'NONE',  ( 0.0000000000000000000, 0.0000000000000000000, 1.000000000000000000 ) ) ;
#204 = DIRECTION ( 'NONE',  ( 0.0000000000000000000, 0.0000000000000000000, -1.000000000000000000 ) ) ;
#205 = DIRECTION ( 'NONE',  ( 0.0000000000000000000, 1.000000000000000000, 0.0000000000000000000 ) ) ;
#206 = DIRECTION ( 'NONE',  ( 0.0000000000000000000, -1.000000000000000000, 0.0000000000000000000 ) ) ;
#207 = CARTESIAN_POINT ( 'NONE',  ( -3.884010462993036900E-014, 0.0000000000000000000, -47.50000000000000000 ) ) ;
#208 = CARTESIAN_POINT ( 'NONE',  ( -37.00000000000000000, 0.0000000000000000000, -65.00000000000000000 ) ) ;
#209 = PLANE ( 'NONE',  #49 ) ;
#210 = CARTESIAN_POINT ( 'NONE',  ( 37.00000000000000000, 0.0000000000000000000, -65.00000000000000000 ) ) ;
#211 = CARTESIAN_POINT ( 'NONE',  ( -37.00000000000000000, 0.0000000000000000000, -65.00000000000000000 ) ) ;
#212 = DIRECTION ( 'NONE',  ( 0.0000000000000000000, 0.0000000000000000000, 1.000000000000000000 ) ) ;
#213 = DIRECTION ( 'NONE',  ( 0.0000000000000000000, 0.0000000000000000000, -1.000000000000000000 ) ) ;
#214 = DIRECTION ( 'NONE',  ( -0.0000000000000000000, 1.000000000000000000, -0.0000000000000000000 ) ) ;
#215 = CARTESIAN_POINT ( 'NONE',  ( -3.884010462993036900E-014, 0.0000000000000000000, -17.50000000000000000 ) ) ;
#216 = CARTESIAN_POINT ( 'NONE',  ( 37.00000000000000000, 0.0000000000000000000, 0.0000000000000000000 ) ) ;
#217 = DIRECTION ( 'NONE',  ( 1.000000000000000000, 0.0000000000000000000, 0.0000000000000000000 ) ) ;
#218 = DIRECTION ( 'NONE',  ( 5.162867488026211000E-018, 1.000000000000000000, 0.0000000000000000000 ) ) ;
#219 = CARTESIAN_POINT ( 'NONE',  ( -3.883597433593994500E-014, 0.8000000000000008200, -47.50000000000000000 ) ) ;
#220 = DIRECTION ( 'NONE',  ( 0.0000000000000000000, 1.000000000000000000, 0.0000000000000000000 ) ) ;
#221 = CARTESIAN_POINT ( 'NONE',  ( -37.00000000000000000, 0.0000000000000000000, 0.0000000000000000000 ) ) ;
#222 = CARTESIAN_POINT ( 'NONE',  ( 37.00000000000000000, 0.0000000000000000000, -65.00000000000000000 ) ) ;
#223 = CARTESIAN_POINT ( 'NONE',  ( 37.00000000000000000, 0.0000000000000000000, -65.00000000000000000 ) ) ;
#224 = CARTESIAN_POINT ( 'NONE',  ( -37.00000000000000000, 0.0000000000000000000, -65.00000000000000000 ) ) ;
#225 = DIRECTION ( 'NONE',  ( 1.000000000000000000, 0.0000000000000000000, 0.0000000000000000000 ) ) ;
#226 = DIRECTION ( 'NONE',  ( -1.000000000000000000, 2.051193299296900300E-017, -0.0000000000000000000 ) ) ;
#227 = CARTESIAN_POINT ( 'NONE',  ( -37.00000000000000000, 0.8000000000000016000, 0.0000000000000000000 ) ) ;
#228 = DIRECTION ( 'NONE',  ( 0.0000000000000000000, 0.0000000000000000000, 1.000000000000000000 ) ) ;
#229 = CARTESIAN_POINT ( 'NONE',  ( 37.00000000000000000, 0.8000000000000000400, -65.00000000000000000 ) ) ;
#230 = APPROVAL_ROLE ( '' ) ;
#231 = CARTESIAN_POINT ( 'NONE',  ( -37.00000000000000000, 0.8000000000000016000, -65.00000000000000000 ) ) ;
#232 = DIRECTION ( 'NONE',  ( 0.0000000000000000000, 0.0000000000000000000, 1.000000000000000000 ) ) ;
#233 = DIRECTION ( 'NONE',  ( 1.000000000000000000, 0.0000000000000000000, 0.0000000000000000000 ) ) ;
#234 = DIRECTION ( 'NONE',  ( -5.162867488026211000E-018, -1.000000000000000000, 0.0000000000000000000 ) ) ;
#235 = APPROVAL_STATUS ( 'not_yet_approved' ) ;
#236 = CARTESIAN_POINT ( 'NONE',  ( -3.883597433593994500E-014, 0.8000000000000008200, -17.50000000000000000 ) ) ;
#237 = CARTESIAN_POINT ( 'NONE',  ( 37.00000000000000000, 0.0000000000000000000, -65.00000000000000000 ) ) ;
#238 = DIRECTION ( 'NONE',  ( -0.0000000000000000000, -1.000000000000000000, -0.0000000000000000000 ) ) ;
#239 = PRODUCT ( 'Ñîåäèíèòåëüíàÿ íàêëàäêà CGB_37351', 'Ñîåäèíèòåëüíàÿ íàêëàäêà CGB_37351', '', ( #148 ) ) ;
#240 = PERSON ( 'UNSPECIFIED', 'UNSPECIFIED', 'UNSPECIFIED', ('UNSPECIFIED'), ('UNSPECIFIED'), ('UNSPECIFIED') ) ;
#241 = VECTOR ( 'NONE', #178, 1000.000000000000000 ) ;
#242 = VECTOR ( 'NONE', #196, 1000.000000000000000 ) ;
#243 = VECTOR ( 'NONE', #205, 1000.000000000000000 ) ;
#244 = LINE ( 'NONE', #221, #241 ) ;
#245 = VECTOR ( 'NONE', #220, 1000.000000000000000 ) ;
#246 = LINE ( 'NONE', #211, #242 ) ;
#247 = VECTOR ( 'NONE', #225, 1000.000000000000000 ) ;
#248 = LINE ( 'NONE', #224, #247 ) ;
#249 = EDGE_LOOP ( 'NONE', ( #294 ) ) ;
#250 = EDGE_LOOP ( 'NONE', ( #282, #265, #300, #283 ) ) ;
#251 = EDGE_LOOP ( 'NONE', ( #266, #301, #284, #267 ) ) ;
#252 = EDGE_LOOP ( 'NONE', ( #260, #277, #295, #278 ) ) ;
#253 = EDGE_LOOP ( 'NONE', ( #279, #262, #297, #280 ) ) ;
#254 = EDGE_LOOP ( 'NONE', ( #296 ) ) ;
#255 = EDGE_LOOP ( 'NONE', ( #263 ) ) ;
#256 = EDGE_LOOP ( 'NONE', ( #286 ) ) ;
#257 = EDGE_LOOP ( 'NONE', ( #298, #281, #264, #299 ) ) ;
#258 = EDGE_LOOP ( 'NONE', ( #304 ) ) ;
#259 = EDGE_LOOP ( 'NONE', ( #261 ) ) ;
#260 = ORIENTED_EDGE ( 'NONE', *, *, #9, .F. ) ;
#261 = ORIENTED_EDGE ( 'NONE', *, *, #18, .T. ) ;
#262 = ORIENTED_EDGE ( 'NONE', *, *, #15, .F. ) ;
#263 = ORIENTED_EDGE ( 'NONE', *, *, #12, .T. ) ;
#264 = ORIENTED_EDGE ( 'NONE', *, *, #10, .T. ) ;
#265 = ORIENTED_EDGE ( 'NONE', *, *, #19, .F. ) ;
#266 = ORIENTED_EDGE ( 'NONE', *, *, #5, .F. ) ;
#267 = ORIENTED_EDGE ( 'NONE', *, *, #6, .F. ) ;
#268 = ORIENTED_EDGE ( 'NONE', *, *, #16, .T. ) ;
#269 = ORIENTED_EDGE ( 'NONE', *, *, #12, .F. ) ;
#270 = CLOSED_SHELL ( 'NONE', ( #134, #131, #129, #130, #128, #135, #133, #132 ) ) ;
#271 = VERTEX_POINT ( 'NONE', #170 ) ;
#272 = VERTEX_POINT ( 'NONE', #174 ) ;
#273 = VERTEX_POINT ( 'NONE', #180 ) ;
#274 = LINE ( 'NONE', #216, #243 ) ;
#275 = EDGE_LOOP ( 'NONE', ( #302, #285, #268, #303 ) ) ;
#276 = EDGE_LOOP ( 'NONE', ( #287 ) ) ;
#277 = ORIENTED_EDGE ( 'NONE', *, *, #8, .F. ) ;
#278 = ORIENTED_EDGE ( 'NONE', *, *, #19, .T. ) ;
#279 = ORIENTED_EDGE ( 'NONE', *, *, #16, .F. ) ;
#280 = ORIENTED_EDGE ( 'NONE', *, *, #13, .T. ) ;
#281 = ORIENTED_EDGE ( 'NONE', *, *, #13, .F. ) ;
#282 = ORIENTED_EDGE ( 'NONE', *, *, #7, .F. ) ;
#283 = ORIENTED_EDGE ( 'NONE', *, *, #15, .T. ) ;
#284 = ORIENTED_EDGE ( 'NONE', *, *, #14, .F. ) ;
#285 = ORIENTED_EDGE ( 'NONE', *, *, #7, .T. ) ;
#286 = ORIENTED_EDGE ( 'NONE', *, *, #18, .F. ) ;
#287 = ORIENTED_EDGE ( 'NONE', *, *, #17, .T. ) ;
#288 = VERTEX_POINT ( 'NONE', #169 ) ;
#289 = VERTEX_POINT ( 'NONE', #167 ) ;
#290 = VERTEX_POINT ( 'NONE', #165 ) ;
#291 = VERTEX_POINT ( 'NONE', #171 ) ;
#292 = LINE ( 'NONE', #223, #245 ) ;
#293 = EDGE_LOOP ( 'NONE', ( #269 ) ) ;
#294 = ORIENTED_EDGE ( 'NONE', *, *, #20, .F. ) ;
#295 = ORIENTED_EDGE ( 'NONE', *, *, #5, .T. ) ;
#296 = ORIENTED_EDGE ( 'NONE', *, *, #17, .F. ) ;
#297 = ORIENTED_EDGE ( 'NONE', *, *, #14, .T. ) ;
#298 = ORIENTED_EDGE ( 'NONE', *, *, #11, .F. ) ;
#299 = ORIENTED_EDGE ( 'NONE', *, *, #8, .T. ) ;
#300 = ORIENTED_EDGE ( 'NONE', *, *, #6, .T. ) ;
#301 = ORIENTED_EDGE ( 'NONE', *, *, #10, .F. ) ;
#302 = ORIENTED_EDGE ( 'NONE', *, *, #9, .T. ) ;
#303 = ORIENTED_EDGE ( 'NONE', *, *, #11, .T. ) ;
#304 = ORIENTED_EDGE ( 'NONE', *, *, #20, .T. ) ;
#305 = VERTEX_POINT ( 'NONE', #166 ) ;
ENDSEC;
END-ISO-10303-21;
