ISO-10303-21;
HEADER;
FILE_DESCRIPTION (( 'STEP AP203' ),
    '1' );
FILE_NAME ('Êðûøêà íà îòâåòâèòåëü Ò-îáðàçíûé âåðòèêàëüíûé TDSA_38394.STEP',
    '2012-11-09T08:44:22',
    ( 'Àñååâ' ),
    ( '' ),
    'SwSTEP 2.0',
    'SolidWorks 2012',
    '' );
FILE_SCHEMA (( 'CONFIG_CONTROL_DESIGN' ));
ENDSEC;

DATA;
#1 = PRODUCT_RELATED_PRODUCT_CATEGORY ( 'detail', '', ( #65 ) ) ;
#2 = CC_DESIGN_SECURITY_CLASSIFICATION ( #7, ( #12 ) ) ;
#3 = CC_DESIGN_APPROVAL ( #4, ( #7 ) ) ;
#4 = APPROVAL ( #371, 'UNSPECIFIED' ) ;
#5 = CC_DESIGN_DATE_AND_TIME_ASSIGNMENT ( #278, #372, ( #7 ) ) ;
#6 = CC_DESIGN_PERSON_AND_ORGANIZATION_ASSIGNMENT ( #282, #373, ( #7 ) ) ;
#7 = SECURITY_CLASSIFICATION ( '', '', #374 ) ;
#8 = CC_DESIGN_PERSON_AND_ORGANIZATION_ASSIGNMENT ( #283, #375, ( #12 ) ) ;
#9 = CC_DESIGN_PERSON_AND_ORGANIZATION_ASSIGNMENT ( #284, #376, ( #12 ) ) ;
#10 = CC_DESIGN_APPROVAL ( #11, ( #12 ) ) ;
#11 = APPROVAL ( #378, 'UNSPECIFIED' ) ;
#12 = PRODUCT_DEFINITION_FORMATION_WITH_SPECIFIED_SOURCE ( 'ANY', '', #65, .NOT_KNOWN. ) ;
#13 = CC_DESIGN_DATE_AND_TIME_ASSIGNMENT ( #72, #380, ( #17 ) ) ;
#14 = CC_DESIGN_PERSON_AND_ORGANIZATION_ASSIGNMENT ( #76, #381, ( #17 ) ) ;
#15 = CC_DESIGN_APPROVAL ( #16, ( #17 ) ) ;
#16 = APPROVAL ( #386, 'UNSPECIFIED' ) ;
#17 = PRODUCT_DEFINITION ( 'UNKNOWN', '', #12, #285 ) ;
#18 = CC_DESIGN_PERSON_AND_ORGANIZATION_ASSIGNMENT ( #84, #389, ( #65 ) ) ;
#19 = AXIS2_PLACEMENT_3D ( 'NONE', #409, #408, #395 ) ;
#20 = AXIS2_PLACEMENT_3D ( 'NONE', #421, #418, #417 ) ;
#21 = AXIS2_PLACEMENT_3D ( 'NONE', #422, #427, #436 ) ;
#22 = AXIS2_PLACEMENT_3D ( 'NONE', #434, #426, #425 ) ;
#23 =( GEOMETRIC_REPRESENTATION_CONTEXT ( 3 ) GLOBAL_UNCERTAINTY_ASSIGNED_CONTEXT ( ( #257 ) ) GLOBAL_UNIT_ASSIGNED_CONTEXT ( ( #404, #403, #402 ) ) REPRESENTATION_CONTEXT ( 'NONE', 'WORKASPACE' ) );
#24 = AXIS2_PLACEMENT_3D ( 'NONE', #385, #362, #431 ) ;
#25 = AXIS2_PLACEMENT_3D ( 'NONE', #365, #356, #359 ) ;
#26 = AXIS2_PLACEMENT_3D ( 'NONE', #390, #360, #358 ) ;
#27 = AXIS2_PLACEMENT_3D ( 'NONE', #368, #364, #363 ) ;
#28 = AXIS2_PLACEMENT_3D ( 'NONE', #379, #437, #367 ) ;
#29 = AXIS2_PLACEMENT_3D ( 'NONE', #382, #393, #399 ) ;
#30 = AXIS2_PLACEMENT_3D ( 'NONE', #411, #391, #383 ) ;
#31 = AXIS2_PLACEMENT_3D ( 'NONE', #413, #398, #397 ) ;
#32 = AXIS2_PLACEMENT_3D ( 'NONE', #405, #407, #406 ) ;
#33 = AXIS2_PLACEMENT_3D ( 'NONE', #300, #298, #297 ) ;
#34 = AXIS2_PLACEMENT_3D ( 'NONE', #318, #317, #316 ) ;
#35 = AXIS2_PLACEMENT_3D ( 'NONE', #337, #336, #335 ) ;
#36 = AXIS2_PLACEMENT_3D ( 'NONE', #340, #339, #338 ) ;
#37 = EDGE_CURVE ( 'NONE', #243, #252, #157, .T. ) ;
#38 = EDGE_CURVE ( 'NONE', #241, #236, #244, .T. ) ;
#39 = EDGE_CURVE ( 'NONE', #251, #236, #158, .T. ) ;
#40 = EDGE_CURVE ( 'NONE', #242, #251, #155, .T. ) ;
#41 = EDGE_CURVE ( 'NONE', #92, #92, #153, .T. ) ;
#42 = EDGE_CURVE ( 'NONE', #88, #88, #147, .T. ) ;
#43 = EDGE_CURVE ( 'NONE', #236, #239, #149, .T. ) ;
#44 = EDGE_CURVE ( 'NONE', #251, #246, #148, .T. ) ;
#45 = EDGE_CURVE ( 'NONE', #245, #250, #144, .T. ) ;
#46 = EDGE_CURVE ( 'NONE', #239, #252, #151, .T. ) ;
#47 = EDGE_CURVE ( 'NONE', #240, #252, #143, .T. ) ;
#48 = EDGE_CURVE ( 'NONE', #246, #243, #141, .T. ) ;
#49 = EDGE_CURVE ( 'NONE', #87, #87, #137, .T. ) ;
#50 = EDGE_CURVE ( 'NONE', #238, #248, #182, .T. ) ;
#51 = EDGE_CURVE ( 'NONE', #247, #238, #169, .T. ) ;
#52 = EDGE_CURVE ( 'NONE', #247, #245, #139, .T. ) ;
#53 = EDGE_CURVE ( 'NONE', #253, #238, #134, .T. ) ;
#54 = EDGE_CURVE ( 'NONE', #237, #253, #131, .T. ) ;
#55 = EDGE_CURVE ( 'NONE', #237, #247, #133, .T. ) ;
#56 = EDGE_CURVE ( 'NONE', #241, #253, #127, .T. ) ;
#57 = EDGE_CURVE ( 'NONE', #242, #241, #125, .T. ) ;
#58 = EDGE_CURVE ( 'NONE', #242, #237, #123, .T. ) ;
#59 = EDGE_CURVE ( 'NONE', #250, #240, #121, .T. ) ;
#60 = EDGE_CURVE ( 'NONE', #245, #248, #119, .T. ) ;
#61 = EDGE_CURVE ( 'NONE', #250, #243, #117, .T. ) ;
#62 = EDGE_CURVE ( 'NONE', #248, #240, #115, .T. ) ;
#63 = EDGE_CURVE ( 'NONE', #86, #86, #113, .T. ) ;
#64 = EDGE_CURVE ( 'NONE', #246, #239, #110, .T. ) ;
#65 = PRODUCT ( 'Êðûøêà íà îòâåòâèòåëü Ò-îáðàçíûé âåðòèêàëüíûé TDSA_38394', 'Êðûøêà íà îòâåòâèòåëü Ò-îáðàçíûé âåðòèêàëüíûé TDSA_38394', '', ( #394 ) ) ;
#66 = PERSON ( 'UNSPECIFIED', 'UNSPECIFIED', 'UNSPECIFIED', ('UNSPECIFIED'), ('UNSPECIFIED'), ('UNSPECIFIED') ) ;
#67 = CALENDAR_DATE ( 2012, 9, 11 ) ;
#68 = LOCAL_TIME ( 12, 44, 22.00000000000000000, #69 ) ;
#69 = COORDINATED_UNIVERSAL_TIME_OFFSET ( 4, 0, .AHEAD. ) ;
#70 = APPROVAL_PERSON_ORGANIZATION ( #71, #11, #377 ) ;
#71 = PERSON_AND_ORGANIZATION ( #66, #85 ) ;
#72 = DATE_AND_TIME ( #73, #74 ) ;
#73 = CALENDAR_DATE ( 2012, 9, 11 ) ;
#74 = LOCAL_TIME ( 12, 44, 22.00000000000000000, #75 ) ;
#75 = COORDINATED_UNIVERSAL_TIME_OFFSET ( 4, 0, .AHEAD. ) ;
#76 = PERSON_AND_ORGANIZATION ( #66, #85 ) ;
#77 = APPROVAL_DATE_TIME ( #78, #16 ) ;
#78 = DATE_AND_TIME ( #79, #80 ) ;
#79 = CALENDAR_DATE ( 2012, 9, 11 ) ;
#80 = LOCAL_TIME ( 12, 44, 22.00000000000000000, #81 ) ;
#81 = COORDINATED_UNIVERSAL_TIME_OFFSET ( 4, 0, .AHEAD. ) ;
#82 = APPROVAL_PERSON_ORGANIZATION ( #83, #16, #384 ) ;
#83 = PERSON_AND_ORGANIZATION ( #66, #85 ) ;
#84 = PERSON_AND_ORGANIZATION ( #66, #85 ) ;
#85 = ORGANIZATION ( 'UNSPECIFIED', 'UNSPECIFIED', '' ) ;
#86 = VERTEX_POINT ( 'NONE', #419 ) ;
#87 = VERTEX_POINT ( 'NONE', #410 ) ;
#88 = VERTEX_POINT ( 'NONE', #415 ) ;
#89 = CYLINDRICAL_SURFACE ( 'NONE', #21, 2.500000000000057700 ) ;
#90 = SHAPE_DEFINITION_REPRESENTATION ( #286, #256 ) ;
#91 = FACE_OUTER_BOUND ( 'NONE', #174, .T. ) ;
#92 = VERTEX_POINT ( 'NONE', #412 ) ;
#93 = FACE_OUTER_BOUND ( 'NONE', #173, .T. ) ;
#94 = FACE_BOUND ( 'NONE', #166, .T. ) ;
#95 = FACE_OUTER_BOUND ( 'NONE', #159, .T. ) ;
#96 = FACE_OUTER_BOUND ( 'NONE', #171, .T. ) ;
#97 = FACE_BOUND ( 'NONE', #163, .T. ) ;
#98 = FACE_OUTER_BOUND ( 'NONE', #162, .T. ) ;
#99 = FACE_OUTER_BOUND ( 'NONE', #167, .T. ) ;
#100 = FACE_BOUND ( 'NONE', #161, .T. ) ;
#101 = FACE_OUTER_BOUND ( 'NONE', #176, .T. ) ;
#102 = FACE_OUTER_BOUND ( 'NONE', #168, .T. ) ;
#103 = FACE_OUTER_BOUND ( 'NONE', #165, .T. ) ;
#104 = CYLINDRICAL_SURFACE ( 'NONE', #29, 2.500000000000002200 ) ;
#105 = FACE_OUTER_BOUND ( 'NONE', #172, .T. ) ;
#106 = FACE_BOUND ( 'NONE', #249, .T. ) ;
#107 = FACE_OUTER_BOUND ( 'NONE', #177, .T. ) ;
#108 = VECTOR ( 'NONE', #296, 1000.000000000000000 ) ;
#109 = FACE_OUTER_BOUND ( 'NONE', #175, .T. ) ;
#110 = LINE ( 'NONE', #304, #108 ) ;
#111 = FACE_OUTER_BOUND ( 'NONE', #164, .T. ) ;
#112 = VECTOR ( 'NONE', #305, 1000.000000000000000 ) ;
#113 = CIRCLE ( 'NONE', #33, 2.500000000000057700 ) ;
#114 = VECTOR ( 'NONE', #309, 1000.000000000000000 ) ;
#115 = LINE ( 'NONE', #308, #112 ) ;
#116 = VECTOR ( 'NONE', #288, 1000.000000000000000 ) ;
#117 = LINE ( 'NONE', #310, #114 ) ;
#118 = VECTOR ( 'NONE', #353, 1000.000000000000000 ) ;
#119 = LINE ( 'NONE', #291, #116 ) ;
#120 = VECTOR ( 'NONE', #349, 1000.000000000000000 ) ;
#121 = LINE ( 'NONE', #306, #118 ) ;
#122 = VECTOR ( 'NONE', #347, 1000.000000000000000 ) ;
#123 = LINE ( 'NONE', #350, #120 ) ;
#124 = VECTOR ( 'NONE', #351, 1000.000000000000000 ) ;
#125 = LINE ( 'NONE', #348, #122 ) ;
#126 = VECTOR ( 'NONE', #346, 1000.000000000000000 ) ;
#127 = LINE ( 'NONE', #352, #124 ) ;
#128 = VECTOR ( 'NONE', #311, 1000.000000000000000 ) ;
#129 = FACE_OUTER_BOUND ( 'NONE', #160, .T. ) ;
#130 = VECTOR ( 'NONE', #314, 1000.000000000000000 ) ;
#131 = LINE ( 'NONE', #313, #128 ) ;
#132 = VECTOR ( 'NONE', #307, 1000.000000000000000 ) ;
#133 = LINE ( 'NONE', #299, #126 ) ;
#134 = LINE ( 'NONE', #322, #130 ) ;
#135 = VECTOR ( 'NONE', #315, 1000.000000000000000 ) ;
#136 = VECTOR ( 'NONE', #292, 1000.000000000000000 ) ;
#137 = CIRCLE ( 'NONE', #34, 2.500000000000002200 ) ;
#138 = VECTOR ( 'NONE', #326, 1000.000000000000000 ) ;
#139 = LINE ( 'NONE', #301, #132 ) ;
#140 = VECTOR ( 'NONE', #328, 1000.000000000000000 ) ;
#141 = LINE ( 'NONE', #330, #170 ) ;
#142 = VECTOR ( 'NONE', #329, 1000.000000000000000 ) ;
#143 = LINE ( 'NONE', #341, #138 ) ;
#144 = LINE ( 'NONE', #331, #142 ) ;
#145 = VECTOR ( 'NONE', #334, 1000.000000000000000 ) ;
#146 = VECTOR ( 'NONE', #332, 1000.000000000000000 ) ;
#147 = CIRCLE ( 'NONE', #35, 2.500000000000002200 ) ;
#148 = LINE ( 'NONE', #342, #146 ) ;
#149 = LINE ( 'NONE', #343, #145 ) ;
#150 = VECTOR ( 'NONE', #344, 1000.000000000000000 ) ;
#151 = LINE ( 'NONE', #333, #140 ) ;
#152 = VECTOR ( 'NONE', #345, 1000.000000000000000 ) ;
#153 = CIRCLE ( 'NONE', #36, 2.500000000000057700 ) ;
#154 = VECTOR ( 'NONE', #325, 1000.000000000000000 ) ;
#155 = LINE ( 'NONE', #319, #150 ) ;
#156 = VECTOR ( 'NONE', #355, 1000.000000000000000 ) ;
#157 = LINE ( 'NONE', #354, #156 ) ;
#158 = LINE ( 'NONE', #320, #152 ) ;
#159 = EDGE_LOOP ( 'NONE', ( #221, #223, #224, #233, #232, #229, #226, #228 ) ) ;
#160 = EDGE_LOOP ( 'NONE', ( #194, #193, #192, #191 ) ) ;
#161 = EDGE_LOOP ( 'NONE', ( #201 ) ) ;
#162 = EDGE_LOOP ( 'NONE', ( #207, #208, #205, #220 ) ) ;
#163 = EDGE_LOOP ( 'NONE', ( #213 ) ) ;
#164 = EDGE_LOOP ( 'NONE', ( #200, #199, #203, #214 ) ) ;
#165 = EDGE_LOOP ( 'NONE', ( #235, #215, #209, #210 ) ) ;
#166 = EDGE_LOOP ( 'NONE', ( #211 ) ) ;
#167 = EDGE_LOOP ( 'NONE', ( #184 ) ) ;
#168 = EDGE_LOOP ( 'NONE', ( #206, #189, #187, #188 ) ) ;
#169 = LINE ( 'NONE', #324, #136 ) ;
#170 = VECTOR ( 'NONE', #323, 1000.000000000000000 ) ;
#171 = EDGE_LOOP ( 'NONE', ( #212, #204, #219, #222 ) ) ;
#172 = EDGE_LOOP ( 'NONE', ( #198, #197, #196, #195 ) ) ;
#173 = EDGE_LOOP ( 'NONE', ( #230, #231, #227, #225, #234, #178, #179, #180 ) ) ;
#174 = EDGE_LOOP ( 'NONE', ( #185 ) ) ;
#175 = EDGE_LOOP ( 'NONE', ( #181 ) ) ;
#176 = EDGE_LOOP ( 'NONE', ( #183 ) ) ;
#177 = EDGE_LOOP ( 'NONE', ( #216, #217, #218, #190 ) ) ;
#178 = ORIENTED_EDGE ( 'NONE', *, *, #50, .T. ) ;
#179 = ORIENTED_EDGE ( 'NONE', *, *, #62, .T. ) ;
#180 = ORIENTED_EDGE ( 'NONE', *, *, #47, .T. ) ;
#181 = ORIENTED_EDGE ( 'NONE', *, *, #49, .T. ) ;
#182 = LINE ( 'NONE', #327, #135 ) ;
#183 = ORIENTED_EDGE ( 'NONE', *, *, #42, .T. ) ;
#184 = ORIENTED_EDGE ( 'NONE', *, *, #63, .T. ) ;
#185 = ORIENTED_EDGE ( 'NONE', *, *, #41, .T. ) ;
#186 = CLOSED_SHELL ( 'NONE', ( #258, #259, #260, #262, #263, #264, #265, #266, #267, #269, #261, #268 ) ) ;
#187 = ORIENTED_EDGE ( 'NONE', *, *, #48, .F. ) ;
#188 = ORIENTED_EDGE ( 'NONE', *, *, #64, .T. ) ;
#189 = ORIENTED_EDGE ( 'NONE', *, *, #37, .F. ) ;
#190 = ORIENTED_EDGE ( 'NONE', *, *, #51, .T. ) ;
#191 = ORIENTED_EDGE ( 'NONE', *, *, #37, .T. ) ;
#192 = ORIENTED_EDGE ( 'NONE', *, *, #61, .T. ) ;
#193 = ORIENTED_EDGE ( 'NONE', *, *, #59, .F. ) ;
#194 = ORIENTED_EDGE ( 'NONE', *, *, #47, .F. ) ;
#195 = ORIENTED_EDGE ( 'NONE', *, *, #59, .T. ) ;
#196 = ORIENTED_EDGE ( 'NONE', *, *, #45, .T. ) ;
#197 = ORIENTED_EDGE ( 'NONE', *, *, #60, .F. ) ;
#198 = ORIENTED_EDGE ( 'NONE', *, *, #62, .F. ) ;
#199 = ORIENTED_EDGE ( 'NONE', *, *, #51, .F. ) ;
#200 = ORIENTED_EDGE ( 'NONE', *, *, #50, .F. ) ;
#201 = ORIENTED_EDGE ( 'NONE', *, *, #49, .F. ) ;
#202 = ORIENTED_EDGE ( 'NONE', *, *, #63, .F. ) ;
#203 = ORIENTED_EDGE ( 'NONE', *, *, #52, .T. ) ;
#204 = ORIENTED_EDGE ( 'NONE', *, *, #64, .F. ) ;
#205 = ORIENTED_EDGE ( 'NONE', *, *, #40, .F. ) ;
#206 = ORIENTED_EDGE ( 'NONE', *, *, #46, .T. ) ;
#207 = ORIENTED_EDGE ( 'NONE', *, *, #38, .T. ) ;
#208 = ORIENTED_EDGE ( 'NONE', *, *, #39, .F. ) ;
#209 = ORIENTED_EDGE ( 'NONE', *, *, #58, .T. ) ;
#210 = ORIENTED_EDGE ( 'NONE', *, *, #54, .T. ) ;
#211 = ORIENTED_EDGE ( 'NONE', *, *, #42, .F. ) ;
#212 = ORIENTED_EDGE ( 'NONE', *, *, #43, .T. ) ;
#213 = ORIENTED_EDGE ( 'NONE', *, *, #41, .F. ) ;
#214 = ORIENTED_EDGE ( 'NONE', *, *, #60, .T. ) ;
#215 = ORIENTED_EDGE ( 'NONE', *, *, #57, .F. ) ;
#216 = ORIENTED_EDGE ( 'NONE', *, *, #53, .F. ) ;
#217 = ORIENTED_EDGE ( 'NONE', *, *, #54, .F. ) ;
#218 = ORIENTED_EDGE ( 'NONE', *, *, #55, .T. ) ;
#219 = ORIENTED_EDGE ( 'NONE', *, *, #44, .F. ) ;
#220 = ORIENTED_EDGE ( 'NONE', *, *, #57, .T. ) ;
#221 = ORIENTED_EDGE ( 'NONE', *, *, #48, .T. ) ;
#222 = ORIENTED_EDGE ( 'NONE', *, *, #39, .T. ) ;
#223 = ORIENTED_EDGE ( 'NONE', *, *, #61, .F. ) ;
#224 = ORIENTED_EDGE ( 'NONE', *, *, #45, .F. ) ;
#225 = ORIENTED_EDGE ( 'NONE', *, *, #56, .T. ) ;
#226 = ORIENTED_EDGE ( 'NONE', *, *, #40, .T. ) ;
#227 = ORIENTED_EDGE ( 'NONE', *, *, #38, .F. ) ;
#228 = ORIENTED_EDGE ( 'NONE', *, *, #44, .T. ) ;
#229 = ORIENTED_EDGE ( 'NONE', *, *, #58, .F. ) ;
#230 = ORIENTED_EDGE ( 'NONE', *, *, #46, .F. ) ;
#231 = ORIENTED_EDGE ( 'NONE', *, *, #43, .F. ) ;
#232 = ORIENTED_EDGE ( 'NONE', *, *, #55, .F. ) ;
#233 = ORIENTED_EDGE ( 'NONE', *, *, #52, .F. ) ;
#234 = ORIENTED_EDGE ( 'NONE', *, *, #53, .T. ) ;
#235 = ORIENTED_EDGE ( 'NONE', *, *, #56, .F. ) ;
#236 = VERTEX_POINT ( 'NONE', #302 ) ;
#237 = VERTEX_POINT ( 'NONE', #294 ) ;
#238 = VERTEX_POINT ( 'NONE', #293 ) ;
#239 = VERTEX_POINT ( 'NONE', #312 ) ;
#240 = VERTEX_POINT ( 'NONE', #290 ) ;
#241 = VERTEX_POINT ( 'NONE', #295 ) ;
#242 = VERTEX_POINT ( 'NONE', #287 ) ;
#243 = VERTEX_POINT ( 'NONE', #303 ) ;
#244 = LINE ( 'NONE', #321, #154 ) ;
#245 = VERTEX_POINT ( 'NONE', #289 ) ;
#246 = VERTEX_POINT ( 'NONE', #433 ) ;
#247 = VERTEX_POINT ( 'NONE', #432 ) ;
#248 = VERTEX_POINT ( 'NONE', #430 ) ;
#249 = EDGE_LOOP ( 'NONE', ( #202 ) ) ;
#250 = VERTEX_POINT ( 'NONE', #429 ) ;
#251 = VERTEX_POINT ( 'NONE', #424 ) ;
#252 = VERTEX_POINT ( 'NONE', #423 ) ;
#253 = VERTEX_POINT ( 'NONE', #416 ) ;
#254 = DATE_AND_TIME ( #67, #68 ) ;
#255 = MANIFOLD_SOLID_BREP ( 'Âûðåç-Âûòÿíóòü1', #186 ) ;
#256 = ADVANCED_BREP_SHAPE_REPRESENTATION ( '¦¨v°úð ýð þªòõªòøªõû¹ T-þñ¨ð÷ývù òõ¨ªøúðû¹ývù TDSA_38394', ( #255, #19 ), #23 ) ;
#257 = UNCERTAINTY_MEASURE_WITH_UNIT (LENGTH_MEASURE( 1.000000000000000100E-005 ), #404, 'distance_accuracy_value', 'NONE');
#258 = ADVANCED_FACE ( 'NONE', ( #102 ), #414, .F. ) ;
#259 = ADVANCED_FACE ( 'NONE', ( #129 ), #400, .T. ) ;
#260 = ADVANCED_FACE ( 'NONE', ( #105 ), #392, .T. ) ;
#261 = ADVANCED_FACE ( 'NONE', ( #109, #101 ), #104, .F. ) ;
#262 = ADVANCED_FACE ( 'NONE', ( #106, #100, #111 ), #369, .T. ) ;
#263 = ADVANCED_FACE ( 'NONE', ( #107 ), #366, .T. ) ;
#264 = ADVANCED_FACE ( 'NONE', ( #103 ), #361, .T. ) ;
#265 = ADVANCED_FACE ( 'NONE', ( #98 ), #357, .F. ) ;
#266 = ADVANCED_FACE ( 'NONE', ( #97, #94, #96 ), #435, .F. ) ;
#267 = ADVANCED_FACE ( 'NONE', ( #95 ), #428, .F. ) ;
#268 = ADVANCED_FACE ( 'NONE', ( #99, #91 ), #89, .F. ) ;
#269 = ADVANCED_FACE ( 'NONE', ( #93 ), #420, .T. ) ;
#270 = APPROVAL_DATE_TIME ( #254, #11 ) ;
#271 = APPROVAL_DATE_TIME ( #272, #4 ) ;
#272 = DATE_AND_TIME ( #273, #274 ) ;
#273 = CALENDAR_DATE ( 2012, 9, 11 ) ;
#274 = LOCAL_TIME ( 12, 44, 22.00000000000000000, #275 ) ;
#275 = COORDINATED_UNIVERSAL_TIME_OFFSET ( 4, 0, .AHEAD. ) ;
#276 = APPROVAL_PERSON_ORGANIZATION ( #277, #4, #370 ) ;
#277 = PERSON_AND_ORGANIZATION ( #66, #85 ) ;
#278 = DATE_AND_TIME ( #279, #280 ) ;
#279 = CALENDAR_DATE ( 2012, 9, 11 ) ;
#280 = LOCAL_TIME ( 12, 44, 22.00000000000000000, #281 ) ;
#281 = COORDINATED_UNIVERSAL_TIME_OFFSET ( 4, 0, .AHEAD. ) ;
#282 = PERSON_AND_ORGANIZATION ( #66, #85 ) ;
#283 = PERSON_AND_ORGANIZATION ( #66, #85 ) ;
#284 = PERSON_AND_ORGANIZATION ( #66, #85 ) ;
#285 = DESIGN_CONTEXT ( 'detailed design', #388, 'design' ) ;
#286 = PRODUCT_DEFINITION_SHAPE ( 'NONE', 'NONE',  #17 ) ;
#287 = CARTESIAN_POINT ( 'NONE',  ( -101.0000000000000000, -14.00000000000000000, 560.0000000000000000 ) ) ;
#288 = DIRECTION ( 'NONE',  ( -0.0000000000000000000, -0.0000000000000000000, -1.000000000000000000 ) ) ;
#289 = CARTESIAN_POINT ( 'NONE',  ( 101.6000000000000100, 0.5999999999999999800, 560.0000000000000000 ) ) ;
#290 = CARTESIAN_POINT ( 'NONE',  ( 101.6000000000000100, -14.00000000000000000, 0.0000000000000000000 ) ) ;
#291 = CARTESIAN_POINT ( 'NONE',  ( 101.6000000000000100, 0.5999999999999999800, 560.0000000000000000 ) ) ;
#292 = DIRECTION ( 'NONE',  ( -0.0000000000000000000, -0.0000000000000000000, -1.000000000000000000 ) ) ;
#293 = CARTESIAN_POINT ( 'NONE',  ( -101.6000000000000100, 0.5999999999999999800, 0.0000000000000000000 ) ) ;
#294 = CARTESIAN_POINT ( 'NONE',  ( -101.6000000000000100, -14.00000000000000000, 560.0000000000000000 ) ) ;
#295 = CARTESIAN_POINT ( 'NONE',  ( -101.0000000000000000, -14.00000000000000000, 0.0000000000000000000 ) ) ;
#296 = DIRECTION ( 'NONE',  ( -0.0000000000000000000, -0.0000000000000000000, -1.000000000000000000 ) ) ;
#297 = DIRECTION ( 'NONE',  ( 0.0000000000000000000, 0.0000000000000000000, -1.000000000000000000 ) ) ;
#298 = DIRECTION ( 'NONE',  ( -0.0000000000000000000, 1.000000000000000000, -0.0000000000000000000 ) ) ;
#299 = CARTESIAN_POINT ( 'NONE',  ( -101.6000000000000100, 0.0000000000000000000, 560.0000000000000000 ) ) ;
#300 = CARTESIAN_POINT ( 'NONE',  ( -8.162383766162930900E-016, 0.5999999999999999800, 545.0000000000000000 ) ) ;
#301 = CARTESIAN_POINT ( 'NONE',  ( -101.0000000000000000, 0.5999999999999999800, 560.0000000000000000 ) ) ;
#302 = CARTESIAN_POINT ( 'NONE',  ( -101.0000000000000000, 0.0000000000000000000, 0.0000000000000000000 ) ) ;
#303 = CARTESIAN_POINT ( 'NONE',  ( 101.0000000000000000, -14.00000000000000000, 560.0000000000000000 ) ) ;
#304 = CARTESIAN_POINT ( 'NONE',  ( 101.0000000000000000, 0.0000000000000000000, 560.0000000000000000 ) ) ;
#305 = DIRECTION ( 'NONE',  ( -0.0000000000000000000, -1.000000000000000000, 0.0000000000000000000 ) ) ;
#306 = CARTESIAN_POINT ( 'NONE',  ( 101.6000000000000100, -14.00000000000000000, 560.0000000000000000 ) ) ;
#307 = DIRECTION ( 'NONE',  ( 1.000000000000000000, 0.0000000000000000000, 0.0000000000000000000 ) ) ;
#308 = CARTESIAN_POINT ( 'NONE',  ( 101.6000000000000100, 0.0000000000000000000, 0.0000000000000000000 ) ) ;
#309 = DIRECTION ( 'NONE',  ( -1.000000000000000000, 0.0000000000000000000, 0.0000000000000000000 ) ) ;
#310 = CARTESIAN_POINT ( 'NONE',  ( 101.6000000000000100, -14.00000000000000000, 560.0000000000000000 ) ) ;
#311 = DIRECTION ( 'NONE',  ( -0.0000000000000000000, -0.0000000000000000000, -1.000000000000000000 ) ) ;
#312 = CARTESIAN_POINT ( 'NONE',  ( 101.0000000000000000, 0.0000000000000000000, 0.0000000000000000000 ) ) ;
#313 = CARTESIAN_POINT ( 'NONE',  ( -101.6000000000000100, -14.00000000000000000, 560.0000000000000000 ) ) ;
#314 = DIRECTION ( 'NONE',  ( 0.0000000000000000000, 1.000000000000000000, 0.0000000000000000000 ) ) ;
#315 = DIRECTION ( 'NONE',  ( 1.000000000000000000, 0.0000000000000000000, 0.0000000000000000000 ) ) ;
#316 = DIRECTION ( 'NONE',  ( 0.0000000000000000000, 0.0000000000000000000, 1.000000000000000000 ) ) ;
#317 = DIRECTION ( 'NONE',  ( 0.0000000000000000000, 1.000000000000000000, 0.0000000000000000000 ) ) ;
#318 = CARTESIAN_POINT ( 'NONE',  ( 1.734723475976807100E-015, 0.5999999999999999800, 14.99999999999999300 ) ) ;
#319 = CARTESIAN_POINT ( 'NONE',  ( -101.0000000000000000, 0.0000000000000000000, 560.0000000000000000 ) ) ;
#320 = CARTESIAN_POINT ( 'NONE',  ( -101.0000000000000000, 0.0000000000000000000, 560.0000000000000000 ) ) ;
#321 = CARTESIAN_POINT ( 'NONE',  ( -101.0000000000000000, 0.0000000000000000000, 0.0000000000000000000 ) ) ;
#322 = CARTESIAN_POINT ( 'NONE',  ( -101.6000000000000100, 0.0000000000000000000, 0.0000000000000000000 ) ) ;
#323 = DIRECTION ( 'NONE',  ( 0.0000000000000000000, -1.000000000000000000, 0.0000000000000000000 ) ) ;
#324 = CARTESIAN_POINT ( 'NONE',  ( -101.6000000000000100, 0.5999999999999999800, 560.0000000000000000 ) ) ;
#325 = DIRECTION ( 'NONE',  ( -0.0000000000000000000, 1.000000000000000000, -0.0000000000000000000 ) ) ;
#326 = DIRECTION ( 'NONE',  ( -1.000000000000000000, 0.0000000000000000000, 0.0000000000000000000 ) ) ;
#327 = CARTESIAN_POINT ( 'NONE',  ( -101.0000000000000000, 0.5999999999999999800, 0.0000000000000000000 ) ) ;
#328 = DIRECTION ( 'NONE',  ( 0.0000000000000000000, -1.000000000000000000, 0.0000000000000000000 ) ) ;
#329 = DIRECTION ( 'NONE',  ( -0.0000000000000000000, -1.000000000000000000, 0.0000000000000000000 ) ) ;
#330 = CARTESIAN_POINT ( 'NONE',  ( 101.0000000000000000, 0.0000000000000000000, 560.0000000000000000 ) ) ;
#331 = CARTESIAN_POINT ( 'NONE',  ( 101.6000000000000100, 0.0000000000000000000, 560.0000000000000000 ) ) ;
#332 = DIRECTION ( 'NONE',  ( 1.000000000000000000, 0.0000000000000000000, 0.0000000000000000000 ) ) ;
#333 = CARTESIAN_POINT ( 'NONE',  ( 101.0000000000000000, 0.0000000000000000000, 0.0000000000000000000 ) ) ;
#334 = DIRECTION ( 'NONE',  ( 1.000000000000000000, 0.0000000000000000000, 0.0000000000000000000 ) ) ;
#335 = DIRECTION ( 'NONE',  ( 0.0000000000000000000, 0.0000000000000000000, 1.000000000000000000 ) ) ;
#336 = DIRECTION ( 'NONE',  ( -0.0000000000000000000, -1.000000000000000000, -0.0000000000000000000 ) ) ;
#337 = CARTESIAN_POINT ( 'NONE',  ( 1.734723475976807100E-015, 0.0000000000000000000, 14.99999999999999300 ) ) ;
#338 = DIRECTION ( 'NONE',  ( 0.0000000000000000000, 0.0000000000000000000, 1.000000000000000000 ) ) ;
#339 = DIRECTION ( 'NONE',  ( -0.0000000000000000000, -1.000000000000000000, -0.0000000000000000000 ) ) ;
#340 = CARTESIAN_POINT ( 'NONE',  ( -8.162383766162930900E-016, 0.0000000000000000000, 545.0000000000000000 ) ) ;
#341 = CARTESIAN_POINT ( 'NONE',  ( 101.6000000000000100, -14.00000000000000000, 0.0000000000000000000 ) ) ;
#342 = CARTESIAN_POINT ( 'NONE',  ( -101.0000000000000000, 0.0000000000000000000, 560.0000000000000000 ) ) ;
#343 = CARTESIAN_POINT ( 'NONE',  ( -101.0000000000000000, 0.0000000000000000000, 0.0000000000000000000 ) ) ;
#344 = DIRECTION ( 'NONE',  ( -0.0000000000000000000, 1.000000000000000000, -0.0000000000000000000 ) ) ;
#345 = DIRECTION ( 'NONE',  ( -0.0000000000000000000, -0.0000000000000000000, -1.000000000000000000 ) ) ;
#346 = DIRECTION ( 'NONE',  ( 0.0000000000000000000, 1.000000000000000000, 0.0000000000000000000 ) ) ;
#347 = DIRECTION ( 'NONE',  ( -0.0000000000000000000, -0.0000000000000000000, -1.000000000000000000 ) ) ;
#348 = CARTESIAN_POINT ( 'NONE',  ( -101.0000000000000000, -14.00000000000000000, 560.0000000000000000 ) ) ;
#349 = DIRECTION ( 'NONE',  ( -1.000000000000000000, 0.0000000000000000000, 0.0000000000000000000 ) ) ;
#350 = CARTESIAN_POINT ( 'NONE',  ( -101.0000000000000000, -14.00000000000000000, 560.0000000000000000 ) ) ;
#351 = DIRECTION ( 'NONE',  ( -1.000000000000000000, 0.0000000000000000000, 0.0000000000000000000 ) ) ;
#352 = CARTESIAN_POINT ( 'NONE',  ( -101.0000000000000000, -14.00000000000000000, 0.0000000000000000000 ) ) ;
#353 = DIRECTION ( 'NONE',  ( -0.0000000000000000000, -0.0000000000000000000, -1.000000000000000000 ) ) ;
#354 = CARTESIAN_POINT ( 'NONE',  ( 101.0000000000000000, -14.00000000000000000, 560.0000000000000000 ) ) ;
#355 = DIRECTION ( 'NONE',  ( -0.0000000000000000000, -0.0000000000000000000, -1.000000000000000000 ) ) ;
#356 = DIRECTION ( 'NONE',  ( -1.000000000000000000, 0.0000000000000000000, 0.0000000000000000000 ) ) ;
#357 = PLANE ( 'NONE',  #25 ) ;
#358 = DIRECTION ( 'NONE',  ( 0.0000000000000000000, -0.0000000000000000000, -1.000000000000000000 ) ) ;
#359 = DIRECTION ( 'NONE',  ( 0.0000000000000000000, 0.0000000000000000000, 1.000000000000000000 ) ) ;
#360 = DIRECTION ( 'NONE',  ( 0.0000000000000000000, -1.000000000000000000, 0.0000000000000000000 ) ) ;
#361 = PLANE ( 'NONE',  #26 ) ;
#362 = DIRECTION ( 'NONE',  ( 0.0000000000000000000, 1.000000000000000000, 0.0000000000000000000 ) ) ;
#363 = DIRECTION ( 'NONE',  ( 0.0000000000000000000, 0.0000000000000000000, 1.000000000000000000 ) ) ;
#364 = DIRECTION ( 'NONE',  ( -1.000000000000000000, 0.0000000000000000000, 0.0000000000000000000 ) ) ;
#365 = CARTESIAN_POINT ( 'NONE',  ( -101.0000000000000000, 0.0000000000000000000, 560.0000000000000000 ) ) ;
#366 = PLANE ( 'NONE',  #27 ) ;
#367 = DIRECTION ( 'NONE',  ( 0.0000000000000000000, -0.0000000000000000000, 1.000000000000000000 ) ) ;
#368 = CARTESIAN_POINT ( 'NONE',  ( -101.6000000000000100, 0.0000000000000000000, 560.0000000000000000 ) ) ;
#369 = PLANE ( 'NONE',  #28 ) ;
#370 = APPROVAL_ROLE ( '' ) ;
#371 = APPROVAL_STATUS ( 'not_yet_approved' ) ;
#372 = DATE_TIME_ROLE ( 'classification_date' ) ;
#373 = PERSON_AND_ORGANIZATION_ROLE ( 'classification_officer' ) ;
#374 = SECURITY_CLASSIFICATION_LEVEL ( 'unclassified' ) ;
#375 = PERSON_AND_ORGANIZATION_ROLE ( 'design_supplier' ) ;
#376 = PERSON_AND_ORGANIZATION_ROLE ( 'creator' ) ;
#377 = APPROVAL_ROLE ( '' ) ;
#378 = APPROVAL_STATUS ( 'not_yet_approved' ) ;
#379 = CARTESIAN_POINT ( 'NONE',  ( -101.0000000000000000, 0.5999999999999999800, 560.0000000000000000 ) ) ;
#380 = DATE_TIME_ROLE ( 'creation_date' ) ;
#381 = PERSON_AND_ORGANIZATION_ROLE ( 'creator' ) ;
#382 = CARTESIAN_POINT ( 'NONE',  ( 1.734723475976807100E-015, -14.00099999999999900, 14.99999999999999300 ) ) ;
#383 = DIRECTION ( 'NONE',  ( -0.0000000000000000000, 0.0000000000000000000, -1.000000000000000000 ) ) ;
#384 = APPROVAL_ROLE ( '' ) ;
#385 = CARTESIAN_POINT ( 'NONE',  ( -101.0000000000000000, 0.0000000000000000000, 560.0000000000000000 ) ) ;
#386 = APPROVAL_STATUS ( 'not_yet_approved' ) ;
#387 = APPLICATION_PROTOCOL_DEFINITION ( 'international standard', 'config_control_design', 1994, #388 ) ;
#388 = APPLICATION_CONTEXT ( 'configuration controlled 3d designs of mechanical parts and assemblies' ) ;
#389 = PERSON_AND_ORGANIZATION_ROLE ( 'design_owner' ) ;
#390 = CARTESIAN_POINT ( 'NONE',  ( -101.0000000000000000, -14.00000000000000000, 560.0000000000000000 ) ) ;
#391 = DIRECTION ( 'NONE',  ( 1.000000000000000000, 0.0000000000000000000, -0.0000000000000000000 ) ) ;
#392 = PLANE ( 'NONE',  #30 ) ;
#393 = DIRECTION ( 'NONE',  ( -0.0000000000000000000, 1.000000000000000000, -0.0000000000000000000 ) ) ;
#394 = MECHANICAL_CONTEXT ( 'NONE', #396, 'mechanical' ) ;
#395 = DIRECTION ( 'NONE',  ( 1.000000000000000000, 0.0000000000000000000, 0.0000000000000000000 ) ) ;
#396 = APPLICATION_CONTEXT ( 'configuration controlled 3d designs of mechanical parts and assemblies' ) ;
#397 = DIRECTION ( 'NONE',  ( 0.0000000000000000000, -0.0000000000000000000, -1.000000000000000000 ) ) ;
#398 = DIRECTION ( 'NONE',  ( 0.0000000000000000000, -1.000000000000000000, 0.0000000000000000000 ) ) ;
#399 = DIRECTION ( 'NONE',  ( 0.0000000000000000000, 0.0000000000000000000, 1.000000000000000000 ) ) ;
#400 = PLANE ( 'NONE',  #31 ) ;
#401 = APPLICATION_PROTOCOL_DEFINITION ( 'international standard', 'config_control_design', 1994, #396 ) ;
#402 =( NAMED_UNIT ( * ) SI_UNIT ( $, .STERADIAN. ) SOLID_ANGLE_UNIT ( ) );
#403 =( NAMED_UNIT ( * ) PLANE_ANGLE_UNIT ( ) SI_UNIT ( $, .RADIAN. ) );
#404 =( LENGTH_UNIT ( ) NAMED_UNIT ( * ) SI_UNIT ( .MILLI., .METRE. ) );
#405 = CARTESIAN_POINT ( 'NONE',  ( 101.0000000000000000, 0.0000000000000000000, 560.0000000000000000 ) ) ;
#406 = DIRECTION ( 'NONE',  ( -0.0000000000000000000, 0.0000000000000000000, -1.000000000000000000 ) ) ;
#407 = DIRECTION ( 'NONE',  ( 1.000000000000000000, 0.0000000000000000000, -0.0000000000000000000 ) ) ;
#408 = DIRECTION ( 'NONE',  ( 0.0000000000000000000, 0.0000000000000000000, 1.000000000000000000 ) ) ;
#409 = CARTESIAN_POINT ( 'NONE',  ( 0.0000000000000000000, 0.0000000000000000000, 0.0000000000000000000 ) ) ;
#410 = CARTESIAN_POINT ( 'NONE',  ( 1.734723475976807100E-015, 0.5999999999999999800, 17.49999999999999600 ) ) ;
#411 = CARTESIAN_POINT ( 'NONE',  ( 101.6000000000000100, 0.0000000000000000000, 560.0000000000000000 ) ) ;
#412 = CARTESIAN_POINT ( 'NONE',  ( -8.162383766162930900E-016, 0.0000000000000000000, 547.5000000000001100 ) ) ;
#413 = CARTESIAN_POINT ( 'NONE',  ( 101.6000000000000100, -14.00000000000000000, 560.0000000000000000 ) ) ;
#414 = PLANE ( 'NONE',  #32 ) ;
#415 = CARTESIAN_POINT ( 'NONE',  ( 1.734723475976807100E-015, 0.0000000000000000000, 17.49999999999999600 ) ) ;
#416 = CARTESIAN_POINT ( 'NONE',  ( -101.6000000000000100, -14.00000000000000000, 0.0000000000000000000 ) ) ;
#417 = DIRECTION ( 'NONE',  ( -1.000000000000000000, 0.0000000000000000000, 0.0000000000000000000 ) ) ;
#418 = DIRECTION ( 'NONE',  ( -0.0000000000000000000, 0.0000000000000000000, -1.000000000000000000 ) ) ;
#419 = CARTESIAN_POINT ( 'NONE',  ( -8.162383766162930900E-016, 0.5999999999999999800, 542.5000000000000000 ) ) ;
#420 = PLANE ( 'NONE',  #20 ) ;
#421 = CARTESIAN_POINT ( 'NONE',  ( 0.0000000000000000000, 0.0000000000000000000, 0.0000000000000000000 ) ) ;
#422 = CARTESIAN_POINT ( 'NONE',  ( -8.162383766162930900E-016, -14.00099999999999900, 545.0000000000000000 ) ) ;
#423 = CARTESIAN_POINT ( 'NONE',  ( 101.0000000000000000, -14.00000000000000000, 0.0000000000000000000 ) ) ;
#424 = CARTESIAN_POINT ( 'NONE',  ( -101.0000000000000000, 0.0000000000000000000, 560.0000000000000000 ) ) ;
#425 = DIRECTION ( 'NONE',  ( -1.000000000000000000, 0.0000000000000000000, 0.0000000000000000000 ) ) ;
#426 = DIRECTION ( 'NONE',  ( -0.0000000000000000000, 0.0000000000000000000, -1.000000000000000000 ) ) ;
#427 = DIRECTION ( 'NONE',  ( -0.0000000000000000000, 1.000000000000000000, -0.0000000000000000000 ) ) ;
#428 = PLANE ( 'NONE',  #22 ) ;
#429 = CARTESIAN_POINT ( 'NONE',  ( 101.6000000000000100, -14.00000000000000000, 560.0000000000000000 ) ) ;
#430 = CARTESIAN_POINT ( 'NONE',  ( 101.6000000000000100, 0.5999999999999999800, 0.0000000000000000000 ) ) ;
#431 = DIRECTION ( 'NONE',  ( 0.0000000000000000000, -0.0000000000000000000, 1.000000000000000000 ) ) ;
#432 = CARTESIAN_POINT ( 'NONE',  ( -101.6000000000000100, 0.5999999999999999800, 560.0000000000000000 ) ) ;
#433 = CARTESIAN_POINT ( 'NONE',  ( 101.0000000000000000, 0.0000000000000000000, 560.0000000000000000 ) ) ;
#434 = CARTESIAN_POINT ( 'NONE',  ( 0.0000000000000000000, 0.0000000000000000000, 560.0000000000000000 ) ) ;
#435 = PLANE ( 'NONE',  #24 ) ;
#436 = DIRECTION ( 'NONE',  ( 0.0000000000000000000, 0.0000000000000000000, 1.000000000000000000 ) ) ;
#437 = DIRECTION ( 'NONE',  ( 0.0000000000000000000, 1.000000000000000000, 0.0000000000000000000 ) ) ;
ENDSEC;
END-ISO-10303-21;
