ISO-10303-21;
HEADER;
FILE_DESCRIPTION (( 'STEP AP203' ),
    '1' );
FILE_NAME ('Êðûøêà íà îòâåòâèòåëü Ò-îáðàçíûé âåðòèêàëüíûé áîêîâîé TDS_38322.STEP',
    '2012-11-09T08:44:35',
    ( 'Àñååâ' ),
    ( '' ),
    'SwSTEP 2.0',
    'SolidWorks 2012',
    '' );
FILE_SCHEMA (( 'CONFIG_CONTROL_DESIGN' ));
ENDSEC;

DATA;
#1 = VERTEX_POINT ( 'NONE', #418 ) ;
#2 = LINE ( 'NONE', #396, #53 ) ;
#3 = LINE ( 'NONE', #333, #7 ) ;
#4 = ORIENTED_EDGE ( 'NONE', *, *, #255, .T. ) ;
#5 = ORIENTED_EDGE ( 'NONE', *, *, #209, .T. ) ;
#6 = LINE ( 'NONE', #275, #169 ) ;
#7 = VECTOR ( 'NONE', #351, 1000.000000000000000 ) ;
#8 = DATE_AND_TIME ( #126, #70 ) ;
#9 = DATE_AND_TIME ( #30, #103 ) ;
#10 = LINE ( 'NONE', #355, #173 ) ;
#11 = ORIENTED_EDGE ( 'NONE', *, *, #208, .T. ) ;
#12 = ORIENTED_EDGE ( 'NONE', *, *, #239, .F. ) ;
#13 = VECTOR ( 'NONE', #393, 1000.000000000000000 ) ;
#14 = ORIENTED_EDGE ( 'NONE', *, *, #237, .F. ) ;
#15 = FACE_BOUND ( 'NONE', #138, .T. ) ;
#16 = ORIENTED_EDGE ( 'NONE', *, *, #206, .T. ) ;
#17 = APPROVAL_PERSON_ORGANIZATION ( #66, #262, #410 ) ;
#18 = VERTEX_POINT ( 'NONE', #308 ) ;
#19 = ORIENTED_EDGE ( 'NONE', *, *, #233, .F. ) ;
#20 = VERTEX_POINT ( 'NONE', #437 ) ;
#21 = VERTEX_POINT ( 'NONE', #282 ) ;
#22 = EDGE_LOOP ( 'NONE', ( #44, #130, #124, #150 ) ) ;
#23 = EDGE_LOOP ( 'NONE', ( #132, #88, #14, #141, #19, #201, #11, #165 ) ) ;
#24 = EDGE_LOOP ( 'NONE', ( #40, #188, #197, #43 ) ) ;
#25 = VERTEX_POINT ( 'NONE', #286 ) ;
#26 = EDGE_LOOP ( 'NONE', ( #164 ) ) ;
#27 = VERTEX_POINT ( 'NONE', #285 ) ;
#28 = APPROVAL_DATE_TIME ( #153, #212 ) ;
#29 = VECTOR ( 'NONE', #427, 1000.000000000000000 ) ;
#30 = CALENDAR_DATE ( 2012, 9, 11 ) ;
#31 = PERSON_AND_ORGANIZATION ( #268, #114 ) ;
#32 = VERTEX_POINT ( 'NONE', #278 ) ;
#33 = VECTOR ( 'NONE', #398, 1000.000000000000000 ) ;
#34 = CIRCLE ( 'NONE', #249, 2.500000000000002200 ) ;
#35 = FACE_OUTER_BOUND ( 'NONE', #24, .T. ) ;
#36 = VECTOR ( 'NONE', #392, 1000.000000000000000 ) ;
#37 = VECTOR ( 'NONE', #356, 1000.000000000000000 ) ;
#38 = LINE ( 'NONE', #423, #55 ) ;
#39 = ORIENTED_EDGE ( 'NONE', *, *, #241, .F. ) ;
#40 = ORIENTED_EDGE ( 'NONE', *, *, #251, .F. ) ;
#41 = VECTOR ( 'NONE', #388, 1000.000000000000000 ) ;
#42 = PERSON_AND_ORGANIZATION ( #268, #114 ) ;
#43 = ORIENTED_EDGE ( 'NONE', *, *, #240, .T. ) ;
#44 = ORIENTED_EDGE ( 'NONE', *, *, #209, .F. ) ;
#45 = FACE_OUTER_BOUND ( 'NONE', #199, .T. ) ;
#46 = ORIENTED_EDGE ( 'NONE', *, *, #237, .T. ) ;
#47 = LINE ( 'NONE', #277, #36 ) ;
#48 = FACE_OUTER_BOUND ( 'NONE', #86, .T. ) ;
#49 = LINE ( 'NONE', #349, #52 ) ;
#50 = APPROVAL_DATE_TIME ( #128, #262 ) ;
#51 = FACE_OUTER_BOUND ( 'NONE', #157, .T. ) ;
#52 = VECTOR ( 'NONE', #400, 1000.000000000000000 ) ;
#53 = VECTOR ( 'NONE', #354, 1000.000000000000000 ) ;
#54 = COORDINATED_UNIVERSAL_TIME_OFFSET ( 4, 0, .AHEAD. ) ;
#55 = VECTOR ( 'NONE', #389, 1000.000000000000000 ) ;
#56 = VECTOR ( 'NONE', #273, 1000.000000000000000 ) ;
#57 = FACE_BOUND ( 'NONE', #26, .T. ) ;
#58 = LINE ( 'NONE', #386, #33 ) ;
#59 = LINE ( 'NONE', #420, #187 ) ;
#60 = FACE_OUTER_BOUND ( 'NONE', #131, .T. ) ;
#61 = VECTOR ( 'NONE', #326, 1000.000000000000000 ) ;
#62 = APPROVAL_PERSON_ORGANIZATION ( #172, #212, #376 ) ;
#63 = FACE_BOUND ( 'NONE', #146, .T. ) ;
#64 = VERTEX_POINT ( 'NONE', #283 ) ;
#65 = ORIENTED_EDGE ( 'NONE', *, *, #241, .T. ) ;
#66 = PERSON_AND_ORGANIZATION ( #268, #114 ) ;
#67 = SHAPE_DEFINITION_REPRESENTATION ( #324, #272 ) ;
#68 = CALENDAR_DATE ( 2012, 9, 11 ) ;
#69 = LOCAL_TIME ( 12, 44, 35.00000000000000000, #149 ) ;
#70 = LOCAL_TIME ( 12, 44, 35.00000000000000000, #111 ) ;
#71 = EDGE_LOOP ( 'NONE', ( #39, #118, #134, #93 ) ) ;
#72 = VERTEX_POINT ( 'NONE', #289 ) ;
#73 = LINE ( 'NONE', #378, #41 ) ;
#74 = LINE ( 'NONE', #350, #178 ) ;
#75 = LINE ( 'NONE', #303, #175 ) ;
#76 = CIRCLE ( 'NONE', #248, 2.500000000000002200 ) ;
#77 = VECTOR ( 'NONE', #295, 1000.000000000000000 ) ;
#78 = VECTOR ( 'NONE', #306, 1000.000000000000000 ) ;
#79 = LINE ( 'NONE', #290, #77 ) ;
#80 = EDGE_LOOP ( 'NONE', ( #161 ) ) ;
#81 = CIRCLE ( 'NONE', #250, 2.500000000000002200 ) ;
#82 = VECTOR ( 'NONE', #287, 1000.000000000000000 ) ;
#83 = ORIENTED_EDGE ( 'NONE', *, *, #235, .T. ) ;
#84 = ORIENTED_EDGE ( 'NONE', *, *, #229, .T. ) ;
#85 = LINE ( 'NONE', #304, #56 ) ;
#86 = EDGE_LOOP ( 'NONE', ( #156, #104, #89, #133 ) ) ;
#87 = LINE ( 'NONE', #293, #82 ) ;
#88 = ORIENTED_EDGE ( 'NONE', *, *, #227, .F. ) ;
#89 = ORIENTED_EDGE ( 'NONE', *, *, #252, .F. ) ;
#90 = LINE ( 'NONE', #288, #78 ) ;
#91 = VECTOR ( 'NONE', #276, 1000.000000000000000 ) ;
#92 = LINE ( 'NONE', #274, #91 ) ;
#93 = ORIENTED_EDGE ( 'NONE', *, *, #243, .T. ) ;
#94 = ORIENTED_EDGE ( 'NONE', *, *, #206, .F. ) ;
#95 = ORIENTED_EDGE ( 'NONE', *, *, #242, .F. ) ;
#96 = FACE_OUTER_BOUND ( 'NONE', #180, .T. ) ;
#97 = FACE_OUTER_BOUND ( 'NONE', #22, .T. ) ;
#98 = ORIENTED_EDGE ( 'NONE', *, *, #230, .T. ) ;
#99 = ORIENTED_EDGE ( 'NONE', *, *, #208, .F. ) ;
#100 = ORIENTED_EDGE ( 'NONE', *, *, #242, .T. ) ;
#101 = COORDINATED_UNIVERSAL_TIME_OFFSET ( 4, 0, .AHEAD. ) ;
#102 = ORIENTED_EDGE ( 'NONE', *, *, #255, .F. ) ;
#103 = LOCAL_TIME ( 12, 44, 35.00000000000000000, #171 ) ;
#104 = ORIENTED_EDGE ( 'NONE', *, *, #238, .F. ) ;
#105 = VECTOR ( 'NONE', #302, 1000.000000000000000 ) ;
#106 = ORIENTED_EDGE ( 'NONE', *, *, #251, .T. ) ;
#107 = ORIENTED_EDGE ( 'NONE', *, *, #226, .T. ) ;
#108 = ORIENTED_EDGE ( 'NONE', *, *, #213, .F. ) ;
#109 = PERSON_AND_ORGANIZATION ( #268, #114 ) ;
#110 = EDGE_LOOP ( 'NONE', ( #144 ) ) ;
#111 = COORDINATED_UNIVERSAL_TIME_OFFSET ( 4, 0, .AHEAD. ) ;
#112 = VERTEX_POINT ( 'NONE', #433 ) ;
#113 = VERTEX_POINT ( 'NONE', #366 ) ;
#114 = ORGANIZATION ( 'UNSPECIFIED', 'UNSPECIFIED', '' ) ;
#115 = LINE ( 'NONE', #390, #117 ) ;
#116 = EDGE_LOOP ( 'NONE', ( #95, #127, #84, #98 ) ) ;
#117 = VECTOR ( 'NONE', #421, 1000.000000000000000 ) ;
#118 = ORIENTED_EDGE ( 'NONE', *, *, #230, .F. ) ;
#119 = FACE_OUTER_BOUND ( 'NONE', #116, .T. ) ;
#120 = ORIENTED_EDGE ( 'NONE', *, *, #234, .T. ) ;
#121 = FACE_OUTER_BOUND ( 'NONE', #193, .T. ) ;
#122 = EDGE_LOOP ( 'NONE', ( #160 ) ) ;
#123 = FACE_OUTER_BOUND ( 'NONE', #23, .T. ) ;
#124 = ORIENTED_EDGE ( 'NONE', *, *, #227, .T. ) ;
#125 = VERTEX_POINT ( 'NONE', #297 ) ;
#126 = CALENDAR_DATE ( 2012, 9, 11 ) ;
#127 = ORIENTED_EDGE ( 'NONE', *, *, #253, .F. ) ;
#128 = DATE_AND_TIME ( #68, #158 ) ;
#129 = VERTEX_POINT ( 'NONE', #300 ) ;
#130 = ORIENTED_EDGE ( 'NONE', *, *, #234, .F. ) ;
#131 = EDGE_LOOP ( 'NONE', ( #83 ) ) ;
#132 = ORIENTED_EDGE ( 'NONE', *, *, #252, .T. ) ;
#133 = ORIENTED_EDGE ( 'NONE', *, *, #239, .T. ) ;
#134 = ORIENTED_EDGE ( 'NONE', *, *, #233, .T. ) ;
#135 = ORIENTED_EDGE ( 'NONE', *, *, #226, .F. ) ;
#136 = APPROVAL_DATE_TIME ( #9, #258 ) ;
#137 = ORIENTED_EDGE ( 'NONE', *, *, #207, .F. ) ;
#138 = EDGE_LOOP ( 'NONE', ( #137 ) ) ;
#139 = CLOSED_SHELL ( 'NONE', ( #315, #320, #317, #319, #322, #311, #314, #316, #312, #321, #318, #313 ) ) ;
#140 = APPROVAL_PERSON_ORGANIZATION ( #31, #258, #331 ) ;
#141 = ORIENTED_EDGE ( 'NONE', *, *, #231, .F. ) ;
#142 = LINE ( 'NONE', #394, #61 ) ;
#143 = ORIENTED_EDGE ( 'NONE', *, *, #256, .F. ) ;
#144 = ORIENTED_EDGE ( 'NONE', *, *, #207, .T. ) ;
#145 = LINE ( 'NONE', #412, #37 ) ;
#146 = EDGE_LOOP ( 'NONE', ( #143 ) ) ;
#147 = PERSON_AND_ORGANIZATION ( #268, #114 ) ;
#148 = LINE ( 'NONE', #411, #29 ) ;
#149 = COORDINATED_UNIVERSAL_TIME_OFFSET ( 4, 0, .AHEAD. ) ;
#150 = ORIENTED_EDGE ( 'NONE', *, *, #238, .T. ) ;
#151 = PERSON_AND_ORGANIZATION ( #268, #114 ) ;
#152 = FACE_BOUND ( 'NONE', #80, .T. ) ;
#153 = DATE_AND_TIME ( #194, #69 ) ;
#154 = FACE_OUTER_BOUND ( 'NONE', #110, .T. ) ;
#155 = ORIENTED_EDGE ( 'NONE', *, *, #240, .F. ) ;
#156 = ORIENTED_EDGE ( 'NONE', *, *, #236, .T. ) ;
#157 = EDGE_LOOP ( 'NONE', ( #174 ) ) ;
#158 = LOCAL_TIME ( 12, 44, 35.00000000000000000, #54 ) ;
#159 = FACE_OUTER_BOUND ( 'NONE', #71, .T. ) ;
#160 = ORIENTED_EDGE ( 'NONE', *, *, #225, .T. ) ;
#161 = ORIENTED_EDGE ( 'NONE', *, *, #225, .F. ) ;
#162 = VERTEX_POINT ( 'NONE', #299 ) ;
#163 = LOCAL_TIME ( 12, 44, 35.00000000000000000, #101 ) ;
#164 = ORIENTED_EDGE ( 'NONE', *, *, #235, .F. ) ;
#165 = ORIENTED_EDGE ( 'NONE', *, *, #228, .T. ) ;
#166 = VERTEX_POINT ( 'NONE', #309 ) ;
#167 = ORIENTED_EDGE ( 'NONE', *, *, #213, .T. ) ;
#168 = DATE_AND_TIME ( #202, #163 ) ;
#169 = VECTOR ( 'NONE', #395, 1000.000000000000000 ) ;
#170 = EDGE_LOOP ( 'NONE', ( #135, #155, #46, #120 ) ) ;
#171 = COORDINATED_UNIVERSAL_TIME_OFFSET ( 4, 0, .AHEAD. ) ;
#172 = PERSON_AND_ORGANIZATION ( #268, #114 ) ;
#173 = VECTOR ( 'NONE', #328, 1000.000000000000000 ) ;
#174 = ORIENTED_EDGE ( 'NONE', *, *, #256, .T. ) ;
#175 = VECTOR ( 'NONE', #307, 1000.000000000000000 ) ;
#176 = VERTEX_POINT ( 'NONE', #292 ) ;
#177 = VERTEX_POINT ( 'NONE', #294 ) ;
#178 = VECTOR ( 'NONE', #330, 1000.000000000000000 ) ;
#179 = VERTEX_POINT ( 'NONE', #301 ) ;
#180 = EDGE_LOOP ( 'NONE', ( #167, #12, #200, #4 ) ) ;
#181 = VECTOR ( 'NONE', #419, 1000.000000000000000 ) ;
#182 = ORIENTED_EDGE ( 'NONE', *, *, #236, .F. ) ;
#183 = VERTEX_POINT ( 'NONE', #298 ) ;
#184 = ORIENTED_EDGE ( 'NONE', *, *, #253, .T. ) ;
#185 = PERSON_AND_ORGANIZATION ( #268, #114 ) ;
#186 = LINE ( 'NONE', #430, #181 ) ;
#187 = VECTOR ( 'NONE', #359, 1000.000000000000000 ) ;
#188 = ORIENTED_EDGE ( 'NONE', *, *, #243, .F. ) ;
#189 = FACE_OUTER_BOUND ( 'NONE', #122, .T. ) ;
#190 = FACE_OUTER_BOUND ( 'NONE', #170, .T. ) ;
#191 = CIRCLE ( 'NONE', #247, 2.500000000000002200 ) ;
#192 = CYLINDRICAL_SURFACE ( 'NONE', #215, 2.500000000000002200 ) ;
#193 = EDGE_LOOP ( 'NONE', ( #16, #102, #99, #184 ) ) ;
#194 = CALENDAR_DATE ( 2012, 9, 11 ) ;
#195 = VERTEX_POINT ( 'NONE', #281 ) ;
#196 = LINE ( 'NONE', #353, #13 ) ;
#197 = ORIENTED_EDGE ( 'NONE', *, *, #231, .T. ) ;
#198 = CYLINDRICAL_SURFACE ( 'NONE', #232, 2.500000000000002200 ) ;
#199 = EDGE_LOOP ( 'NONE', ( #182, #108, #94, #100, #65, #106, #107, #5 ) ) ;
#200 = ORIENTED_EDGE ( 'NONE', *, *, #228, .F. ) ;
#201 = ORIENTED_EDGE ( 'NONE', *, *, #229, .F. ) ;
#202 = CALENDAR_DATE ( 2012, 9, 11 ) ;
#203 = LINE ( 'NONE', #284, #105 ) ;
#204 = AXIS2_PLACEMENT_3D ( 'NONE', #391, #341, #325 ) ;
#205 = AXIS2_PLACEMENT_3D ( 'NONE', #403, #404, #343 ) ;
#206 = EDGE_CURVE ( 'NONE', #195, #32, #87, .T. ) ;
#207 = EDGE_CURVE ( 'NONE', #1, #1, #81, .T. ) ;
#208 = EDGE_CURVE ( 'NONE', #166, #72, #79, .T. ) ;
#209 = EDGE_CURVE ( 'NONE', #129, #162, #90, .T. ) ;
#210 = AXIS2_PLACEMENT_3D ( 'NONE', #416, #385, #399 ) ;
#211 = CC_DESIGN_DATE_AND_TIME_ASSIGNMENT ( #168, #413, ( #221 ) ) ;
#212 = APPROVAL ( #406, 'UNSPECIFIED' ) ;
#213 = EDGE_CURVE ( 'NONE', #32, #18, #203, .T. ) ;
#214 = PRODUCT_RELATED_PRODUCT_CATEGORY ( 'detail', '', ( #269 ) ) ;
#215 = AXIS2_PLACEMENT_3D ( 'NONE', #379, #334, #428 ) ;
#216 = CC_DESIGN_PERSON_AND_ORGANIZATION_ASSIGNMENT ( #42, #339, ( #263 ) ) ;
#217 = CC_DESIGN_APPROVAL ( #212, ( #260 ) ) ;
#218 = CC_DESIGN_SECURITY_CLASSIFICATION ( #221, ( #260 ) ) ;
#219 = AXIS2_PLACEMENT_3D ( 'NONE', #375, #405, #401 ) ;
#220 = AXIS2_PLACEMENT_3D ( 'NONE', #336, #335, #347 ) ;
#221 = SECURITY_CLASSIFICATION ( '', '', #432 ) ;
#222 = CC_DESIGN_PERSON_AND_ORGANIZATION_ASSIGNMENT ( #147, #417, ( #260 ) ) ;
#223 = CC_DESIGN_PERSON_AND_ORGANIZATION_ASSIGNMENT ( #151, #368, ( #260 ) ) ;
#224 = AXIS2_PLACEMENT_3D ( 'NONE', #337, #435, #431 ) ;
#225 = EDGE_CURVE ( 'NONE', #20, #20, #76, .T. ) ;
#226 = EDGE_CURVE ( 'NONE', #177, #129, #75, .T. ) ;
#227 = EDGE_CURVE ( 'NONE', #25, #179, #92, .T. ) ;
#228 = EDGE_CURVE ( 'NONE', #72, #125, #85, .T. ) ;
#229 = EDGE_CURVE ( 'NONE', #166, #176, #49, .T. ) ;
#230 = EDGE_CURVE ( 'NONE', #176, #64, #6, .T. ) ;
#231 = EDGE_CURVE ( 'NONE', #183, #21, #58, .T. ) ;
#232 = AXIS2_PLACEMENT_3D ( 'NONE', #425, #402, #327 ) ;
#233 = EDGE_CURVE ( 'NONE', #176, #183, #47, .T. ) ;
#234 = EDGE_CURVE ( 'NONE', #25, #129, #73, .T. ) ;
#235 = EDGE_CURVE ( 'NONE', #113, #113, #34, .T. ) ;
#236 = EDGE_CURVE ( 'NONE', #18, #162, #115, .T. ) ;
#237 = EDGE_CURVE ( 'NONE', #21, #25, #38, .T. ) ;
#238 = EDGE_CURVE ( 'NONE', #179, #162, #148, .T. ) ;
#239 = EDGE_CURVE ( 'NONE', #125, #18, #2, .T. ) ;
#240 = EDGE_CURVE ( 'NONE', #21, #177, #74, .T. ) ;
#241 = EDGE_CURVE ( 'NONE', #64, #27, #3, .T. ) ;
#242 = EDGE_CURVE ( 'NONE', #195, #64, #196, .T. ) ;
#243 = EDGE_CURVE ( 'NONE', #183, #27, #186, .T. ) ;
#244 = AXIS2_PLACEMENT_3D ( 'NONE', #422, #364, #363 ) ;
#245 = AXIS2_PLACEMENT_3D ( 'NONE', #352, #348, #380 ) ;
#246 = AXIS2_PLACEMENT_3D ( 'NONE', #360, #384, #407 ) ;
#247 = AXIS2_PLACEMENT_3D ( 'NONE', #369, #397, #358 ) ;
#248 = AXIS2_PLACEMENT_3D ( 'NONE', #296, #305, #291 ) ;
#249 = AXIS2_PLACEMENT_3D ( 'NONE', #409, #387, #414 ) ;
#250 = AXIS2_PLACEMENT_3D ( 'NONE', #310, #280, #279 ) ;
#251 = EDGE_CURVE ( 'NONE', #27, #177, #145, .T. ) ;
#252 = EDGE_CURVE ( 'NONE', #125, #179, #10, .T. ) ;
#253 = EDGE_CURVE ( 'NONE', #166, #195, #142, .T. ) ;
#254 = CC_DESIGN_PERSON_AND_ORGANIZATION_ASSIGNMENT ( #109, #415, ( #221 ) ) ;
#255 = EDGE_CURVE ( 'NONE', #72, #32, #59, .T. ) ;
#256 = EDGE_CURVE ( 'NONE', #112, #112, #191, .T. ) ;
#257 = CC_DESIGN_APPROVAL ( #258, ( #221 ) ) ;
#258 = APPROVAL ( #408, 'UNSPECIFIED' ) ;
#259 = CC_DESIGN_DATE_AND_TIME_ASSIGNMENT ( #8, #371, ( #263 ) ) ;
#260 = PRODUCT_DEFINITION_FORMATION_WITH_SPECIFIED_SOURCE ( 'ANY', '', #269, .NOT_KNOWN. ) ;
#261 = CC_DESIGN_APPROVAL ( #262, ( #263 ) ) ;
#262 = APPROVAL ( #362, 'UNSPECIFIED' ) ;
#263 = PRODUCT_DEFINITION ( 'UNKNOWN', '', #260, #323 ) ;
#264 = AXIS2_PLACEMENT_3D ( 'NONE', #365, #370, #340 ) ;
#265 = CC_DESIGN_PERSON_AND_ORGANIZATION_ASSIGNMENT ( #185, #361, ( #269 ) ) ;
#266 = AXIS2_PLACEMENT_3D ( 'NONE', #372, #342, #332 ) ;
#267 =( GEOMETRIC_REPRESENTATION_CONTEXT ( 3 ) GLOBAL_UNCERTAINTY_ASSIGNED_CONTEXT ( ( #271 ) ) GLOBAL_UNIT_ASSIGNED_CONTEXT ( ( #377, #383, #373 ) ) REPRESENTATION_CONTEXT ( 'NONE', 'WORKASPACE' ) );
#268 = PERSON ( 'UNSPECIFIED', 'UNSPECIFIED', 'UNSPECIFIED', ('UNSPECIFIED'), ('UNSPECIFIED'), ('UNSPECIFIED') ) ;
#269 = PRODUCT ( 'Êðûøêà íà îòâåòâèòåëü Ò-îáðàçíûé âåðòèêàëüíûé áîêîâîé TDS_38322', 'Êðûøêà íà îòâåòâèòåëü Ò-îáðàçíûé âåðòèêàëüíûé áîêîâîé TDS_38322', '', ( #344 ) ) ;
#270 = MANIFOLD_SOLID_BREP ( 'Âûðåç-Âûòÿíóòü1', #139 ) ;
#271 = UNCERTAINTY_MEASURE_WITH_UNIT (LENGTH_MEASURE( 1.000000000000000100E-005 ), #377, 'distance_accuracy_value', 'NONE');
#272 = ADVANCED_BREP_SHAPE_REPRESENTATION ( '¦¨v°úð ýð þªòõªòøªõû¹ T-þñ¨ð÷ývù òõ¨ªøúðû¹ývù ñþúþòþù TDS_38322', ( #270, #264 ), #267 ) ;
#273 = DIRECTION ( 'NONE',  ( 1.000000000000000000, 0.0000000000000000000, 0.0000000000000000000 ) ) ;
#274 = CARTESIAN_POINT ( 'NONE',  ( 51.79999999999999700, -14.00000000000000000, 360.0000000000000000 ) ) ;
#275 = CARTESIAN_POINT ( 'NONE',  ( -51.79999999999999700, -14.00000000000000000, 360.0000000000000000 ) ) ;
#276 = DIRECTION ( 'NONE',  ( -1.000000000000000000, 0.0000000000000000000, 0.0000000000000000000 ) ) ;
#277 = CARTESIAN_POINT ( 'NONE',  ( -51.79999999999999700, 0.0000000000000000000, 360.0000000000000000 ) ) ;
#278 = CARTESIAN_POINT ( 'NONE',  ( -51.00000000000000000, 0.0000000000000000000, 0.0000000000000000000 ) ) ;
#279 = DIRECTION ( 'NONE',  ( 0.0000000000000000000, 0.0000000000000000000, -1.000000000000000000 ) ) ;
#280 = DIRECTION ( 'NONE',  ( -0.0000000000000000000, 1.000000000000000000, -0.0000000000000000000 ) ) ;
#281 = CARTESIAN_POINT ( 'NONE',  ( -51.00000000000000000, -14.00000000000000000, 0.0000000000000000000 ) ) ;
#282 = CARTESIAN_POINT ( 'NONE',  ( 51.79999999999999700, 0.8000000000000000400, 360.0000000000000000 ) ) ;
#283 = CARTESIAN_POINT ( 'NONE',  ( -51.79999999999999700, -14.00000000000000000, 0.0000000000000000000 ) ) ;
#284 = CARTESIAN_POINT ( 'NONE',  ( -51.00000000000000000, 0.0000000000000000000, 0.0000000000000000000 ) ) ;
#285 = CARTESIAN_POINT ( 'NONE',  ( -51.79999999999999700, 0.8000000000000000400, 0.0000000000000000000 ) ) ;
#286 = CARTESIAN_POINT ( 'NONE',  ( 51.79999999999999700, -14.00000000000000000, 360.0000000000000000 ) ) ;
#287 = DIRECTION ( 'NONE',  ( -0.0000000000000000000, 1.000000000000000000, -0.0000000000000000000 ) ) ;
#288 = CARTESIAN_POINT ( 'NONE',  ( 51.79999999999999700, -14.00000000000000000, 0.0000000000000000000 ) ) ;
#289 = CARTESIAN_POINT ( 'NONE',  ( -51.00000000000000000, 0.0000000000000000000, 360.0000000000000000 ) ) ;
#290 = CARTESIAN_POINT ( 'NONE',  ( -51.00000000000000000, 0.0000000000000000000, 360.0000000000000000 ) ) ;
#291 = DIRECTION ( 'NONE',  ( 0.0000000000000000000, 0.0000000000000000000, 1.000000000000000000 ) ) ;
#292 = CARTESIAN_POINT ( 'NONE',  ( -51.79999999999999700, -14.00000000000000000, 360.0000000000000000 ) ) ;
#293 = CARTESIAN_POINT ( 'NONE',  ( -51.00000000000000000, 0.0000000000000000000, 0.0000000000000000000 ) ) ;
#294 = CARTESIAN_POINT ( 'NONE',  ( 51.79999999999999700, 0.8000000000000000400, 0.0000000000000000000 ) ) ;
#295 = DIRECTION ( 'NONE',  ( -0.0000000000000000000, 1.000000000000000000, -0.0000000000000000000 ) ) ;
#296 = CARTESIAN_POINT ( 'NONE',  ( 1.734723475976807100E-015, 0.8000000000000000400, 14.99999999999999300 ) ) ;
#297 = CARTESIAN_POINT ( 'NONE',  ( 51.00000000000000000, 0.0000000000000000000, 360.0000000000000000 ) ) ;
#298 = CARTESIAN_POINT ( 'NONE',  ( -51.79999999999999700, 0.8000000000000000400, 360.0000000000000000 ) ) ;
#299 = CARTESIAN_POINT ( 'NONE',  ( 51.00000000000000000, -14.00000000000000000, 0.0000000000000000000 ) ) ;
#300 = CARTESIAN_POINT ( 'NONE',  ( 51.79999999999999700, -14.00000000000000000, 0.0000000000000000000 ) ) ;
#301 = CARTESIAN_POINT ( 'NONE',  ( 51.00000000000000000, -14.00000000000000000, 360.0000000000000000 ) ) ;
#302 = DIRECTION ( 'NONE',  ( 1.000000000000000000, 0.0000000000000000000, 0.0000000000000000000 ) ) ;
#303 = CARTESIAN_POINT ( 'NONE',  ( 51.79999999999999700, 0.0000000000000000000, 0.0000000000000000000 ) ) ;
#304 = CARTESIAN_POINT ( 'NONE',  ( -51.00000000000000000, 0.0000000000000000000, 360.0000000000000000 ) ) ;
#305 = DIRECTION ( 'NONE',  ( 0.0000000000000000000, 1.000000000000000000, 0.0000000000000000000 ) ) ;
#306 = DIRECTION ( 'NONE',  ( -1.000000000000000000, 0.0000000000000000000, 0.0000000000000000000 ) ) ;
#307 = DIRECTION ( 'NONE',  ( -0.0000000000000000000, -1.000000000000000000, 0.0000000000000000000 ) ) ;
#308 = CARTESIAN_POINT ( 'NONE',  ( 51.00000000000000000, 0.0000000000000000000, 0.0000000000000000000 ) ) ;
#309 = CARTESIAN_POINT ( 'NONE',  ( -51.00000000000000000, -14.00000000000000000, 360.0000000000000000 ) ) ;
#310 = CARTESIAN_POINT ( 'NONE',  ( 0.0000000000000000000, 0.8000000000000000400, 345.0000000000000600 ) ) ;
#311 = ADVANCED_FACE ( 'NONE', ( #119 ), #436, .T. ) ;
#312 = ADVANCED_FACE ( 'NONE', ( #123 ), #346, .F. ) ;
#313 = ADVANCED_FACE ( 'NONE', ( #154, #60 ), #192, .F. ) ;
#314 = ADVANCED_FACE ( 'NONE', ( #121 ), #345, .F. ) ;
#315 = ADVANCED_FACE ( 'NONE', ( #48 ), #329, .F. ) ;
#316 = ADVANCED_FACE ( 'NONE', ( #57, #63, #96 ), #434, .F. ) ;
#317 = ADVANCED_FACE ( 'NONE', ( #190 ), #424, .T. ) ;
#318 = ADVANCED_FACE ( 'NONE', ( #189, #51 ), #198, .F. ) ;
#319 = ADVANCED_FACE ( 'NONE', ( #15, #152, #35 ), #338, .T. ) ;
#320 = ADVANCED_FACE ( 'NONE', ( #97 ), #374, .T. ) ;
#321 = ADVANCED_FACE ( 'NONE', ( #45 ), #381, .T. ) ;
#322 = ADVANCED_FACE ( 'NONE', ( #159 ), #429, .T. ) ;
#323 = DESIGN_CONTEXT ( 'detailed design', #426, 'design' ) ;
#324 = PRODUCT_DEFINITION_SHAPE ( 'NONE', 'NONE',  #263 ) ;
#325 = DIRECTION ( 'NONE',  ( 0.0000000000000000000, -0.0000000000000000000, 1.000000000000000000 ) ) ;
#326 = DIRECTION ( 'NONE',  ( -0.0000000000000000000, -0.0000000000000000000, -1.000000000000000000 ) ) ;
#327 = DIRECTION ( 'NONE',  ( 0.0000000000000000000, 0.0000000000000000000, 1.000000000000000000 ) ) ;
#328 = DIRECTION ( 'NONE',  ( 0.0000000000000000000, -1.000000000000000000, 0.0000000000000000000 ) ) ;
#329 = PLANE ( 'NONE',  #210 ) ;
#330 = DIRECTION ( 'NONE',  ( -0.0000000000000000000, -0.0000000000000000000, -1.000000000000000000 ) ) ;
#331 = APPROVAL_ROLE ( '' ) ;
#332 = DIRECTION ( 'NONE',  ( 0.0000000000000000000, 0.0000000000000000000, 1.000000000000000000 ) ) ;
#333 = CARTESIAN_POINT ( 'NONE',  ( -51.79999999999999700, 0.0000000000000000000, 0.0000000000000000000 ) ) ;
#334 = DIRECTION ( 'NONE',  ( -0.0000000000000000000, 1.000000000000000000, -0.0000000000000000000 ) ) ;
#335 = DIRECTION ( 'NONE',  ( 0.0000000000000000000, 1.000000000000000000, 0.0000000000000000000 ) ) ;
#336 = CARTESIAN_POINT ( 'NONE',  ( -51.00000000000000000, 0.8000000000000000400, 360.0000000000000000 ) ) ;
#337 = CARTESIAN_POINT ( 'NONE',  ( 0.0000000000000000000, 0.0000000000000000000, 0.0000000000000000000 ) ) ;
#338 = PLANE ( 'NONE',  #220 ) ;
#339 = PERSON_AND_ORGANIZATION_ROLE ( 'creator' ) ;
#340 = DIRECTION ( 'NONE',  ( 1.000000000000000000, 0.0000000000000000000, 0.0000000000000000000 ) ) ;
#341 = DIRECTION ( 'NONE',  ( 0.0000000000000000000, 1.000000000000000000, 0.0000000000000000000 ) ) ;
#342 = DIRECTION ( 'NONE',  ( -1.000000000000000000, 0.0000000000000000000, 0.0000000000000000000 ) ) ;
#343 = DIRECTION ( 'NONE',  ( 0.0000000000000000000, -0.0000000000000000000, -1.000000000000000000 ) ) ;
#344 = MECHANICAL_CONTEXT ( 'NONE', #357, 'mechanical' ) ;
#345 = PLANE ( 'NONE',  #266 ) ;
#346 = PLANE ( 'NONE',  #246 ) ;
#347 = DIRECTION ( 'NONE',  ( 0.0000000000000000000, -0.0000000000000000000, 1.000000000000000000 ) ) ;
#348 = DIRECTION ( 'NONE',  ( 0.0000000000000000000, -1.000000000000000000, 0.0000000000000000000 ) ) ;
#349 = CARTESIAN_POINT ( 'NONE',  ( -51.00000000000000000, -14.00000000000000000, 360.0000000000000000 ) ) ;
#350 = CARTESIAN_POINT ( 'NONE',  ( 51.79999999999999700, 0.8000000000000000400, 360.0000000000000000 ) ) ;
#351 = DIRECTION ( 'NONE',  ( 0.0000000000000000000, 1.000000000000000000, 0.0000000000000000000 ) ) ;
#352 = CARTESIAN_POINT ( 'NONE',  ( 51.79999999999999700, -14.00000000000000000, 360.0000000000000000 ) ) ;
#353 = CARTESIAN_POINT ( 'NONE',  ( -51.00000000000000000, -14.00000000000000000, 0.0000000000000000000 ) ) ;
#354 = DIRECTION ( 'NONE',  ( -0.0000000000000000000, -0.0000000000000000000, -1.000000000000000000 ) ) ;
#355 = CARTESIAN_POINT ( 'NONE',  ( 51.00000000000000000, 0.0000000000000000000, 360.0000000000000000 ) ) ;
#356 = DIRECTION ( 'NONE',  ( 1.000000000000000000, 0.0000000000000000000, 0.0000000000000000000 ) ) ;
#357 = APPLICATION_CONTEXT ( 'configuration controlled 3d designs of mechanical parts and assemblies' ) ;
#358 = DIRECTION ( 'NONE',  ( 0.0000000000000000000, 0.0000000000000000000, 1.000000000000000000 ) ) ;
#359 = DIRECTION ( 'NONE',  ( -0.0000000000000000000, -0.0000000000000000000, -1.000000000000000000 ) ) ;
#360 = CARTESIAN_POINT ( 'NONE',  ( 0.0000000000000000000, 0.0000000000000000000, 360.0000000000000000 ) ) ;
#361 = PERSON_AND_ORGANIZATION_ROLE ( 'design_owner' ) ;
#362 = APPROVAL_STATUS ( 'not_yet_approved' ) ;
#363 = DIRECTION ( 'NONE',  ( -0.0000000000000000000, 0.0000000000000000000, -1.000000000000000000 ) ) ;
#364 = DIRECTION ( 'NONE',  ( 1.000000000000000000, 0.0000000000000000000, -0.0000000000000000000 ) ) ;
#365 = CARTESIAN_POINT ( 'NONE',  ( 0.0000000000000000000, 0.0000000000000000000, 0.0000000000000000000 ) ) ;
#366 = CARTESIAN_POINT ( 'NONE',  ( 0.0000000000000000000, 0.0000000000000000000, 347.5000000000000600 ) ) ;
#367 = APPLICATION_PROTOCOL_DEFINITION ( 'international standard', 'config_control_design', 1994, #357 ) ;
#368 = PERSON_AND_ORGANIZATION_ROLE ( 'creator' ) ;
#369 = CARTESIAN_POINT ( 'NONE',  ( 1.734723475976807100E-015, 0.0000000000000000000, 14.99999999999999300 ) ) ;
#370 = DIRECTION ( 'NONE',  ( 0.0000000000000000000, 0.0000000000000000000, 1.000000000000000000 ) ) ;
#371 = DATE_TIME_ROLE ( 'creation_date' ) ;
#372 = CARTESIAN_POINT ( 'NONE',  ( -51.00000000000000000, 0.0000000000000000000, 360.0000000000000000 ) ) ;
#373 =( NAMED_UNIT ( * ) SI_UNIT ( $, .STERADIAN. ) SOLID_ANGLE_UNIT ( ) );
#374 = PLANE ( 'NONE',  #245 ) ;
#375 = CARTESIAN_POINT ( 'NONE',  ( -51.79999999999999700, 0.0000000000000000000, 360.0000000000000000 ) ) ;
#376 = APPROVAL_ROLE ( '' ) ;
#377 =( LENGTH_UNIT ( ) NAMED_UNIT ( * ) SI_UNIT ( .MILLI., .METRE. ) );
#378 = CARTESIAN_POINT ( 'NONE',  ( 51.79999999999999700, -14.00000000000000000, 360.0000000000000000 ) ) ;
#379 = CARTESIAN_POINT ( 'NONE',  ( 0.0000000000000000000, -14.00099999999999900, 345.0000000000000600 ) ) ;
#380 = DIRECTION ( 'NONE',  ( 0.0000000000000000000, -0.0000000000000000000, -1.000000000000000000 ) ) ;
#381 = PLANE ( 'NONE',  #224 ) ;
#382 = APPLICATION_PROTOCOL_DEFINITION ( 'international standard', 'config_control_design', 1994, #426 ) ;
#383 =( NAMED_UNIT ( * ) PLANE_ANGLE_UNIT ( ) SI_UNIT ( $, .RADIAN. ) );
#384 = DIRECTION ( 'NONE',  ( -0.0000000000000000000, 0.0000000000000000000, -1.000000000000000000 ) ) ;
#385 = DIRECTION ( 'NONE',  ( 1.000000000000000000, 0.0000000000000000000, -0.0000000000000000000 ) ) ;
#386 = CARTESIAN_POINT ( 'NONE',  ( -51.00000000000000000, 0.8000000000000000400, 360.0000000000000000 ) ) ;
#387 = DIRECTION ( 'NONE',  ( -0.0000000000000000000, -1.000000000000000000, -0.0000000000000000000 ) ) ;
#388 = DIRECTION ( 'NONE',  ( -0.0000000000000000000, -0.0000000000000000000, -1.000000000000000000 ) ) ;
#389 = DIRECTION ( 'NONE',  ( -0.0000000000000000000, -1.000000000000000000, 0.0000000000000000000 ) ) ;
#390 = CARTESIAN_POINT ( 'NONE',  ( 51.00000000000000000, 0.0000000000000000000, 0.0000000000000000000 ) ) ;
#391 = CARTESIAN_POINT ( 'NONE',  ( -51.00000000000000000, 0.0000000000000000000, 360.0000000000000000 ) ) ;
#392 = DIRECTION ( 'NONE',  ( 0.0000000000000000000, 1.000000000000000000, 0.0000000000000000000 ) ) ;
#393 = DIRECTION ( 'NONE',  ( -1.000000000000000000, 0.0000000000000000000, 0.0000000000000000000 ) ) ;
#394 = CARTESIAN_POINT ( 'NONE',  ( -51.00000000000000000, -14.00000000000000000, 360.0000000000000000 ) ) ;
#395 = DIRECTION ( 'NONE',  ( -0.0000000000000000000, -0.0000000000000000000, -1.000000000000000000 ) ) ;
#396 = CARTESIAN_POINT ( 'NONE',  ( 51.00000000000000000, 0.0000000000000000000, 360.0000000000000000 ) ) ;
#397 = DIRECTION ( 'NONE',  ( -0.0000000000000000000, -1.000000000000000000, -0.0000000000000000000 ) ) ;
#398 = DIRECTION ( 'NONE',  ( 1.000000000000000000, 0.0000000000000000000, 0.0000000000000000000 ) ) ;
#399 = DIRECTION ( 'NONE',  ( -0.0000000000000000000, 0.0000000000000000000, -1.000000000000000000 ) ) ;
#400 = DIRECTION ( 'NONE',  ( -1.000000000000000000, 0.0000000000000000000, 0.0000000000000000000 ) ) ;
#401 = DIRECTION ( 'NONE',  ( 0.0000000000000000000, 0.0000000000000000000, 1.000000000000000000 ) ) ;
#402 = DIRECTION ( 'NONE',  ( -0.0000000000000000000, 1.000000000000000000, -0.0000000000000000000 ) ) ;
#403 = CARTESIAN_POINT ( 'NONE',  ( -51.00000000000000000, -14.00000000000000000, 360.0000000000000000 ) ) ;
#404 = DIRECTION ( 'NONE',  ( 0.0000000000000000000, -1.000000000000000000, 0.0000000000000000000 ) ) ;
#405 = DIRECTION ( 'NONE',  ( -1.000000000000000000, 0.0000000000000000000, 0.0000000000000000000 ) ) ;
#406 = APPROVAL_STATUS ( 'not_yet_approved' ) ;
#407 = DIRECTION ( 'NONE',  ( -1.000000000000000000, 0.0000000000000000000, 0.0000000000000000000 ) ) ;
#408 = APPROVAL_STATUS ( 'not_yet_approved' ) ;
#409 = CARTESIAN_POINT ( 'NONE',  ( 0.0000000000000000000, 0.0000000000000000000, 345.0000000000000600 ) ) ;
#410 = APPROVAL_ROLE ( '' ) ;
#411 = CARTESIAN_POINT ( 'NONE',  ( 51.00000000000000000, -14.00000000000000000, 360.0000000000000000 ) ) ;
#412 = CARTESIAN_POINT ( 'NONE',  ( -51.00000000000000000, 0.8000000000000000400, 0.0000000000000000000 ) ) ;
#413 = DATE_TIME_ROLE ( 'classification_date' ) ;
#414 = DIRECTION ( 'NONE',  ( 0.0000000000000000000, 0.0000000000000000000, 1.000000000000000000 ) ) ;
#415 = PERSON_AND_ORGANIZATION_ROLE ( 'classification_officer' ) ;
#416 = CARTESIAN_POINT ( 'NONE',  ( 51.00000000000000000, 0.0000000000000000000, 360.0000000000000000 ) ) ;
#417 = PERSON_AND_ORGANIZATION_ROLE ( 'design_supplier' ) ;
#418 = CARTESIAN_POINT ( 'NONE',  ( 0.0000000000000000000, 0.8000000000000000400, 342.5000000000000000 ) ) ;
#419 = DIRECTION ( 'NONE',  ( -0.0000000000000000000, -0.0000000000000000000, -1.000000000000000000 ) ) ;
#420 = CARTESIAN_POINT ( 'NONE',  ( -51.00000000000000000, 0.0000000000000000000, 360.0000000000000000 ) ) ;
#421 = DIRECTION ( 'NONE',  ( 0.0000000000000000000, -1.000000000000000000, 0.0000000000000000000 ) ) ;
#422 = CARTESIAN_POINT ( 'NONE',  ( 51.79999999999999700, 0.0000000000000000000, 360.0000000000000000 ) ) ;
#423 = CARTESIAN_POINT ( 'NONE',  ( 51.79999999999999700, 0.0000000000000000000, 360.0000000000000000 ) ) ;
#424 = PLANE ( 'NONE',  #244 ) ;
#425 = CARTESIAN_POINT ( 'NONE',  ( 1.734723475976807100E-015, -14.00099999999999900, 14.99999999999999300 ) ) ;
#426 = APPLICATION_CONTEXT ( 'configuration controlled 3d designs of mechanical parts and assemblies' ) ;
#427 = DIRECTION ( 'NONE',  ( -0.0000000000000000000, -0.0000000000000000000, -1.000000000000000000 ) ) ;
#428 = DIRECTION ( 'NONE',  ( 0.0000000000000000000, 0.0000000000000000000, 1.000000000000000000 ) ) ;
#429 = PLANE ( 'NONE',  #219 ) ;
#430 = CARTESIAN_POINT ( 'NONE',  ( -51.79999999999999700, 0.8000000000000000400, 360.0000000000000000 ) ) ;
#431 = DIRECTION ( 'NONE',  ( -1.000000000000000000, 0.0000000000000000000, 0.0000000000000000000 ) ) ;
#432 = SECURITY_CLASSIFICATION_LEVEL ( 'unclassified' ) ;
#433 = CARTESIAN_POINT ( 'NONE',  ( 1.734723475976807100E-015, 0.0000000000000000000, 17.49999999999999600 ) ) ;
#434 = PLANE ( 'NONE',  #204 ) ;
#435 = DIRECTION ( 'NONE',  ( -0.0000000000000000000, 0.0000000000000000000, -1.000000000000000000 ) ) ;
#436 = PLANE ( 'NONE',  #205 ) ;
#437 = CARTESIAN_POINT ( 'NONE',  ( 1.734723475976807100E-015, 0.8000000000000000400, 17.49999999999999600 ) ) ;
ENDSEC;
END-ISO-10303-21;
