ISO-10303-21;
HEADER;
FILE_DESCRIPTION (( 'STEP AP203' ),
    '1' );
FILE_NAME ('Êðûøêà íà îòâåòâèòåëü Ò-îáðàçíûé âåðòèêàëüíûé TDSA_38391.STEP',
    '2012-11-09T08:44:21',
    ( 'Àñååâ' ),
    ( '' ),
    'SwSTEP 2.0',
    'SolidWorks 2012',
    '' );
FILE_SCHEMA (( 'CONFIG_CONTROL_DESIGN' ));
ENDSEC;

DATA;
#1 = DIRECTION ( 'NONE',  ( 0.0000000000000000000, 0.0000000000000000000, 1.000000000000000000 ) ) ;
#2 = DIRECTION ( 'NONE',  ( -1.000000000000000000, 0.0000000000000000000, 0.0000000000000000000 ) ) ;
#3 = PLANE ( 'NONE',  #156 ) ;
#4 = DIRECTION ( 'NONE',  ( -1.000000000000000000, 0.0000000000000000000, 0.0000000000000000000 ) ) ;
#5 = CARTESIAN_POINT ( 'NONE',  ( -76.00000000000000000, 0.5999999999999999800, 560.0000000000000000 ) ) ;
#6 = DIRECTION ( 'NONE',  ( -0.0000000000000000000, 0.0000000000000000000, -1.000000000000000000 ) ) ;
#7 = PLANE ( 'NONE',  #157 ) ;
#8 = DIRECTION ( 'NONE',  ( 1.000000000000000000, 0.0000000000000000000, 0.0000000000000000000 ) ) ;
#9 = DIRECTION ( 'NONE',  ( 0.0000000000000000000, 0.0000000000000000000, 1.000000000000000000 ) ) ;
#10 = DIRECTION ( 'NONE',  ( 0.0000000000000000000, 0.0000000000000000000, 1.000000000000000000 ) ) ;
#11 = DIRECTION ( 'NONE',  ( 0.0000000000000000000, 1.000000000000000000, 0.0000000000000000000 ) ) ;
#12 = DIRECTION ( 'NONE',  ( -1.000000000000000000, 0.0000000000000000000, 0.0000000000000000000 ) ) ;
#13 = CARTESIAN_POINT ( 'NONE',  ( -76.59999999999999400, 0.0000000000000000000, 560.0000000000000000 ) ) ;
#14 = PLANE ( 'NONE',  #158 ) ;
#15 = DIRECTION ( 'NONE',  ( 0.0000000000000000000, -0.0000000000000000000, 1.000000000000000000 ) ) ;
#16 = CARTESIAN_POINT ( 'NONE',  ( -76.00000000000000000, 0.0000000000000000000, 560.0000000000000000 ) ) ;
#17 = PLANE ( 'NONE',  #159 ) ;
#18 = CARTESIAN_POINT ( 'NONE',  ( 0.0000000000000000000, 0.0000000000000000000, 0.0000000000000000000 ) ) ;
#19 = CARTESIAN_POINT ( 'NONE',  ( -76.00000000000000000, 0.5999999999999999800, 560.0000000000000000 ) ) ;
#20 = CARTESIAN_POINT ( 'NONE',  ( 1.734723475976807100E-015, 0.5999999999999999800, 14.99999999999999300 ) ) ;
#21 = DIRECTION ( 'NONE',  ( -0.0000000000000000000, 0.0000000000000000000, -1.000000000000000000 ) ) ;
#22 = DIRECTION ( 'NONE',  ( 1.000000000000000000, 0.0000000000000000000, -0.0000000000000000000 ) ) ;
#23 = PLANE ( 'NONE',  #112 ) ;
#24 = DIRECTION ( 'NONE',  ( 0.0000000000000000000, -0.0000000000000000000, -1.000000000000000000 ) ) ;
#25 = DIRECTION ( 'NONE',  ( 0.0000000000000000000, 0.0000000000000000000, -1.000000000000000000 ) ) ;
#26 = DIRECTION ( 'NONE',  ( 0.0000000000000000000, -1.000000000000000000, 0.0000000000000000000 ) ) ;
#27 = DIRECTION ( 'NONE',  ( 0.0000000000000000000, 1.000000000000000000, 0.0000000000000000000 ) ) ;
#28 = PLANE ( 'NONE',  #120 ) ;
#29 = DIRECTION ( 'NONE',  ( -0.0000000000000000000, 0.0000000000000000000, -1.000000000000000000 ) ) ;
#30 = DIRECTION ( 'NONE',  ( -0.0000000000000000000, 1.000000000000000000, -0.0000000000000000000 ) ) ;
#31 = DIRECTION ( 'NONE',  ( 1.000000000000000000, 0.0000000000000000000, -0.0000000000000000000 ) ) ;
#32 = CARTESIAN_POINT ( 'NONE',  ( 76.00000000000000000, 0.0000000000000000000, 560.0000000000000000 ) ) ;
#33 = CARTESIAN_POINT ( 'NONE',  ( 0.0000000000000000000, 0.5999999999999999800, 545.0000000000000000 ) ) ;
#34 = PLANE ( 'NONE',  #121 ) ;
#35 = DIRECTION ( 'NONE',  ( 0.0000000000000000000, -0.0000000000000000000, -1.000000000000000000 ) ) ;
#36 = CARTESIAN_POINT ( 'NONE',  ( -76.59999999999999400, 0.0000000000000000000, 560.0000000000000000 ) ) ;
#37 = DIRECTION ( 'NONE',  ( 0.0000000000000000000, -1.000000000000000000, 0.0000000000000000000 ) ) ;
#38 = CARTESIAN_POINT ( 'NONE',  ( -76.00000000000000000, -14.00000000000000000, 560.0000000000000000 ) ) ;
#39 = CARTESIAN_POINT ( 'NONE',  ( 76.59999999999999400, 0.0000000000000000000, 560.0000000000000000 ) ) ;
#40 = PLANE ( 'NONE',  #126 ) ;
#41 = CARTESIAN_POINT ( 'NONE',  ( -76.59999999999999400, 0.5999999999999999800, 560.0000000000000000 ) ) ;
#42 = DIRECTION ( 'NONE',  ( 0.0000000000000000000, 0.0000000000000000000, 1.000000000000000000 ) ) ;
#43 = CARTESIAN_POINT ( 'NONE',  ( 76.59999999999999400, -14.00000000000000000, 560.0000000000000000 ) ) ;
#44 = DIRECTION ( 'NONE',  ( -0.0000000000000000000, 1.000000000000000000, -0.0000000000000000000 ) ) ;
#45 = CARTESIAN_POINT ( 'NONE',  ( 0.0000000000000000000, -14.00099999999999900, 545.0000000000000000 ) ) ;
#46 = CARTESIAN_POINT ( 'NONE',  ( -76.00000000000000000, 0.5999999999999999800, 0.0000000000000000000 ) ) ;
#47 = CARTESIAN_POINT ( 'NONE',  ( -76.00000000000000000, 0.0000000000000000000, 560.0000000000000000 ) ) ;
#48 = CARTESIAN_POINT ( 'NONE',  ( 76.00000000000000000, -14.00000000000000000, 0.0000000000000000000 ) ) ;
#49 = CARTESIAN_POINT ( 'NONE',  ( 76.00000000000000000, 0.0000000000000000000, 560.0000000000000000 ) ) ;
#50 = CARTESIAN_POINT ( 'NONE',  ( -76.59999999999999400, 0.5999999999999999800, 560.0000000000000000 ) ) ;
#51 = CARTESIAN_POINT ( 'NONE',  ( 76.59999999999999400, 0.5999999999999999800, 560.0000000000000000 ) ) ;
#52 = CARTESIAN_POINT ( 'NONE',  ( -76.00000000000000000, 0.0000000000000000000, 0.0000000000000000000 ) ) ;
#53 = CARTESIAN_POINT ( 'NONE',  ( 76.00000000000000000, 0.0000000000000000000, 0.0000000000000000000 ) ) ;
#54 = DIRECTION ( 'NONE',  ( -0.0000000000000000000, -1.000000000000000000, 0.0000000000000000000 ) ) ;
#55 = CARTESIAN_POINT ( 'NONE',  ( 76.00000000000000000, -14.00000000000000000, 560.0000000000000000 ) ) ;
#56 = CARTESIAN_POINT ( 'NONE',  ( -76.59999999999999400, 0.5999999999999999800, 0.0000000000000000000 ) ) ;
#57 = CARTESIAN_POINT ( 'NONE',  ( -76.00000000000000000, -14.00000000000000000, 560.0000000000000000 ) ) ;
#58 = CARTESIAN_POINT ( 'NONE',  ( 76.59999999999999400, -14.00000000000000000, 0.0000000000000000000 ) ) ;
#59 = CARTESIAN_POINT ( 'NONE',  ( 76.59999999999999400, -14.00000000000000000, 560.0000000000000000 ) ) ;
#60 = CARTESIAN_POINT ( 'NONE',  ( -76.59999999999999400, -14.00000000000000000, 560.0000000000000000 ) ) ;
#61 = DIRECTION ( 'NONE',  ( 0.0000000000000000000, -1.000000000000000000, 0.0000000000000000000 ) ) ;
#62 = CARTESIAN_POINT ( 'NONE',  ( -76.00000000000000000, -14.00000000000000000, 0.0000000000000000000 ) ) ;
#63 = CARTESIAN_POINT ( 'NONE',  ( 76.00000000000000000, 0.0000000000000000000, 0.0000000000000000000 ) ) ;
#64 = DIRECTION ( 'NONE',  ( -0.0000000000000000000, -0.0000000000000000000, -1.000000000000000000 ) ) ;
#65 = CARTESIAN_POINT ( 'NONE',  ( 76.00000000000000000, -14.00000000000000000, 560.0000000000000000 ) ) ;
#66 = DIRECTION ( 'NONE',  ( 1.000000000000000000, 0.0000000000000000000, 0.0000000000000000000 ) ) ;
#67 = CARTESIAN_POINT ( 'NONE',  ( 76.59999999999999400, 0.5999999999999999800, 0.0000000000000000000 ) ) ;
#68 = DIRECTION ( 'NONE',  ( 1.000000000000000000, 0.0000000000000000000, 0.0000000000000000000 ) ) ;
#69 = DIRECTION ( 'NONE',  ( 0.0000000000000000000, 0.0000000000000000000, 1.000000000000000000 ) ) ;
#70 = DIRECTION ( 'NONE',  ( -0.0000000000000000000, -1.000000000000000000, -0.0000000000000000000 ) ) ;
#71 = CARTESIAN_POINT ( 'NONE',  ( 1.734723475976807100E-015, 0.0000000000000000000, 14.99999999999999300 ) ) ;
#72 = DIRECTION ( 'NONE',  ( 0.0000000000000000000, 0.0000000000000000000, 1.000000000000000000 ) ) ;
#73 = DIRECTION ( 'NONE',  ( -0.0000000000000000000, -1.000000000000000000, -0.0000000000000000000 ) ) ;
#74 = DIRECTION ( 'NONE',  ( -0.0000000000000000000, -0.0000000000000000000, -1.000000000000000000 ) ) ;
#75 = CARTESIAN_POINT ( 'NONE',  ( 0.0000000000000000000, 0.0000000000000000000, 545.0000000000000000 ) ) ;
#76 = CARTESIAN_POINT ( 'NONE',  ( -76.59999999999999400, -14.00000000000000000, 0.0000000000000000000 ) ) ;
#77 = CARTESIAN_POINT ( 'NONE',  ( -76.00000000000000000, 0.0000000000000000000, 560.0000000000000000 ) ) ;
#78 = CARTESIAN_POINT ( 'NONE',  ( 76.59999999999999400, 0.0000000000000000000, 560.0000000000000000 ) ) ;
#79 = CARTESIAN_POINT ( 'NONE',  ( 76.59999999999999400, 0.5999999999999999800, 560.0000000000000000 ) ) ;
#80 = DIRECTION ( 'NONE',  ( -0.0000000000000000000, 1.000000000000000000, -0.0000000000000000000 ) ) ;
#81 = CARTESIAN_POINT ( 'NONE',  ( -76.00000000000000000, 0.0000000000000000000, 560.0000000000000000 ) ) ;
#82 = CARTESIAN_POINT ( 'NONE',  ( 76.59999999999999400, 0.0000000000000000000, 0.0000000000000000000 ) ) ;
#83 = DIRECTION ( 'NONE',  ( -0.0000000000000000000, -0.0000000000000000000, -1.000000000000000000 ) ) ;
#84 = DIRECTION ( 'NONE',  ( -0.0000000000000000000, -0.0000000000000000000, -1.000000000000000000 ) ) ;
#85 = CARTESIAN_POINT ( 'NONE',  ( -76.00000000000000000, 0.0000000000000000000, 0.0000000000000000000 ) ) ;
#86 = CARTESIAN_POINT ( 'NONE',  ( -76.00000000000000000, 0.0000000000000000000, 560.0000000000000000 ) ) ;
#87 = DIRECTION ( 'NONE',  ( -0.0000000000000000000, 1.000000000000000000, -0.0000000000000000000 ) ) ;
#88 = CARTESIAN_POINT ( 'NONE',  ( -76.00000000000000000, 0.0000000000000000000, 0.0000000000000000000 ) ) ;
#89 = DIRECTION ( 'NONE',  ( -0.0000000000000000000, -1.000000000000000000, 0.0000000000000000000 ) ) ;
#90 = DIRECTION ( 'NONE',  ( -1.000000000000000000, 0.0000000000000000000, 0.0000000000000000000 ) ) ;
#91 = CARTESIAN_POINT ( 'NONE',  ( -76.00000000000000000, -14.00000000000000000, 560.0000000000000000 ) ) ;
#92 = DIRECTION ( 'NONE',  ( -1.000000000000000000, 0.0000000000000000000, 0.0000000000000000000 ) ) ;
#93 = DIRECTION ( 'NONE',  ( -0.0000000000000000000, -0.0000000000000000000, -1.000000000000000000 ) ) ;
#94 = CARTESIAN_POINT ( 'NONE',  ( 76.59999999999999400, -14.00000000000000000, 560.0000000000000000 ) ) ;
#95 = DIRECTION ( 'NONE',  ( -0.0000000000000000000, -0.0000000000000000000, -1.000000000000000000 ) ) ;
#96 = CARTESIAN_POINT ( 'NONE',  ( 76.59999999999999400, -14.00000000000000000, 560.0000000000000000 ) ) ;
#97 = CARTESIAN_POINT ( 'NONE',  ( 76.00000000000000000, 0.0000000000000000000, 560.0000000000000000 ) ) ;
#98 = DIRECTION ( 'NONE',  ( -1.000000000000000000, 0.0000000000000000000, 0.0000000000000000000 ) ) ;
#99 = DIRECTION ( 'NONE',  ( 0.0000000000000000000, -1.000000000000000000, 0.0000000000000000000 ) ) ;
#100 = CARTESIAN_POINT ( 'NONE',  ( 76.59999999999999400, -14.00000000000000000, 0.0000000000000000000 ) ) ;
#101 = CARTESIAN_POINT ( 'NONE',  ( 76.00000000000000000, 0.0000000000000000000, 560.0000000000000000 ) ) ;
#102 = DIRECTION ( 'NONE',  ( -1.000000000000000000, 0.0000000000000000000, 0.0000000000000000000 ) ) ;
#103 = DIRECTION ( 'NONE',  ( 0.0000000000000000000, 1.000000000000000000, 0.0000000000000000000 ) ) ;
#104 = DIRECTION ( 'NONE',  ( -0.0000000000000000000, -0.0000000000000000000, -1.000000000000000000 ) ) ;
#105 = CARTESIAN_POINT ( 'NONE',  ( -76.00000000000000000, -14.00000000000000000, 560.0000000000000000 ) ) ;
#106 = CARTESIAN_POINT ( 'NONE',  ( -76.59999999999999400, -14.00000000000000000, 560.0000000000000000 ) ) ;
#107 = DIRECTION ( 'NONE',  ( 0.0000000000000000000, 1.000000000000000000, 0.0000000000000000000 ) ) ;
#108 = CARTESIAN_POINT ( 'NONE',  ( -76.59999999999999400, 0.0000000000000000000, 0.0000000000000000000 ) ) ;
#109 = DIRECTION ( 'NONE',  ( 1.000000000000000000, 0.0000000000000000000, 0.0000000000000000000 ) ) ;
#110 = DIRECTION ( 'NONE',  ( -0.0000000000000000000, -0.0000000000000000000, -1.000000000000000000 ) ) ;
#111 = CARTESIAN_POINT ( 'NONE',  ( -76.00000000000000000, -14.00000000000000000, 0.0000000000000000000 ) ) ;
#112 = AXIS2_PLACEMENT_3D ( 'NONE', #32, #22, #21 ) ;
#113 = PRODUCT_RELATED_PRODUCT_CATEGORY ( 'detail', '', ( #176 ) ) ;
#114 = CC_DESIGN_SECURITY_CLASSIFICATION ( #119, ( #142 ) ) ;
#115 = CC_DESIGN_APPROVAL ( #116, ( #119 ) ) ;
#116 = APPROVAL ( #399, 'UNSPECIFIED' ) ;
#117 = CC_DESIGN_DATE_AND_TIME_ASSIGNMENT ( #185, #400, ( #119 ) ) ;
#118 = CC_DESIGN_PERSON_AND_ORGANIZATION_ASSIGNMENT ( #189, #401, ( #119 ) ) ;
#119 = SECURITY_CLASSIFICATION ( '', '', #402 ) ;
#120 = AXIS2_PLACEMENT_3D ( 'NONE', #38, #26, #24 ) ;
#121 = AXIS2_PLACEMENT_3D ( 'NONE', #39, #31, #29 ) ;
#122 = CC_DESIGN_PERSON_AND_ORGANIZATION_ASSIGNMENT ( #190, #403, ( #142 ) ) ;
#123 = CC_DESIGN_PERSON_AND_ORGANIZATION_ASSIGNMENT ( #191, #404, ( #142 ) ) ;
#124 = CC_DESIGN_APPROVAL ( #125, ( #142 ) ) ;
#125 = APPROVAL ( #406, 'UNSPECIFIED' ) ;
#126 = AXIS2_PLACEMENT_3D ( 'NONE', #43, #37, #35 ) ;
#127 = AXIS2_PLACEMENT_3D ( 'NONE', #45, #44, #42 ) ;
#128 = AXIS2_PLACEMENT_3D ( 'NONE', #71, #70, #69 ) ;
#129 = AXIS2_PLACEMENT_3D ( 'NONE', #75, #73, #72 ) ;
#130 = AXIS2_PLACEMENT_3D ( 'NONE', #20, #11, #9 ) ;
#131 = AXIS2_PLACEMENT_3D ( 'NONE', #33, #30, #25 ) ;
#132 = EDGE_CURVE ( 'NONE', #344, #351, #282, .T. ) ;
#133 = EDGE_CURVE ( 'NONE', #348, #345, #374, .T. ) ;
#134 = EDGE_CURVE ( 'NONE', #354, #348, #368, .T. ) ;
#135 = EDGE_CURVE ( 'NONE', #354, #344, #275, .T. ) ;
#136 = EDGE_CURVE ( 'NONE', #220, #220, #267, .T. ) ;
#137 = EDGE_CURVE ( 'NONE', #216, #216, #286, .T. ) ;
#138 = EDGE_CURVE ( 'NONE', #349, #348, #380, .T. ) ;
#139 = EDGE_CURVE ( 'NONE', #355, #349, #204, .T. ) ;
#140 = EDGE_CURVE ( 'NONE', #355, #354, #265, .T. ) ;
#141 = EDGE_CURVE ( 'NONE', #350, #349, #280, .T. ) ;
#142 = PRODUCT_DEFINITION_FORMATION_WITH_SPECIFIED_SOURCE ( 'ANY', '', #176, .NOT_KNOWN. ) ;
#143 = EDGE_CURVE ( 'NONE', #346, #350, #277, .T. ) ;
#144 = EDGE_CURVE ( 'NONE', #346, #355, #281, .T. ) ;
#145 = CC_DESIGN_DATE_AND_TIME_ASSIGNMENT ( #199, #407, ( #149 ) ) ;
#146 = CC_DESIGN_PERSON_AND_ORGANIZATION_ASSIGNMENT ( #203, #408, ( #149 ) ) ;
#147 = CC_DESIGN_APPROVAL ( #148, ( #149 ) ) ;
#148 = APPROVAL ( #410, 'UNSPECIFIED' ) ;
#149 = PRODUCT_DEFINITION ( 'UNKNOWN', '', #142, #397 ) ;
#150 = CC_DESIGN_PERSON_AND_ORGANIZATION_ASSIGNMENT ( #212, #413, ( #176 ) ) ;
#151 = AXIS2_PLACEMENT_3D ( 'NONE', #422, #421, #415 ) ;
#152 = AXIS2_PLACEMENT_3D ( 'NONE', #427, #430, #436 ) ;
#153 =( GEOMETRIC_REPRESENTATION_CONTEXT ( 3 ) GLOBAL_UNCERTAINTY_ASSIGNED_CONTEXT ( ( #382 ) ) GLOBAL_UNIT_ASSIGNED_CONTEXT ( ( #420, #419, #418 ) ) REPRESENTATION_CONTEXT ( 'NONE', 'WORKASPACE' ) );
#154 = AXIS2_PLACEMENT_3D ( 'NONE', #434, #429, #428 ) ;
#155 = AXIS2_PLACEMENT_3D ( 'NONE', #437, #433, #432 ) ;
#156 = AXIS2_PLACEMENT_3D ( 'NONE', #13, #2, #1 ) ;
#157 = AXIS2_PLACEMENT_3D ( 'NONE', #18, #6, #4 ) ;
#158 = AXIS2_PLACEMENT_3D ( 'NONE', #16, #12, #10 ) ;
#159 = AXIS2_PLACEMENT_3D ( 'NONE', #19, #27, #15 ) ;
#160 = EDGE_CURVE ( 'NONE', #356, #351, #271, .T. ) ;
#161 = EDGE_CURVE ( 'NONE', #343, #350, #273, .T. ) ;
#162 = EDGE_CURVE ( 'NONE', #356, #352, #264, .T. ) ;
#163 = EDGE_CURVE ( 'NONE', #347, #343, #269, .T. ) ;
#164 = EDGE_CURVE ( 'NONE', #345, #357, #262, .T. ) ;
#165 = EDGE_CURVE ( 'NONE', #347, #346, #258, .T. ) ;
#166 = EDGE_CURVE ( 'NONE', #343, #353, #256, .T. ) ;
#167 = EDGE_CURVE ( 'NONE', #358, #353, #254, .T. ) ;
#168 = EDGE_CURVE ( 'NONE', #344, #345, #260, .T. ) ;
#169 = EDGE_CURVE ( 'NONE', #347, #358, #250, .T. ) ;
#170 = EDGE_CURVE ( 'NONE', #215, #215, #248, .T. ) ;
#171 = EDGE_CURVE ( 'NONE', #214, #214, #244, .T. ) ;
#172 = EDGE_CURVE ( 'NONE', #353, #352, #246, .T. ) ;
#173 = EDGE_CURVE ( 'NONE', #358, #356, #245, .T. ) ;
#174 = EDGE_CURVE ( 'NONE', #351, #357, #241, .T. ) ;
#175 = EDGE_CURVE ( 'NONE', #352, #357, #240, .T. ) ;
#176 = PRODUCT ( 'Êðûøêà íà îòâåòâèòåëü Ò-îáðàçíûé âåðòèêàëüíûé TDSA_38391', 'Êðûøêà íà îòâåòâèòåëü Ò-îáðàçíûé âåðòèêàëüíûé TDSA_38391', '', ( #414 ) ) ;
#177 = PERSON ( 'UNSPECIFIED', 'UNSPECIFIED', 'UNSPECIFIED', ('UNSPECIFIED'), ('UNSPECIFIED'), ('UNSPECIFIED') ) ;
#178 = APPROVAL_DATE_TIME ( #179, #116 ) ;
#179 = DATE_AND_TIME ( #180, #181 ) ;
#180 = CALENDAR_DATE ( 2012, 9, 11 ) ;
#181 = LOCAL_TIME ( 12, 44, 21.00000000000000000, #182 ) ;
#182 = COORDINATED_UNIVERSAL_TIME_OFFSET ( 4, 0, .AHEAD. ) ;
#183 = APPROVAL_PERSON_ORGANIZATION ( #184, #116, #398 ) ;
#184 = PERSON_AND_ORGANIZATION ( #177, #213 ) ;
#185 = DATE_AND_TIME ( #186, #187 ) ;
#186 = CALENDAR_DATE ( 2012, 9, 11 ) ;
#187 = LOCAL_TIME ( 12, 44, 21.00000000000000000, #188 ) ;
#188 = COORDINATED_UNIVERSAL_TIME_OFFSET ( 4, 0, .AHEAD. ) ;
#189 = PERSON_AND_ORGANIZATION ( #177, #213 ) ;
#190 = PERSON_AND_ORGANIZATION ( #177, #213 ) ;
#191 = PERSON_AND_ORGANIZATION ( #177, #213 ) ;
#192 = APPROVAL_DATE_TIME ( #193, #125 ) ;
#193 = DATE_AND_TIME ( #194, #195 ) ;
#194 = CALENDAR_DATE ( 2012, 9, 11 ) ;
#195 = LOCAL_TIME ( 12, 44, 21.00000000000000000, #196 ) ;
#196 = COORDINATED_UNIVERSAL_TIME_OFFSET ( 4, 0, .AHEAD. ) ;
#197 = APPROVAL_PERSON_ORGANIZATION ( #198, #125, #405 ) ;
#198 = PERSON_AND_ORGANIZATION ( #177, #213 ) ;
#199 = DATE_AND_TIME ( #200, #201 ) ;
#200 = CALENDAR_DATE ( 2012, 9, 11 ) ;
#201 = LOCAL_TIME ( 12, 44, 21.00000000000000000, #202 ) ;
#202 = COORDINATED_UNIVERSAL_TIME_OFFSET ( 4, 0, .AHEAD. ) ;
#203 = PERSON_AND_ORGANIZATION ( #177, #213 ) ;
#204 = LINE ( 'NONE', #41, #285 ) ;
#205 = APPROVAL_DATE_TIME ( #206, #148 ) ;
#206 = DATE_AND_TIME ( #207, #208 ) ;
#207 = CALENDAR_DATE ( 2012, 9, 11 ) ;
#208 = LOCAL_TIME ( 12, 44, 21.00000000000000000, #209 ) ;
#209 = COORDINATED_UNIVERSAL_TIME_OFFSET ( 4, 0, .AHEAD. ) ;
#210 = APPROVAL_PERSON_ORGANIZATION ( #211, #148, #409 ) ;
#211 = PERSON_AND_ORGANIZATION ( #177, #213 ) ;
#212 = PERSON_AND_ORGANIZATION ( #177, #213 ) ;
#213 = ORGANIZATION ( 'UNSPECIFIED', 'UNSPECIFIED', '' ) ;
#214 = VERTEX_POINT ( 'NONE', #426 ) ;
#215 = VERTEX_POINT ( 'NONE', #423 ) ;
#216 = VERTEX_POINT ( 'NONE', #425 ) ;
#217 = CYLINDRICAL_SURFACE ( 'NONE', #152, 2.500000000000002200 ) ;
#218 = SHAPE_DEFINITION_REPRESENTATION ( #396, #383 ) ;
#219 = FACE_OUTER_BOUND ( 'NONE', #375, .T. ) ;
#220 = VERTEX_POINT ( 'NONE', #424 ) ;
#221 = FACE_BOUND ( 'NONE', #378, .T. ) ;
#222 = FACE_OUTER_BOUND ( 'NONE', #360, .T. ) ;
#223 = FACE_OUTER_BOUND ( 'NONE', #370, .T. ) ;
#224 = FACE_BOUND ( 'NONE', #366, .T. ) ;
#225 = FACE_OUTER_BOUND ( 'NONE', #361, .T. ) ;
#226 = FACE_OUTER_BOUND ( 'NONE', #371, .T. ) ;
#227 = FACE_BOUND ( 'NONE', #364, .T. ) ;
#228 = FACE_OUTER_BOUND ( 'NONE', #365, .T. ) ;
#229 = FACE_OUTER_BOUND ( 'NONE', #359, .T. ) ;
#230 = FACE_OUTER_BOUND ( 'NONE', #372, .T. ) ;
#231 = FACE_BOUND ( 'NONE', #362, .T. ) ;
#232 = FACE_OUTER_BOUND ( 'NONE', #367, .T. ) ;
#233 = FACE_OUTER_BOUND ( 'NONE', #363, .T. ) ;
#234 = FACE_OUTER_BOUND ( 'NONE', #377, .T. ) ;
#235 = FACE_OUTER_BOUND ( 'NONE', #373, .T. ) ;
#236 = FACE_OUTER_BOUND ( 'NONE', #369, .T. ) ;
#237 = VECTOR ( 'NONE', #61, 1000.000000000000000 ) ;
#238 = CYLINDRICAL_SURFACE ( 'NONE', #127, 2.500000000000057700 ) ;
#239 = VECTOR ( 'NONE', #64, 1000.000000000000000 ) ;
#240 = LINE ( 'NONE', #63, #237 ) ;
#241 = LINE ( 'NONE', #65, #239 ) ;
#242 = VECTOR ( 'NONE', #68, 1000.000000000000000 ) ;
#243 = VECTOR ( 'NONE', #66, 1000.000000000000000 ) ;
#244 = CIRCLE ( 'NONE', #128, 2.500000000000002200 ) ;
#245 = LINE ( 'NONE', #77, #243 ) ;
#246 = LINE ( 'NONE', #85, #242 ) ;
#247 = VECTOR ( 'NONE', #80, 1000.000000000000000 ) ;
#248 = CIRCLE ( 'NONE', #129, 2.500000000000057700 ) ;
#249 = VECTOR ( 'NONE', #83, 1000.000000000000000 ) ;
#250 = LINE ( 'NONE', #81, #247 ) ;
#251 = VECTOR ( 'NONE', #84, 1000.000000000000000 ) ;
#252 = FACE_OUTER_BOUND ( 'NONE', #376, .T. ) ;
#253 = VECTOR ( 'NONE', #87, 1000.000000000000000 ) ;
#254 = LINE ( 'NONE', #86, #251 ) ;
#255 = VECTOR ( 'NONE', #90, 1000.000000000000000 ) ;
#256 = LINE ( 'NONE', #88, #253 ) ;
#257 = VECTOR ( 'NONE', #92, 1000.000000000000000 ) ;
#258 = LINE ( 'NONE', #91, #255 ) ;
#259 = VECTOR ( 'NONE', #93, 1000.000000000000000 ) ;
#260 = LINE ( 'NONE', #96, #249 ) ;
#261 = VECTOR ( 'NONE', #95, 1000.000000000000000 ) ;
#262 = LINE ( 'NONE', #100, #257 ) ;
#263 = VECTOR ( 'NONE', #98, 1000.000000000000000 ) ;
#264 = LINE ( 'NONE', #97, #261 ) ;
#265 = LINE ( 'NONE', #5, #278 ) ;
#266 = VECTOR ( 'NONE', #74, 1000.000000000000000 ) ;
#267 = CIRCLE ( 'NONE', #131, 2.500000000000057700 ) ;
#268 = VECTOR ( 'NONE', #99, 1000.000000000000000 ) ;
#269 = LINE ( 'NONE', #105, #259 ) ;
#270 = VECTOR ( 'NONE', #103, 1000.000000000000000 ) ;
#271 = LINE ( 'NONE', #101, #268 ) ;
#272 = VECTOR ( 'NONE', #104, 1000.000000000000000 ) ;
#273 = LINE ( 'NONE', #111, #263 ) ;
#274 = VECTOR ( 'NONE', #89, 1000.000000000000000 ) ;
#275 = LINE ( 'NONE', #78, #379 ) ;
#276 = VECTOR ( 'NONE', #107, 1000.000000000000000 ) ;
#277 = LINE ( 'NONE', #106, #272 ) ;
#278 = VECTOR ( 'NONE', #109, 1000.000000000000000 ) ;
#279 = VECTOR ( 'NONE', #102, 1000.000000000000000 ) ;
#280 = LINE ( 'NONE', #108, #276 ) ;
#281 = LINE ( 'NONE', #36, #270 ) ;
#282 = LINE ( 'NONE', #94, #279 ) ;
#283 = CLOSED_SHELL ( 'NONE', ( #388, #385, #386, #389, #392, #387, #390, #393, #394, #391, #395, #384 ) ) ;
#284 = VECTOR ( 'NONE', #8, 1000.000000000000000 ) ;
#285 = VECTOR ( 'NONE', #110, 1000.000000000000000 ) ;
#286 = CIRCLE ( 'NONE', #130, 2.500000000000002200 ) ;
#287 = ORIENTED_EDGE ( 'NONE', *, *, #175, .T. ) ;
#288 = ORIENTED_EDGE ( 'NONE', *, *, #160, .F. ) ;
#289 = ORIENTED_EDGE ( 'NONE', *, *, #174, .F. ) ;
#290 = ORIENTED_EDGE ( 'NONE', *, *, #140, .T. ) ;
#291 = ORIENTED_EDGE ( 'NONE', *, *, #164, .F. ) ;
#292 = ORIENTED_EDGE ( 'NONE', *, *, #162, .T. ) ;
#293 = ORIENTED_EDGE ( 'NONE', *, *, #163, .F. ) ;
#294 = ORIENTED_EDGE ( 'NONE', *, *, #132, .T. ) ;
#295 = ORIENTED_EDGE ( 'NONE', *, *, #168, .F. ) ;
#296 = ORIENTED_EDGE ( 'NONE', *, *, #174, .T. ) ;
#297 = ORIENTED_EDGE ( 'NONE', *, *, #139, .F. ) ;
#298 = ORIENTED_EDGE ( 'NONE', *, *, #138, .F. ) ;
#299 = ORIENTED_EDGE ( 'NONE', *, *, #137, .F. ) ;
#300 = ORIENTED_EDGE ( 'NONE', *, *, #136, .F. ) ;
#301 = ORIENTED_EDGE ( 'NONE', *, *, #168, .T. ) ;
#302 = ORIENTED_EDGE ( 'NONE', *, *, #135, .T. ) ;
#303 = ORIENTED_EDGE ( 'NONE', *, *, #134, .F. ) ;
#304 = ORIENTED_EDGE ( 'NONE', *, *, #133, .F. ) ;
#305 = ORIENTED_EDGE ( 'NONE', *, *, #171, .T. ) ;
#306 = ORIENTED_EDGE ( 'NONE', *, *, #141, .F. ) ;
#307 = ORIENTED_EDGE ( 'NONE', *, *, #134, .T. ) ;
#308 = ORIENTED_EDGE ( 'NONE', *, *, #161, .F. ) ;
#309 = ORIENTED_EDGE ( 'NONE', *, *, #139, .T. ) ;
#310 = ORIENTED_EDGE ( 'NONE', *, *, #144, .T. ) ;
#311 = ORIENTED_EDGE ( 'NONE', *, *, #143, .F. ) ;
#312 = ORIENTED_EDGE ( 'NONE', *, *, #166, .T. ) ;
#313 = ORIENTED_EDGE ( 'NONE', *, *, #167, .F. ) ;
#314 = ORIENTED_EDGE ( 'NONE', *, *, #163, .T. ) ;
#315 = ORIENTED_EDGE ( 'NONE', *, *, #171, .F. ) ;
#316 = ORIENTED_EDGE ( 'NONE', *, *, #170, .F. ) ;
#317 = ORIENTED_EDGE ( 'NONE', *, *, #162, .F. ) ;
#318 = ORIENTED_EDGE ( 'NONE', *, *, #172, .T. ) ;
#319 = ORIENTED_EDGE ( 'NONE', *, *, #167, .T. ) ;
#320 = ORIENTED_EDGE ( 'NONE', *, *, #173, .F. ) ;
#321 = ORIENTED_EDGE ( 'NONE', *, *, #132, .F. ) ;
#322 = ORIENTED_EDGE ( 'NONE', *, *, #160, .T. ) ;
#323 = ORIENTED_EDGE ( 'NONE', *, *, #169, .F. ) ;
#324 = ORIENTED_EDGE ( 'NONE', *, *, #143, .T. ) ;
#325 = ORIENTED_EDGE ( 'NONE', *, *, #140, .F. ) ;
#326 = ORIENTED_EDGE ( 'NONE', *, *, #135, .F. ) ;
#327 = ORIENTED_EDGE ( 'NONE', *, *, #144, .F. ) ;
#328 = ORIENTED_EDGE ( 'NONE', *, *, #138, .T. ) ;
#329 = ORIENTED_EDGE ( 'NONE', *, *, #141, .T. ) ;
#330 = ORIENTED_EDGE ( 'NONE', *, *, #166, .F. ) ;
#331 = ORIENTED_EDGE ( 'NONE', *, *, #172, .F. ) ;
#332 = ORIENTED_EDGE ( 'NONE', *, *, #161, .T. ) ;
#333 = ORIENTED_EDGE ( 'NONE', *, *, #175, .F. ) ;
#334 = ORIENTED_EDGE ( 'NONE', *, *, #173, .T. ) ;
#335 = ORIENTED_EDGE ( 'NONE', *, *, #169, .T. ) ;
#336 = ORIENTED_EDGE ( 'NONE', *, *, #165, .F. ) ;
#337 = ORIENTED_EDGE ( 'NONE', *, *, #133, .T. ) ;
#338 = ORIENTED_EDGE ( 'NONE', *, *, #164, .T. ) ;
#339 = ORIENTED_EDGE ( 'NONE', *, *, #137, .T. ) ;
#340 = ORIENTED_EDGE ( 'NONE', *, *, #136, .T. ) ;
#341 = ORIENTED_EDGE ( 'NONE', *, *, #170, .T. ) ;
#342 = ORIENTED_EDGE ( 'NONE', *, *, #165, .T. ) ;
#343 = VERTEX_POINT ( 'NONE', #62 ) ;
#344 = VERTEX_POINT ( 'NONE', #59 ) ;
#345 = VERTEX_POINT ( 'NONE', #58 ) ;
#346 = VERTEX_POINT ( 'NONE', #60 ) ;
#347 = VERTEX_POINT ( 'NONE', #57 ) ;
#348 = VERTEX_POINT ( 'NONE', #67 ) ;
#349 = VERTEX_POINT ( 'NONE', #56 ) ;
#350 = VERTEX_POINT ( 'NONE', #76 ) ;
#351 = VERTEX_POINT ( 'NONE', #55 ) ;
#352 = VERTEX_POINT ( 'NONE', #53 ) ;
#353 = VERTEX_POINT ( 'NONE', #52 ) ;
#354 = VERTEX_POINT ( 'NONE', #51 ) ;
#355 = VERTEX_POINT ( 'NONE', #50 ) ;
#356 = VERTEX_POINT ( 'NONE', #49 ) ;
#357 = VERTEX_POINT ( 'NONE', #48 ) ;
#358 = VERTEX_POINT ( 'NONE', #47 ) ;
#359 = EDGE_LOOP ( 'NONE', ( #287, #289, #288, #292 ) ) ;
#360 = EDGE_LOOP ( 'NONE', ( #322, #321, #326, #325, #327, #336, #335, #334 ) ) ;
#361 = EDGE_LOOP ( 'NONE', ( #306, #311, #310, #309 ) ) ;
#362 = EDGE_LOOP ( 'NONE', ( #300 ) ) ;
#363 = EDGE_LOOP ( 'NONE', ( #291, #295, #294, #296 ) ) ;
#364 = EDGE_LOOP ( 'NONE', ( #299 ) ) ;
#365 = EDGE_LOOP ( 'NONE', ( #312, #313, #323, #314 ) ) ;
#366 = EDGE_LOOP ( 'NONE', ( #316 ) ) ;
#367 = EDGE_LOOP ( 'NONE', ( #298, #297, #290, #307 ) ) ;
#368 = LINE ( 'NONE', #79, #266 ) ;
#369 = EDGE_LOOP ( 'NONE', ( #341 ) ) ;
#370 = EDGE_LOOP ( 'NONE', ( #318, #317, #320, #319 ) ) ;
#371 = EDGE_LOOP ( 'NONE', ( #339 ) ) ;
#372 = EDGE_LOOP ( 'NONE', ( #340 ) ) ;
#373 = EDGE_LOOP ( 'NONE', ( #304, #303, #302, #301 ) ) ;
#374 = LINE ( 'NONE', #82, #274 ) ;
#375 = EDGE_LOOP ( 'NONE', ( #305 ) ) ;
#376 = EDGE_LOOP ( 'NONE', ( #333, #331, #330, #332, #329, #328, #337, #338 ) ) ;
#377 = EDGE_LOOP ( 'NONE', ( #308, #293, #342, #324 ) ) ;
#378 = EDGE_LOOP ( 'NONE', ( #315 ) ) ;
#379 = VECTOR ( 'NONE', #54, 1000.000000000000000 ) ;
#380 = LINE ( 'NONE', #46, #284 ) ;
#381 = MANIFOLD_SOLID_BREP ( 'Âûðåç-Âûòÿíóòü1', #283 ) ;
#382 = UNCERTAINTY_MEASURE_WITH_UNIT (LENGTH_MEASURE( 1.000000000000000100E-005 ), #420, 'distance_accuracy_value', 'NONE');
#383 = ADVANCED_BREP_SHAPE_REPRESENTATION ( '¦¨v°úð ýð þªòõªòøªõû¹ T-þñ¨ð÷ývù òõ¨ªøúðû¹ývù TDSA_38391', ( #381, #151 ), #153 ) ;
#384 = ADVANCED_FACE ( 'NONE', ( #230, #236 ), #238, .F. ) ;
#385 = ADVANCED_FACE ( 'NONE', ( #233 ), #40, .T. ) ;
#386 = ADVANCED_FACE ( 'NONE', ( #235 ), #34, .T. ) ;
#387 = ADVANCED_FACE ( 'NONE', ( #234 ), #28, .T. ) ;
#388 = ADVANCED_FACE ( 'NONE', ( #229 ), #23, .F. ) ;
#389 = ADVANCED_FACE ( 'NONE', ( #231, #227, #232 ), #17, .T. ) ;
#390 = ADVANCED_FACE ( 'NONE', ( #228 ), #14, .F. ) ;
#391 = ADVANCED_FACE ( 'NONE', ( #252 ), #7, .T. ) ;
#392 = ADVANCED_FACE ( 'NONE', ( #225 ), #3, .T. ) ;
#393 = ADVANCED_FACE ( 'NONE', ( #224, #221, #223 ), #435, .F. ) ;
#394 = ADVANCED_FACE ( 'NONE', ( #222 ), #431, .F. ) ;
#395 = ADVANCED_FACE ( 'NONE', ( #226, #219 ), #217, .F. ) ;
#396 = PRODUCT_DEFINITION_SHAPE ( 'NONE', 'NONE',  #149 ) ;
#397 = DESIGN_CONTEXT ( 'detailed design', #412, 'design' ) ;
#398 = APPROVAL_ROLE ( '' ) ;
#399 = APPROVAL_STATUS ( 'not_yet_approved' ) ;
#400 = DATE_TIME_ROLE ( 'classification_date' ) ;
#401 = PERSON_AND_ORGANIZATION_ROLE ( 'classification_officer' ) ;
#402 = SECURITY_CLASSIFICATION_LEVEL ( 'unclassified' ) ;
#403 = PERSON_AND_ORGANIZATION_ROLE ( 'design_supplier' ) ;
#404 = PERSON_AND_ORGANIZATION_ROLE ( 'creator' ) ;
#405 = APPROVAL_ROLE ( '' ) ;
#406 = APPROVAL_STATUS ( 'not_yet_approved' ) ;
#407 = DATE_TIME_ROLE ( 'creation_date' ) ;
#408 = PERSON_AND_ORGANIZATION_ROLE ( 'creator' ) ;
#409 = APPROVAL_ROLE ( '' ) ;
#410 = APPROVAL_STATUS ( 'not_yet_approved' ) ;
#411 = APPLICATION_PROTOCOL_DEFINITION ( 'international standard', 'config_control_design', 1994, #412 ) ;
#412 = APPLICATION_CONTEXT ( 'configuration controlled 3d designs of mechanical parts and assemblies' ) ;
#413 = PERSON_AND_ORGANIZATION_ROLE ( 'design_owner' ) ;
#414 = MECHANICAL_CONTEXT ( 'NONE', #416, 'mechanical' ) ;
#415 = DIRECTION ( 'NONE',  ( 1.000000000000000000, 0.0000000000000000000, 0.0000000000000000000 ) ) ;
#416 = APPLICATION_CONTEXT ( 'configuration controlled 3d designs of mechanical parts and assemblies' ) ;
#417 = APPLICATION_PROTOCOL_DEFINITION ( 'international standard', 'config_control_design', 1994, #416 ) ;
#418 =( NAMED_UNIT ( * ) SI_UNIT ( $, .STERADIAN. ) SOLID_ANGLE_UNIT ( ) );
#419 =( NAMED_UNIT ( * ) PLANE_ANGLE_UNIT ( ) SI_UNIT ( $, .RADIAN. ) );
#420 =( LENGTH_UNIT ( ) NAMED_UNIT ( * ) SI_UNIT ( .MILLI., .METRE. ) );
#421 = DIRECTION ( 'NONE',  ( 0.0000000000000000000, 0.0000000000000000000, 1.000000000000000000 ) ) ;
#422 = CARTESIAN_POINT ( 'NONE',  ( 0.0000000000000000000, 0.0000000000000000000, 0.0000000000000000000 ) ) ;
#423 = CARTESIAN_POINT ( 'NONE',  ( 0.0000000000000000000, 0.0000000000000000000, 547.5000000000001100 ) ) ;
#424 = CARTESIAN_POINT ( 'NONE',  ( 0.0000000000000000000, 0.5999999999999999800, 542.5000000000000000 ) ) ;
#425 = CARTESIAN_POINT ( 'NONE',  ( 1.734723475976807100E-015, 0.5999999999999999800, 17.49999999999999600 ) ) ;
#426 = CARTESIAN_POINT ( 'NONE',  ( 1.734723475976807100E-015, 0.0000000000000000000, 17.49999999999999600 ) ) ;
#427 = CARTESIAN_POINT ( 'NONE',  ( 1.734723475976807100E-015, -14.00099999999999900, 14.99999999999999300 ) ) ;
#428 = DIRECTION ( 'NONE',  ( -1.000000000000000000, 0.0000000000000000000, 0.0000000000000000000 ) ) ;
#429 = DIRECTION ( 'NONE',  ( -0.0000000000000000000, 0.0000000000000000000, -1.000000000000000000 ) ) ;
#430 = DIRECTION ( 'NONE',  ( -0.0000000000000000000, 1.000000000000000000, -0.0000000000000000000 ) ) ;
#431 = PLANE ( 'NONE',  #154 ) ;
#432 = DIRECTION ( 'NONE',  ( 0.0000000000000000000, -0.0000000000000000000, 1.000000000000000000 ) ) ;
#433 = DIRECTION ( 'NONE',  ( 0.0000000000000000000, 1.000000000000000000, 0.0000000000000000000 ) ) ;
#434 = CARTESIAN_POINT ( 'NONE',  ( 0.0000000000000000000, 0.0000000000000000000, 560.0000000000000000 ) ) ;
#435 = PLANE ( 'NONE',  #155 ) ;
#436 = DIRECTION ( 'NONE',  ( 0.0000000000000000000, 0.0000000000000000000, 1.000000000000000000 ) ) ;
#437 = CARTESIAN_POINT ( 'NONE',  ( -76.00000000000000000, 0.0000000000000000000, 560.0000000000000000 ) ) ;
ENDSEC;
END-ISO-10303-21;
