ISO-10303-21;
HEADER;
FILE_DESCRIPTION (( 'STEP AP203' ),
    '1' );
FILE_NAME ('Ãèëüçà ìåäíàÿ GT-16-6 (ÃÌ) EKF.STEP',
    '2017-01-10T16:25:14',
    ( 'kuryshev' ),
    ( '' ),
    'SwSTEP 2.0',
    'SolidWorks 2010',
    '' );
FILE_SCHEMA (( 'CONFIG_CONTROL_DESIGN' ));
ENDSEC;

DATA;
#1 = AXIS2_PLACEMENT_3D ( 'NONE', #237, #244, #247 ) ;
#2 = AXIS2_PLACEMENT_3D ( 'NONE', #257, #255, #250 ) ;
#3 = AXIS2_PLACEMENT_3D ( 'NONE', #274, #273, #315 ) ;
#4 = AXIS2_PLACEMENT_3D ( 'NONE', #242, #254, #253 ) ;
#5 = AXIS2_PLACEMENT_3D ( 'NONE', #271, #296, #298 ) ;
#6 = EDGE_CURVE ( 'NONE', #224, #239, #125, .T. ) ;
#7 = AXIS2_PLACEMENT_3D ( 'NONE', #263, #265, #268 ) ;
#8 = AXIS2_PLACEMENT_3D ( 'NONE', #226, #229, #218 ) ;
#9 = EDGE_CURVE ( 'NONE', #239, #234, #124, .T. ) ;
#10 = EDGE_CURVE ( 'NONE', #251, #249, #128, .T. ) ;
#11 = EDGE_CURVE ( 'NONE', #245, #208, #130, .T. ) ;
#12 = EDGE_CURVE ( 'NONE', #235, #208, #129, .T. ) ;
#13 = EDGE_CURVE ( 'NONE', #235, #233, #133, .T. ) ;
#14 = EDGE_CURVE ( 'NONE', #233, #245, #132, .T. ) ;
#15 = EDGE_CURVE ( 'NONE', #238, #245, #131, .T. ) ;
#16 = EDGE_CURVE ( 'NONE', #248, #249, #136, .T. ) ;
#17 = EDGE_CURVE ( 'NONE', #246, #248, #140, .T. ) ;
#18 = EDGE_CURVE ( 'NONE', #246, #251, #135, .T. ) ;
#19 = EDGE_CURVE ( 'NONE', #238, #234, #144, .T. ) ;
#20 = AXIS2_PLACEMENT_3D ( 'NONE', #300, #311, #313 ) ;
#21 = AXIS2_PLACEMENT_3D ( 'NONE', #307, #318, #320 ) ;
#22 = APPROVAL ( #286, 'UNSPECIFIED' ) ;
#23 = PRODUCT_DEFINITION ( 'UNKNOWN', '', #29, #41 ) ;
#24 = CC_DESIGN_PERSON_AND_ORGANIZATION_ASSIGNMENT ( #173, #277, ( #341 ) ) ;
#25 = AXIS2_PLACEMENT_3D ( 'NONE', #338, #339, #270 ) ;
#26 = CC_DESIGN_APPROVAL ( #22, ( #23 ) ) ;
#27 = CC_DESIGN_PERSON_AND_ORGANIZATION_ASSIGNMENT ( #181, #289, ( #23 ) ) ;
#28 = CC_DESIGN_DATE_AND_TIME_ASSIGNMENT ( #185, #287, ( #23 ) ) ;
#29 = PRODUCT_DEFINITION_FORMATION_WITH_SPECIFIED_SOURCE ( 'ANY', '', #341, .NOT_KNOWN. ) ;
#30 = APPROVAL ( #291, 'UNSPECIFIED' ) ;
#31 = CC_DESIGN_APPROVAL ( #30, ( #29 ) ) ;
#32 = CC_DESIGN_PERSON_AND_ORGANIZATION_ASSIGNMENT ( #193, #295, ( #29 ) ) ;
#33 = CC_DESIGN_PERSON_AND_ORGANIZATION_ASSIGNMENT ( #194, #297, ( #29 ) ) ;
#34 = SECURITY_CLASSIFICATION ( '', '', #299 ) ;
#35 = CC_DESIGN_PERSON_AND_ORGANIZATION_ASSIGNMENT ( #195, #302, ( #34 ) ) ;
#36 = CC_DESIGN_DATE_AND_TIME_ASSIGNMENT ( #199, #301, ( #34 ) ) ;
#37 = APPROVAL ( #304, 'UNSPECIFIED' ) ;
#38 = CC_DESIGN_APPROVAL ( #37, ( #34 ) ) ;
#39 = CC_DESIGN_SECURITY_CLASSIFICATION ( #34, ( #29 ) ) ;
#40 = PRODUCT_RELATED_PRODUCT_CATEGORY ( 'detail', '', ( #341 ) ) ;
#41 = DESIGN_CONTEXT ( 'detailed design', #280, 'design' ) ;
#42 = PRODUCT_DEFINITION_SHAPE ( 'NONE', 'NONE',  #23 ) ;
#43 = ADVANCED_FACE ( 'NONE', ( #141 ), #143, .T. ) ;
#44 = ADVANCED_FACE ( 'NONE', ( #142, #145 ), #240, .T. ) ;
#45 = ADVANCED_FACE ( 'NONE', ( #138 ), #148, .T. ) ;
#46 = ADVANCED_FACE ( 'NONE', ( #146 ), #150, .F. ) ;
#47 = ADVANCED_FACE ( 'NONE', ( #139 ), #152, .T. ) ;
#48 = ADVANCED_FACE ( 'NONE', ( #147, #153 ), #267, .F. ) ;
#49 = ADVANCED_FACE ( 'NONE', ( #149 ), #156, .T. ) ;
#50 = ADVANCED_FACE ( 'NONE', ( #154 ), #157, .F. ) ;
#51 = ADVANCED_FACE ( 'NONE', ( #151 ), #158, .T. ) ;
#52 = ADVANCED_FACE ( 'NONE', ( #155 ), #159, .T. ) ;
#53 = AXIS2_PLACEMENT_3D ( 'NONE', #221, #222, #223 ) ;
#54 = EDGE_CURVE ( 'NONE', #234, #208, #160, .T. ) ;
#55 = EDGE_CURVE ( 'NONE', #208, #245, #162, .T. ) ;
#56 = EDGE_CURVE ( 'NONE', #239, #224, #164, .T. ) ;
#57 = EDGE_CURVE ( 'NONE', #248, #246, #165, .T. ) ;
#58 = EDGE_CURVE ( 'NONE', #233, #235, #166, .T. ) ;
#59 = EDGE_CURVE ( 'NONE', #249, #251, #168, .T. ) ;
#60 = EDGE_CURVE ( 'NONE', #234, #238, #169, .T. ) ;
#61 = EDGE_CURVE ( 'NONE', #224, #238, #163, .T. ) ;
#62 = AXIS2_PLACEMENT_3D ( 'NONE', #212, #213, #214 ) ;
#63 = AXIS2_PLACEMENT_3D ( 'NONE', #278, #272, #314 ) ;
#64 = AXIS2_PLACEMENT_3D ( 'NONE', #269, #207, #209 ) ;
#65 = AXIS2_PLACEMENT_3D ( 'NONE', #259, #260, #252 ) ;
#66 = AXIS2_PLACEMENT_3D ( 'NONE', #228, #230, #231 ) ;
#67 = AXIS2_PLACEMENT_3D ( 'NONE', #236, #232, #241 ) ;
#68 = AXIS2_PLACEMENT_3D ( 'NONE', #331, #316, #312 ) ;
#69 = ORIENTED_EDGE ( 'NONE', *, *, #18, .F. ) ;
#70 = ORIENTED_EDGE ( 'NONE', *, *, #17, .T. ) ;
#71 = ORIENTED_EDGE ( 'NONE', *, *, #16, .T. ) ;
#72 = ORIENTED_EDGE ( 'NONE', *, *, #10, .F. ) ;
#73 = ORIENTED_EDGE ( 'NONE', *, *, #14, .F. ) ;
#74 = ORIENTED_EDGE ( 'NONE', *, *, #60, .T. ) ;
#75 = ORIENTED_EDGE ( 'NONE', *, *, #61, .F. ) ;
#76 = ORIENTED_EDGE ( 'NONE', *, *, #11, .T. ) ;
#77 = ORIENTED_EDGE ( 'NONE', *, *, #54, .F. ) ;
#78 = ORIENTED_EDGE ( 'NONE', *, *, #56, .T. ) ;
#79 = ORIENTED_EDGE ( 'NONE', *, *, #6, .T. ) ;
#80 = ORIENTED_EDGE ( 'NONE', *, *, #17, .F. ) ;
#81 = ORIENTED_EDGE ( 'NONE', *, *, #58, .T. ) ;
#82 = ORIENTED_EDGE ( 'NONE', *, *, #13, .T. ) ;
#83 = ORIENTED_EDGE ( 'NONE', *, *, #57, .F. ) ;
#84 = ORIENTED_EDGE ( 'NONE', *, *, #10, .T. ) ;
#85 = ORIENTED_EDGE ( 'NONE', *, *, #59, .T. ) ;
#86 = ORIENTED_EDGE ( 'NONE', *, *, #15, .F. ) ;
#87 = ORIENTED_EDGE ( 'NONE', *, *, #19, .T. ) ;
#88 = ORIENTED_EDGE ( 'NONE', *, *, #54, .T. ) ;
#89 = ORIENTED_EDGE ( 'NONE', *, *, #57, .T. ) ;
#90 = ORIENTED_EDGE ( 'NONE', *, *, #55, .T. ) ;
#91 = ORIENTED_EDGE ( 'NONE', *, *, #16, .F. ) ;
#92 = ORIENTED_EDGE ( 'NONE', *, *, #18, .T. ) ;
#93 = ORIENTED_EDGE ( 'NONE', *, *, #59, .F. ) ;
#94 = ORIENTED_EDGE ( 'NONE', *, *, #12, .F. ) ;
#95 = ORIENTED_EDGE ( 'NONE', *, *, #58, .F. ) ;
#96 = ORIENTED_EDGE ( 'NONE', *, *, #14, .T. ) ;
#97 = ORIENTED_EDGE ( 'NONE', *, *, #15, .T. ) ;
#98 = ORIENTED_EDGE ( 'NONE', *, *, #55, .F. ) ;
#99 = ORIENTED_EDGE ( 'NONE', *, *, #56, .F. ) ;
#100 = ORIENTED_EDGE ( 'NONE', *, *, #9, .T. ) ;
#101 = ORIENTED_EDGE ( 'NONE', *, *, #19, .F. ) ;
#102 = ORIENTED_EDGE ( 'NONE', *, *, #9, .F. ) ;
#103 = ORIENTED_EDGE ( 'NONE', *, *, #13, .F. ) ;
#104 = ORIENTED_EDGE ( 'NONE', *, *, #12, .T. ) ;
#105 = VECTOR ( 'NONE', #225, 1000.000000000000000 ) ;
#106 = CLOSED_SHELL ( 'NONE', ( #43, #45, #46, #47, #44, #48, #49, #50, #51, #52 ) ) ;
#107 = ORIENTED_EDGE ( 'NONE', *, *, #11, .F. ) ;
#108 = EDGE_LOOP ( 'NONE', ( #94, #95, #96, #98 ) ) ;
#109 = EDGE_LOOP ( 'NONE', ( #84, #85 ) ) ;
#110 = EDGE_LOOP ( 'NONE', ( #91, #89, #92, #93 ) ) ;
#111 = EDGE_LOOP ( 'NONE', ( #78, #79 ) ) ;
#112 = EDGE_LOOP ( 'NONE', ( #70, #71, #72, #69 ) ) ;
#113 = EDGE_LOOP ( 'NONE', ( #81, #82 ) ) ;
#114 = EDGE_LOOP ( 'NONE', ( #86, #87, #88, #90 ) ) ;
#115 = EDGE_LOOP ( 'NONE', ( #80, #83 ) ) ;
#116 = EDGE_LOOP ( 'NONE', ( #103, #104, #107, #73 ) ) ;
#117 = EDGE_LOOP ( 'NONE', ( #75, #99, #100, #101 ) ) ;
#118 = EDGE_LOOP ( 'NONE', ( #120, #122, #121, #102 ) ) ;
#119 = EDGE_LOOP ( 'NONE', ( #74, #97, #76, #77 ) ) ;
#120 = ORIENTED_EDGE ( 'NONE', *, *, #6, .F. ) ;
#121 = ORIENTED_EDGE ( 'NONE', *, *, #60, .F. ) ;
#122 = ORIENTED_EDGE ( 'NONE', *, *, #61, .T. ) ;
#123 = VECTOR ( 'NONE', #261, 1000.000000000000100 ) ;
#124 = LINE ( 'NONE', #243, #123 ) ;
#125 = CIRCLE ( 'NONE', #4, 4.000000000000003600 ) ;
#126 = VECTOR ( 'NONE', #211, 1000.000000000000000 ) ;
#127 = VECTOR ( 'NONE', #216, 1000.000000000000000 ) ;
#128 = CIRCLE ( 'NONE', #7, 3.000000000000000400 ) ;
#129 = LINE ( 'NONE', #256, #126 ) ;
#130 = CIRCLE ( 'NONE', #64, 4.500000000000000000 ) ;
#131 = LINE ( 'NONE', #215, #134 ) ;
#132 = LINE ( 'NONE', #210, #127 ) ;
#133 = CIRCLE ( 'NONE', #62, 3.999999999999993300 ) ;
#134 = VECTOR ( 'NONE', #217, 1000.000000000000000 ) ;
#135 = LINE ( 'NONE', #227, #105 ) ;
#136 = LINE ( 'NONE', #219, #137 ) ;
#137 = VECTOR ( 'NONE', #220, 1000.000000000000000 ) ;
#138 = FACE_OUTER_BOUND ( 'NONE', #116, .T. ) ;
#139 = FACE_OUTER_BOUND ( 'NONE', #119, .T. ) ;
#140 = CIRCLE ( 'NONE', #53, 3.000000000000000400 ) ;
#141 = FACE_OUTER_BOUND ( 'NONE', #118, .T. ) ;
#142 = FACE_OUTER_BOUND ( 'NONE', #111, .T. ) ;
#143 = CONICAL_SURFACE ( 'NONE', #8, 4.000000000000003600, 0.7853981633974509400 ) ;
#144 = CIRCLE ( 'NONE', #66, 4.500000000000000000 ) ;
#145 = FACE_BOUND ( 'NONE', #115, .T. ) ;
#146 = FACE_OUTER_BOUND ( 'NONE', #112, .T. ) ;
#147 = FACE_OUTER_BOUND ( 'NONE', #113, .T. ) ;
#148 = CONICAL_SURFACE ( 'NONE', #67, 4.500000000000000000, 0.7853981633974509400 ) ;
#149 = FACE_OUTER_BOUND ( 'NONE', #114, .T. ) ;
#150 = CYLINDRICAL_SURFACE ( 'NONE', #2, 3.000000000000000400 ) ;
#151 = FACE_OUTER_BOUND ( 'NONE', #108, .T. ) ;
#152 = CYLINDRICAL_SURFACE ( 'NONE', #65, 4.500000000000000000 ) ;
#153 = FACE_BOUND ( 'NONE', #109, .T. ) ;
#154 = FACE_OUTER_BOUND ( 'NONE', #110, .T. ) ;
#155 = FACE_OUTER_BOUND ( 'NONE', #117, .T. ) ;
#156 = CYLINDRICAL_SURFACE ( 'NONE', #344, 4.500000000000000000 ) ;
#157 = CYLINDRICAL_SURFACE ( 'NONE', #63, 3.000000000000000400 ) ;
#158 = CONICAL_SURFACE ( 'NONE', #68, 4.500000000000000000, 0.7853981633974509400 ) ;
#159 = CONICAL_SURFACE ( 'NONE', #3, 4.000000000000003600, 0.7853981633974509400 ) ;
#160 = LINE ( 'NONE', #282, #161 ) ;
#161 = VECTOR ( 'NONE', #285, 1000.000000000000000 ) ;
#162 = CIRCLE ( 'NONE', #340, 4.500000000000000000 ) ;
#163 = LINE ( 'NONE', #323, #167 ) ;
#164 = CIRCLE ( 'NONE', #5, 4.000000000000003600 ) ;
#165 = CIRCLE ( 'NONE', #348, 3.000000000000000400 ) ;
#166 = CIRCLE ( 'NONE', #343, 3.999999999999993300 ) ;
#167 = VECTOR ( 'NONE', #322, 1000.000000000000100 ) ;
#168 = CIRCLE ( 'NONE', #20, 3.000000000000000400 ) ;
#169 = CIRCLE ( 'NONE', #21, 4.500000000000000000 ) ;
#170 =( GEOMETRIC_REPRESENTATION_CONTEXT ( 3 ) GLOBAL_UNCERTAINTY_ASSIGNED_CONTEXT ( ( #345 ) ) GLOBAL_UNIT_ASSIGNED_CONTEXT ( ( #335, #336, #337 ) ) REPRESENTATION_CONTEXT ( 'NONE', 'WORKASPACE' ) );
#171 = SHAPE_DEFINITION_REPRESENTATION ( #42, #346 ) ;
#172 = ORGANIZATION ( 'UNSPECIFIED', 'UNSPECIFIED', '' ) ;
#173 = PERSON_AND_ORGANIZATION ( #342, #172 ) ;
#174 = PERSON_AND_ORGANIZATION ( #342, #172 ) ;
#175 = APPROVAL_PERSON_ORGANIZATION ( #174, #22, #288 ) ;
#176 = COORDINATED_UNIVERSAL_TIME_OFFSET ( 3, 0, .AHEAD. ) ;
#177 = LOCAL_TIME ( 19, 25, 14.00000000000000000, #176 ) ;
#178 = CALENDAR_DATE ( 2017, 10, 1 ) ;
#179 = DATE_AND_TIME ( #178, #177 ) ;
#180 = APPROVAL_DATE_TIME ( #179, #22 ) ;
#181 = PERSON_AND_ORGANIZATION ( #342, #172 ) ;
#182 = COORDINATED_UNIVERSAL_TIME_OFFSET ( 3, 0, .AHEAD. ) ;
#183 = LOCAL_TIME ( 19, 25, 14.00000000000000000, #182 ) ;
#184 = CALENDAR_DATE ( 2017, 10, 1 ) ;
#185 = DATE_AND_TIME ( #184, #183 ) ;
#186 = PERSON_AND_ORGANIZATION ( #342, #172 ) ;
#187 = APPROVAL_PERSON_ORGANIZATION ( #186, #30, #293 ) ;
#188 = COORDINATED_UNIVERSAL_TIME_OFFSET ( 3, 0, .AHEAD. ) ;
#189 = LOCAL_TIME ( 19, 25, 14.00000000000000000, #188 ) ;
#190 = CALENDAR_DATE ( 2017, 10, 1 ) ;
#191 = DATE_AND_TIME ( #190, #189 ) ;
#192 = APPROVAL_DATE_TIME ( #191, #30 ) ;
#193 = PERSON_AND_ORGANIZATION ( #342, #172 ) ;
#194 = PERSON_AND_ORGANIZATION ( #342, #172 ) ;
#195 = PERSON_AND_ORGANIZATION ( #342, #172 ) ;
#196 = COORDINATED_UNIVERSAL_TIME_OFFSET ( 3, 0, .AHEAD. ) ;
#197 = LOCAL_TIME ( 19, 25, 14.00000000000000000, #196 ) ;
#198 = CALENDAR_DATE ( 2017, 10, 1 ) ;
#199 = DATE_AND_TIME ( #198, #197 ) ;
#200 = PERSON_AND_ORGANIZATION ( #342, #172 ) ;
#201 = APPROVAL_PERSON_ORGANIZATION ( #200, #37, #305 ) ;
#202 = COORDINATED_UNIVERSAL_TIME_OFFSET ( 3, 0, .AHEAD. ) ;
#203 = LOCAL_TIME ( 19, 25, 14.00000000000000000, #202 ) ;
#204 = CALENDAR_DATE ( 2017, 10, 1 ) ;
#205 = DATE_AND_TIME ( #204, #203 ) ;
#206 = APPROVAL_DATE_TIME ( #205, #37 ) ;
#207 = DIRECTION ( 'NONE',  ( -0.0000000000000000000, -0.0000000000000000000, 1.000000000000000000 ) ) ;
#208 = VERTEX_POINT ( 'NONE', #321 ) ;
#209 = DIRECTION ( 'NONE',  ( 1.000000000000000000, 0.0000000000000000000, 0.0000000000000000000 ) ) ;
#210 = CARTESIAN_POINT ( 'NONE',  ( 4.500000000000000000, 0.0000000000000000000, 0.5000000000000038900 ) ) ;
#211 = DIRECTION ( 'NONE',  ( -0.7071067811865493500, 8.659560562354955000E-017, 0.7071067811865456900 ) ) ;
#212 = CARTESIAN_POINT ( 'NONE',  ( 0.0000000000000000000, 0.0000000000000000000, 0.0000000000000000000 ) ) ;
#213 = DIRECTION ( 'NONE',  ( -0.0000000000000000000, -0.0000000000000000000, -1.000000000000000000 ) ) ;
#214 = DIRECTION ( 'NONE',  ( 1.000000000000000000, 0.0000000000000000000, 0.0000000000000000000 ) ) ;
#215 = CARTESIAN_POINT ( 'NONE',  ( 4.500000000000000000, 5.510910596163088600E-016, 30.00000000000000000 ) ) ;
#216 = DIRECTION ( 'NONE',  ( 0.7071067811865493500, 0.0000000000000000000, 0.7071067811865456900 ) ) ;
#217 = DIRECTION ( 'NONE',  ( -0.0000000000000000000, -0.0000000000000000000, -1.000000000000000000 ) ) ;
#218 = DIRECTION ( 'NONE',  ( -1.000000000000000000, 0.0000000000000000000, 0.0000000000000000000 ) ) ;
#219 = CARTESIAN_POINT ( 'NONE',  ( 3.000000000000000400, 3.673940397442060400E-016, 30.00000000000000000 ) ) ;
#220 = DIRECTION ( 'NONE',  ( -0.0000000000000000000, -0.0000000000000000000, -1.000000000000000000 ) ) ;
#221 = CARTESIAN_POINT ( 'NONE',  ( 0.0000000000000000000, 0.0000000000000000000, 30.00000000000000000 ) ) ;
#222 = DIRECTION ( 'NONE',  ( 0.0000000000000000000, 0.0000000000000000000, 1.000000000000000000 ) ) ;
#223 = DIRECTION ( 'NONE',  ( 1.000000000000000000, 0.0000000000000000000, 0.0000000000000000000 ) ) ;
#224 = VERTEX_POINT ( 'NONE', #327 ) ;
#225 = DIRECTION ( 'NONE',  ( -0.0000000000000000000, -0.0000000000000000000, -1.000000000000000000 ) ) ;
#226 = CARTESIAN_POINT ( 'NONE',  ( 0.0000000000000000000, 0.0000000000000000000, 30.00000000000000000 ) ) ;
#227 = CARTESIAN_POINT ( 'NONE',  ( -3.000000000000000400, 0.0000000000000000000, 30.00000000000000000 ) ) ;
#228 = CARTESIAN_POINT ( 'NONE',  ( 0.0000000000000000000, 0.0000000000000000000, 29.50000000000000700 ) ) ;
#229 = DIRECTION ( 'NONE',  ( 0.0000000000000000000, 0.0000000000000000000, -1.000000000000000000 ) ) ;
#230 = DIRECTION ( 'NONE',  ( 0.0000000000000000000, 0.0000000000000000000, -1.000000000000000000 ) ) ;
#231 = DIRECTION ( 'NONE',  ( 1.000000000000000000, 0.0000000000000000000, 0.0000000000000000000 ) ) ;
#232 = DIRECTION ( 'NONE',  ( -0.0000000000000000000, -0.0000000000000000000, 1.000000000000000000 ) ) ;
#233 = VERTEX_POINT ( 'NONE', #317 ) ;
#234 = VERTEX_POINT ( 'NONE', #328 ) ;
#235 = VERTEX_POINT ( 'NONE', #310 ) ;
#236 = CARTESIAN_POINT ( 'NONE',  ( 0.0000000000000000000, 0.0000000000000000000, 0.5000000000000038900 ) ) ;
#237 = CARTESIAN_POINT ( 'NONE',  ( 0.0000000000000000000, 0.0000000000000000000, 30.00000000000000000 ) ) ;
#238 = VERTEX_POINT ( 'NONE', #329 ) ;
#239 = VERTEX_POINT ( 'NONE', #325 ) ;
#240 = PLANE ( 'NONE',  #1 ) ;
#241 = DIRECTION ( 'NONE',  ( 1.000000000000000000, 0.0000000000000000000, 0.0000000000000000000 ) ) ;
#242 = CARTESIAN_POINT ( 'NONE',  ( 0.0000000000000000000, 0.0000000000000000000, 30.00000000000000000 ) ) ;
#243 = CARTESIAN_POINT ( 'NONE',  ( -4.000000000000003600, 0.0000000000000000000, 30.00000000000000000 ) ) ;
#244 = DIRECTION ( 'NONE',  ( 0.0000000000000000000, 0.0000000000000000000, 1.000000000000000000 ) ) ;
#245 = VERTEX_POINT ( 'NONE', #330 ) ;
#246 = VERTEX_POINT ( 'NONE', #326 ) ;
#247 = DIRECTION ( 'NONE',  ( 1.000000000000000000, 0.0000000000000000000, -0.0000000000000000000 ) ) ;
#248 = VERTEX_POINT ( 'NONE', #332 ) ;
#249 = VERTEX_POINT ( 'NONE', #333 ) ;
#250 = DIRECTION ( 'NONE',  ( -1.000000000000000000, 0.0000000000000000000, 0.0000000000000000000 ) ) ;
#251 = VERTEX_POINT ( 'NONE', #334 ) ;
#252 = DIRECTION ( 'NONE',  ( -1.000000000000000000, 0.0000000000000000000, 0.0000000000000000000 ) ) ;
#253 = DIRECTION ( 'NONE',  ( 1.000000000000000000, 0.0000000000000000000, 0.0000000000000000000 ) ) ;
#254 = DIRECTION ( 'NONE',  ( 0.0000000000000000000, 0.0000000000000000000, 1.000000000000000000 ) ) ;
#255 = DIRECTION ( 'NONE',  ( -0.0000000000000000000, -0.0000000000000000000, -1.000000000000000000 ) ) ;
#256 = CARTESIAN_POINT ( 'NONE',  ( -4.500000000000000000, 5.510910596163088600E-016, 0.5000000000000038900 ) ) ;
#257 = CARTESIAN_POINT ( 'NONE',  ( 0.0000000000000000000, 0.0000000000000000000, 30.00000000000000000 ) ) ;
#258 = CARTESIAN_POINT ( 'NONE',  ( 0.0000000000000000000, 0.0000000000000000000, 30.00000000000000000 ) ) ;
#259 = CARTESIAN_POINT ( 'NONE',  ( 0.0000000000000000000, 0.0000000000000000000, 30.00000000000000000 ) ) ;
#260 = DIRECTION ( 'NONE',  ( -0.0000000000000000000, -0.0000000000000000000, -1.000000000000000000 ) ) ;
#261 = DIRECTION ( 'NONE',  ( -0.7071067811865493500, 0.0000000000000000000, -0.7071067811865456900 ) ) ;
#262 = DIRECTION ( 'NONE',  ( -0.0000000000000000000, -0.0000000000000000000, -1.000000000000000000 ) ) ;
#263 = CARTESIAN_POINT ( 'NONE',  ( 0.0000000000000000000, 0.0000000000000000000, 0.0000000000000000000 ) ) ;
#264 = CARTESIAN_POINT ( 'NONE',  ( 0.0000000000000000000, 0.0000000000000000000, 0.0000000000000000000 ) ) ;
#265 = DIRECTION ( 'NONE',  ( 0.0000000000000000000, 0.0000000000000000000, 1.000000000000000000 ) ) ;
#266 = DIRECTION ( 'NONE',  ( -1.000000000000000000, 0.0000000000000000000, 0.0000000000000000000 ) ) ;
#267 = PLANE ( 'NONE',  #349 ) ;
#268 = DIRECTION ( 'NONE',  ( 1.000000000000000000, 0.0000000000000000000, 0.0000000000000000000 ) ) ;
#269 = CARTESIAN_POINT ( 'NONE',  ( 0.0000000000000000000, 0.0000000000000000000, 0.5000000000000038900 ) ) ;
#270 = DIRECTION ( 'NONE',  ( 1.000000000000000000, 0.0000000000000000000, 0.0000000000000000000 ) ) ;
#271 = CARTESIAN_POINT ( 'NONE',  ( 0.0000000000000000000, 0.0000000000000000000, 30.00000000000000000 ) ) ;
#272 = DIRECTION ( 'NONE',  ( -0.0000000000000000000, -0.0000000000000000000, -1.000000000000000000 ) ) ;
#273 = DIRECTION ( 'NONE',  ( 0.0000000000000000000, 0.0000000000000000000, -1.000000000000000000 ) ) ;
#274 = CARTESIAN_POINT ( 'NONE',  ( 0.0000000000000000000, 0.0000000000000000000, 30.00000000000000000 ) ) ;
#275 = MECHANICAL_CONTEXT ( 'NONE', #279, 'mechanical' ) ;
#276 = CARTESIAN_POINT ( 'NONE',  ( 0.0000000000000000000, 0.0000000000000000000, 30.00000000000000000 ) ) ;
#277 = PERSON_AND_ORGANIZATION_ROLE ( 'design_owner' ) ;
#278 = CARTESIAN_POINT ( 'NONE',  ( 0.0000000000000000000, 0.0000000000000000000, 30.00000000000000000 ) ) ;
#279 = APPLICATION_CONTEXT ( 'configuration controlled 3d designs of mechanical parts and assemblies' ) ;
#280 = APPLICATION_CONTEXT ( 'configuration controlled 3d designs of mechanical parts and assemblies' ) ;
#281 = APPLICATION_PROTOCOL_DEFINITION ( 'international standard', 'config_control_design', 1994, #279 ) ;
#282 = CARTESIAN_POINT ( 'NONE',  ( -4.500000000000000000, 0.0000000000000000000, 30.00000000000000000 ) ) ;
#283 = CARTESIAN_POINT ( 'NONE',  ( 0.0000000000000000000, 0.0000000000000000000, 0.5000000000000038900 ) ) ;
#284 = APPLICATION_PROTOCOL_DEFINITION ( 'international standard', 'config_control_design', 1994, #280 ) ;
#285 = DIRECTION ( 'NONE',  ( -0.0000000000000000000, -0.0000000000000000000, -1.000000000000000000 ) ) ;
#286 = APPROVAL_STATUS ( 'not_yet_approved' ) ;
#287 = DATE_TIME_ROLE ( 'creation_date' ) ;
#288 = APPROVAL_ROLE ( '' ) ;
#289 = PERSON_AND_ORGANIZATION_ROLE ( 'creator' ) ;
#290 = DIRECTION ( 'NONE',  ( -0.0000000000000000000, -0.0000000000000000000, 1.000000000000000000 ) ) ;
#291 = APPROVAL_STATUS ( 'not_yet_approved' ) ;
#292 = DIRECTION ( 'NONE',  ( 1.000000000000000000, 0.0000000000000000000, 0.0000000000000000000 ) ) ;
#293 = APPROVAL_ROLE ( '' ) ;
#294 = CARTESIAN_POINT ( 'NONE',  ( 0.0000000000000000000, 0.0000000000000000000, 0.0000000000000000000 ) ) ;
#295 = PERSON_AND_ORGANIZATION_ROLE ( 'creator' ) ;
#296 = DIRECTION ( 'NONE',  ( 0.0000000000000000000, 0.0000000000000000000, 1.000000000000000000 ) ) ;
#297 = PERSON_AND_ORGANIZATION_ROLE ( 'design_supplier' ) ;
#298 = DIRECTION ( 'NONE',  ( 1.000000000000000000, 0.0000000000000000000, 0.0000000000000000000 ) ) ;
#299 = SECURITY_CLASSIFICATION_LEVEL ( 'unclassified' ) ;
#300 = CARTESIAN_POINT ( 'NONE',  ( 0.0000000000000000000, 0.0000000000000000000, 0.0000000000000000000 ) ) ;
#301 = DATE_TIME_ROLE ( 'classification_date' ) ;
#302 = PERSON_AND_ORGANIZATION_ROLE ( 'classification_officer' ) ;
#303 = DIRECTION ( 'NONE',  ( 0.0000000000000000000, 0.0000000000000000000, 1.000000000000000000 ) ) ;
#304 = APPROVAL_STATUS ( 'not_yet_approved' ) ;
#305 = APPROVAL_ROLE ( '' ) ;
#306 = DIRECTION ( 'NONE',  ( 1.000000000000000000, 0.0000000000000000000, 0.0000000000000000000 ) ) ;
#307 = CARTESIAN_POINT ( 'NONE',  ( 0.0000000000000000000, 0.0000000000000000000, 29.50000000000000700 ) ) ;
#308 = DIRECTION ( 'NONE',  ( -0.0000000000000000000, -0.0000000000000000000, -1.000000000000000000 ) ) ;
#309 = DIRECTION ( 'NONE',  ( 1.000000000000000000, 0.0000000000000000000, 0.0000000000000000000 ) ) ;
#310 = CARTESIAN_POINT ( 'NONE',  ( -3.999999999999993300, 5.204748896376247700E-016, 0.0000000000000000000 ) ) ;
#311 = DIRECTION ( 'NONE',  ( 0.0000000000000000000, 0.0000000000000000000, 1.000000000000000000 ) ) ;
#312 = DIRECTION ( 'NONE',  ( 1.000000000000000000, 0.0000000000000000000, 0.0000000000000000000 ) ) ;
#313 = DIRECTION ( 'NONE',  ( 1.000000000000000000, 0.0000000000000000000, 0.0000000000000000000 ) ) ;
#314 = DIRECTION ( 'NONE',  ( -1.000000000000000000, 0.0000000000000000000, 0.0000000000000000000 ) ) ;
#315 = DIRECTION ( 'NONE',  ( -1.000000000000000000, 0.0000000000000000000, 0.0000000000000000000 ) ) ;
#316 = DIRECTION ( 'NONE',  ( -0.0000000000000000000, -0.0000000000000000000, 1.000000000000000000 ) ) ;
#317 = CARTESIAN_POINT ( 'NONE',  ( 3.999999999999993300, 0.0000000000000000000, 0.0000000000000000000 ) ) ;
#318 = DIRECTION ( 'NONE',  ( 0.0000000000000000000, 0.0000000000000000000, -1.000000000000000000 ) ) ;
#319 = DIRECTION ( 'NONE',  ( 1.000000000000000000, 0.0000000000000000000, -0.0000000000000000000 ) ) ;
#320 = DIRECTION ( 'NONE',  ( 1.000000000000000000, 0.0000000000000000000, 0.0000000000000000000 ) ) ;
#321 = CARTESIAN_POINT ( 'NONE',  ( -4.500000000000000000, 0.0000000000000000000, 0.5000000000000038900 ) ) ;
#322 = DIRECTION ( 'NONE',  ( 0.7071067811865493500, 8.659560562354957500E-017, -0.7071067811865456900 ) ) ;
#323 = CARTESIAN_POINT ( 'NONE',  ( 4.000000000000003600, 4.898587196589417800E-016, 30.00000000000000000 ) ) ;
#324 = DIRECTION ( 'NONE',  ( 0.0000000000000000000, 0.0000000000000000000, 1.000000000000000000 ) ) ;
#325 = CARTESIAN_POINT ( 'NONE',  ( -4.000000000000003600, 0.0000000000000000000, 30.00000000000000000 ) ) ;
#326 = CARTESIAN_POINT ( 'NONE',  ( -3.000000000000000400, 0.0000000000000000000, 30.00000000000000000 ) ) ;
#327 = CARTESIAN_POINT ( 'NONE',  ( 4.000000000000003600, 5.204748896376252700E-016, 30.00000000000000000 ) ) ;
#328 = CARTESIAN_POINT ( 'NONE',  ( -4.500000000000000000, 0.0000000000000000000, 29.50000000000000700 ) ) ;
#329 = CARTESIAN_POINT ( 'NONE',  ( 4.500000000000000000, 5.510910596163088600E-016, 29.50000000000000700 ) ) ;
#330 = CARTESIAN_POINT ( 'NONE',  ( 4.500000000000000000, 5.510910596163088600E-016, 0.5000000000000038900 ) ) ;
#331 = CARTESIAN_POINT ( 'NONE',  ( 0.0000000000000000000, 0.0000000000000000000, 0.5000000000000038900 ) ) ;
#332 = CARTESIAN_POINT ( 'NONE',  ( 3.000000000000000400, 3.673940397442060400E-016, 30.00000000000000000 ) ) ;
#333 = CARTESIAN_POINT ( 'NONE',  ( 3.000000000000000400, 3.673940397442060400E-016, 0.0000000000000000000 ) ) ;
#334 = CARTESIAN_POINT ( 'NONE',  ( -3.000000000000000400, 0.0000000000000000000, 0.0000000000000000000 ) ) ;
#335 =( LENGTH_UNIT ( ) NAMED_UNIT ( * ) SI_UNIT ( .MILLI., .METRE. ) );
#336 =( NAMED_UNIT ( * ) PLANE_ANGLE_UNIT ( ) SI_UNIT ( $, .RADIAN. ) );
#337 =( NAMED_UNIT ( * ) SI_UNIT ( $, .STERADIAN. ) SOLID_ANGLE_UNIT ( ) );
#338 = CARTESIAN_POINT ( 'NONE',  ( 0.0000000000000000000, 0.0000000000000000000, 0.0000000000000000000 ) ) ;
#339 = DIRECTION ( 'NONE',  ( 0.0000000000000000000, 0.0000000000000000000, 1.000000000000000000 ) ) ;
#340 = AXIS2_PLACEMENT_3D ( 'NONE', #283, #290, #292 ) ;
#341 = PRODUCT ( 'Ãèëüçà ìåäíàÿ GT-16-6 (ÃÌ) EKF', 'Ãèëüçà ìåäíàÿ GT-16-6 (ÃÌ) EKF', '', ( #275 ) ) ;
#342 = PERSON ( 'UNSPECIFIED', 'UNSPECIFIED', 'UNSPECIFIED', ('UNSPECIFIED'), ('UNSPECIFIED'), ('UNSPECIFIED') ) ;
#343 = AXIS2_PLACEMENT_3D ( 'NONE', #294, #308, #309 ) ;
#344 = AXIS2_PLACEMENT_3D ( 'NONE', #258, #262, #266 ) ;
#345 = UNCERTAINTY_MEASURE_WITH_UNIT (LENGTH_MEASURE( 1.000000000000000100E-005 ), #335, 'distance_accuracy_value', 'NONE');
#346 = ADVANCED_BREP_SHAPE_REPRESENTATION ( 'Ãèëüçà ìåäíàÿ GT-16-6 (ÃÌ) EKF', ( #347, #25 ), #170 ) ;
#347 = MANIFOLD_SOLID_BREP ( 'Ôàñêà1', #106 ) ;
#348 = AXIS2_PLACEMENT_3D ( 'NONE', #276, #303, #306 ) ;
#349 = AXIS2_PLACEMENT_3D ( 'NONE', #264, #324, #319 ) ;
ENDSEC;
END-ISO-10303-21;
