ISO-10303-21;
HEADER;
FILE_DESCRIPTION (( 'STEP AP203' ),
    '1' );
FILE_NAME ('Êðûøêà íà óãîë âåðòèêàëüíûé âíåøíèé CDV 90_38344.STEP',
    '2012-11-09T08:45:09',
    ( 'Àñååâ' ),
    ( '' ),
    'SwSTEP 2.0',
    'SolidWorks 2012',
    '' );
FILE_SCHEMA (( 'CONFIG_CONTROL_DESIGN' ));
ENDSEC;

DATA;
#1 = CARTESIAN_POINT ( 'NONE',  ( 151.0000000000000000, -14.00000000000000000, 0.0000000000000000000 ) ) ;
#2 = CARTESIAN_POINT ( 'NONE',  ( 151.7999999999999800, -14.00000000000000000, 210.0000000000000000 ) ) ;
#3 = DIRECTION ( 'NONE',  ( -0.0000000000000000000, 0.0000000000000000000, -1.000000000000000000 ) ) ;
#4 = DIRECTION ( 'NONE',  ( 0.0000000000000000000, -1.000000000000000000, 0.0000000000000000000 ) ) ;
#5 = DIRECTION ( 'NONE',  ( -0.0000000000000000000, -1.000000000000000000, -0.0000000000000000000 ) ) ;
#6 = CARTESIAN_POINT ( 'NONE',  ( 1.734723475976807100E-015, 0.0000000000000000000, 194.9999999999999700 ) ) ;
#7 = DIRECTION ( 'NONE',  ( 1.000000000000000000, 0.0000000000000000000, -0.0000000000000000000 ) ) ;
#8 = CARTESIAN_POINT ( 'NONE',  ( -151.7999999999999800, -14.00000000000000000, 0.0000000000000000000 ) ) ;
#9 = DIRECTION ( 'NONE',  ( 0.0000000000000000000, 0.0000000000000000000, 1.000000000000000000 ) ) ;
#10 = DIRECTION ( 'NONE',  ( 0.0000000000000000000, 1.000000000000000000, 0.0000000000000000000 ) ) ;
#11 = PLANE ( 'NONE',  #125 ) ;
#12 = DIRECTION ( 'NONE',  ( 0.0000000000000000000, 0.0000000000000000000, 1.000000000000000000 ) ) ;
#13 = DIRECTION ( 'NONE',  ( -0.0000000000000000000, -1.000000000000000000, -0.0000000000000000000 ) ) ;
#14 = CARTESIAN_POINT ( 'NONE',  ( 1.734723475976807100E-015, 0.0000000000000000000, 14.99999999999999300 ) ) ;
#15 = CARTESIAN_POINT ( 'NONE',  ( -151.0000000000000000, 0.0000000000000000000, 0.0000000000000000000 ) ) ;
#16 = DIRECTION ( 'NONE',  ( 0.0000000000000000000, -0.0000000000000000000, -1.000000000000000000 ) ) ;
#17 = CARTESIAN_POINT ( 'NONE',  ( 151.0000000000000000, 0.0000000000000000000, 210.0000000000000000 ) ) ;
#18 = DIRECTION ( 'NONE',  ( -0.0000000000000000000, 1.000000000000000000, -0.0000000000000000000 ) ) ;
#19 = DIRECTION ( 'NONE',  ( -0.0000000000000000000, -0.0000000000000000000, -1.000000000000000000 ) ) ;
#20 = DIRECTION ( 'NONE',  ( -0.0000000000000000000, -0.0000000000000000000, -1.000000000000000000 ) ) ;
#21 = DIRECTION ( 'NONE',  ( 0.0000000000000000000, -1.000000000000000000, 0.0000000000000000000 ) ) ;
#22 = CARTESIAN_POINT ( 'NONE',  ( 151.0000000000000000, 0.0000000000000000000, 210.0000000000000000 ) ) ;
#23 = CARTESIAN_POINT ( 'NONE',  ( 0.0000000000000000000, 0.0000000000000000000, 210.0000000000000000 ) ) ;
#24 = DIRECTION ( 'NONE',  ( -0.0000000000000000000, 1.000000000000000000, -0.0000000000000000000 ) ) ;
#25 = CARTESIAN_POINT ( 'NONE',  ( 151.0000000000000000, 0.0000000000000000000, 210.0000000000000000 ) ) ;
#26 = CARTESIAN_POINT ( 'NONE',  ( -151.0000000000000000, 0.0000000000000000000, 0.0000000000000000000 ) ) ;
#27 = PLANE ( 'NONE',  #128 ) ;
#28 = DIRECTION ( 'NONE',  ( -1.000000000000000000, 0.0000000000000000000, 0.0000000000000000000 ) ) ;
#29 = DIRECTION ( 'NONE',  ( -0.0000000000000000000, -0.0000000000000000000, -1.000000000000000000 ) ) ;
#30 = CARTESIAN_POINT ( 'NONE',  ( 151.7999999999999800, -14.00000000000000000, 210.0000000000000000 ) ) ;
#31 = CARTESIAN_POINT ( 'NONE',  ( -151.0000000000000000, 0.0000000000000000000, 210.0000000000000000 ) ) ;
#32 = CARTESIAN_POINT ( 'NONE',  ( -151.0000000000000000, -14.00000000000000000, 210.0000000000000000 ) ) ;
#33 = DIRECTION ( 'NONE',  ( -1.000000000000000000, 0.0000000000000000000, 0.0000000000000000000 ) ) ;
#34 = CARTESIAN_POINT ( 'NONE',  ( -151.0000000000000000, -14.00000000000000000, 0.0000000000000000000 ) ) ;
#35 = DIRECTION ( 'NONE',  ( 0.0000000000000000000, 1.000000000000000000, 0.0000000000000000000 ) ) ;
#36 = DIRECTION ( 'NONE',  ( 0.0000000000000000000, 0.0000000000000000000, 1.000000000000000000 ) ) ;
#37 = DIRECTION ( 'NONE',  ( 1.000000000000000000, 0.0000000000000000000, 0.0000000000000000000 ) ) ;
#38 = DIRECTION ( 'NONE',  ( -1.000000000000000000, 0.0000000000000000000, 0.0000000000000000000 ) ) ;
#39 = CARTESIAN_POINT ( 'NONE',  ( 1.734723475976807100E-015, -14.00099999999999900, 194.9999999999999700 ) ) ;
#40 = PLANE ( 'NONE',  #188 ) ;
#41 = PLANE ( 'NONE',  #187 ) ;
#42 = DIRECTION ( 'NONE',  ( -0.0000000000000000000, 0.0000000000000000000, -1.000000000000000000 ) ) ;
#43 = DIRECTION ( 'NONE',  ( -0.0000000000000000000, 1.000000000000000000, -0.0000000000000000000 ) ) ;
#44 = DIRECTION ( 'NONE',  ( 0.0000000000000000000, 0.0000000000000000000, 1.000000000000000000 ) ) ;
#45 = PLANE ( 'NONE',  #132 ) ;
#46 = CARTESIAN_POINT ( 'NONE',  ( 0.0000000000000000000, 0.0000000000000000000, 0.0000000000000000000 ) ) ;
#47 = DIRECTION ( 'NONE',  ( 0.0000000000000000000, 1.000000000000000000, 0.0000000000000000000 ) ) ;
#48 = DIRECTION ( 'NONE',  ( -0.0000000000000000000, -0.0000000000000000000, -1.000000000000000000 ) ) ;
#49 = CARTESIAN_POINT ( 'NONE',  ( 1.734723475976807100E-015, -14.00099999999999900, 14.99999999999999300 ) ) ;
#50 = CARTESIAN_POINT ( 'NONE',  ( -151.0000000000000000, 0.0000000000000000000, 210.0000000000000000 ) ) ;
#51 = CARTESIAN_POINT ( 'NONE',  ( -151.7999999999999800, -14.00000000000000000, 210.0000000000000000 ) ) ;
#52 = DIRECTION ( 'NONE',  ( -0.0000000000000000000, 0.0000000000000000000, -1.000000000000000000 ) ) ;
#53 = DIRECTION ( 'NONE',  ( 0.0000000000000000000, 1.000000000000000000, 0.0000000000000000000 ) ) ;
#54 = DIRECTION ( 'NONE',  ( 1.000000000000000000, 0.0000000000000000000, -0.0000000000000000000 ) ) ;
#55 = DIRECTION ( 'NONE',  ( -0.0000000000000000000, 1.000000000000000000, -0.0000000000000000000 ) ) ;
#56 = CARTESIAN_POINT ( 'NONE',  ( -151.7999999999999800, 0.0000000000000000000, 0.0000000000000000000 ) ) ;
#57 = DIRECTION ( 'NONE',  ( 0.0000000000000000000, 0.0000000000000000000, 1.000000000000000000 ) ) ;
#58 = CARTESIAN_POINT ( 'NONE',  ( -151.0000000000000000, 0.8000000000000000400, 210.0000000000000000 ) ) ;
#59 = DIRECTION ( 'NONE',  ( 0.0000000000000000000, -0.0000000000000000000, 1.000000000000000000 ) ) ;
#60 = DIRECTION ( 'NONE',  ( 1.000000000000000000, 0.0000000000000000000, 0.0000000000000000000 ) ) ;
#61 = CARTESIAN_POINT ( 'NONE',  ( -151.0000000000000000, -14.00000000000000000, 210.0000000000000000 ) ) ;
#62 = CARTESIAN_POINT ( 'NONE',  ( 151.0000000000000000, 0.0000000000000000000, 0.0000000000000000000 ) ) ;
#63 = DIRECTION ( 'NONE',  ( 1.000000000000000000, 0.0000000000000000000, 0.0000000000000000000 ) ) ;
#64 = CARTESIAN_POINT ( 'NONE',  ( -151.7999999999999800, 0.8000000000000000400, 210.0000000000000000 ) ) ;
#65 = CARTESIAN_POINT ( 'NONE',  ( 1.734723475976807100E-015, 0.8000000000000000400, 14.99999999999999300 ) ) ;
#66 = CARTESIAN_POINT ( 'NONE',  ( -151.7999999999999800, 0.0000000000000000000, 210.0000000000000000 ) ) ;
#67 = DIRECTION ( 'NONE',  ( 0.0000000000000000000, 0.0000000000000000000, -1.000000000000000000 ) ) ;
#68 = DIRECTION ( 'NONE',  ( -0.0000000000000000000, 1.000000000000000000, -0.0000000000000000000 ) ) ;
#69 = CARTESIAN_POINT ( 'NONE',  ( 1.734723475976807100E-015, 0.8000000000000000400, 194.9999999999999700 ) ) ;
#70 = CARTESIAN_POINT ( 'NONE',  ( -151.0000000000000000, 0.8000000000000000400, 210.0000000000000000 ) ) ;
#71 = DIRECTION ( 'NONE',  ( -0.0000000000000000000, -0.0000000000000000000, -1.000000000000000000 ) ) ;
#72 = CARTESIAN_POINT ( 'NONE',  ( -151.0000000000000000, 0.8000000000000000400, 0.0000000000000000000 ) ) ;
#73 = DIRECTION ( 'NONE',  ( -0.0000000000000000000, -1.000000000000000000, 0.0000000000000000000 ) ) ;
#74 = CARTESIAN_POINT ( 'NONE',  ( 151.7999999999999800, 0.0000000000000000000, 210.0000000000000000 ) ) ;
#75 = CARTESIAN_POINT ( 'NONE',  ( 151.7999999999999800, 0.8000000000000000400, 210.0000000000000000 ) ) ;
#76 = DIRECTION ( 'NONE',  ( 0.0000000000000000000, 0.0000000000000000000, 1.000000000000000000 ) ) ;
#77 = DIRECTION ( 'NONE',  ( -1.000000000000000000, 0.0000000000000000000, 0.0000000000000000000 ) ) ;
#78 = CARTESIAN_POINT ( 'NONE',  ( 151.7999999999999800, 0.0000000000000000000, 210.0000000000000000 ) ) ;
#79 = PLANE ( 'NONE',  #219 ) ;
#80 = DIRECTION ( 'NONE',  ( 0.0000000000000000000, -1.000000000000000000, 0.0000000000000000000 ) ) ;
#81 = CARTESIAN_POINT ( 'NONE',  ( 151.7999999999999800, 0.0000000000000000000, 0.0000000000000000000 ) ) ;
#82 = DIRECTION ( 'NONE',  ( 1.000000000000000000, 0.0000000000000000000, 0.0000000000000000000 ) ) ;
#83 = DIRECTION ( 'NONE',  ( 0.0000000000000000000, -0.0000000000000000000, -1.000000000000000000 ) ) ;
#84 = DIRECTION ( 'NONE',  ( 0.0000000000000000000, -1.000000000000000000, 0.0000000000000000000 ) ) ;
#85 = CARTESIAN_POINT ( 'NONE',  ( -151.0000000000000000, 0.0000000000000000000, 210.0000000000000000 ) ) ;
#86 = DIRECTION ( 'NONE',  ( -0.0000000000000000000, -0.0000000000000000000, -1.000000000000000000 ) ) ;
#87 = PLANE ( 'NONE',  #221 ) ;
#88 = DIRECTION ( 'NONE',  ( 0.0000000000000000000, 0.0000000000000000000, 1.000000000000000000 ) ) ;
#89 = DIRECTION ( 'NONE',  ( -1.000000000000000000, 0.0000000000000000000, 0.0000000000000000000 ) ) ;
#90 = CARTESIAN_POINT ( 'NONE',  ( -151.7999999999999800, 0.0000000000000000000, 210.0000000000000000 ) ) ;
#91 = PLANE ( 'NONE',  #223 ) ;
#92 = DIRECTION ( 'NONE',  ( 0.0000000000000000000, -0.0000000000000000000, 1.000000000000000000 ) ) ;
#93 = CARTESIAN_POINT ( 'NONE',  ( -151.0000000000000000, 0.0000000000000000000, 210.0000000000000000 ) ) ;
#94 = PLANE ( 'NONE',  #120 ) ;
#95 = CARTESIAN_POINT ( 'NONE',  ( -151.0000000000000000, -14.00000000000000000, 210.0000000000000000 ) ) ;
#96 = DIRECTION ( 'NONE',  ( 0.0000000000000000000, 1.000000000000000000, 0.0000000000000000000 ) ) ;
#97 = CARTESIAN_POINT ( 'NONE',  ( -151.0000000000000000, 0.0000000000000000000, 210.0000000000000000 ) ) ;
#98 = DIRECTION ( 'NONE',  ( -1.000000000000000000, 0.0000000000000000000, 0.0000000000000000000 ) ) ;
#99 = DIRECTION ( 'NONE',  ( -0.0000000000000000000, 0.0000000000000000000, -1.000000000000000000 ) ) ;
#100 = PLANE ( 'NONE',  #122 ) ;
#101 = ADVANCED_FACE ( 'NONE', ( #331, #334, #244 ), #40, .T. ) ;
#102 = ADVANCED_FACE ( 'NONE', ( #243 ), #41, .T. ) ;
#103 = ADVANCED_FACE ( 'NONE', ( #242, #237 ), #235, .F. ) ;
#104 = ADVANCED_FACE ( 'NONE', ( #241 ), #45, .T. ) ;
#105 = ADVANCED_FACE ( 'NONE', ( #240, #233 ), #374, .F. ) ;
#106 = ADVANCED_FACE ( 'NONE', ( #236 ), #27, .T. ) ;
#107 = ADVANCED_FACE ( 'NONE', ( #238 ), #11, .F. ) ;
#108 = ADVANCED_FACE ( 'NONE', ( #234 ), #100, .F. ) ;
#109 = ADVANCED_FACE ( 'NONE', ( #341, #371, #369 ), #94, .F. ) ;
#110 = ADVANCED_FACE ( 'NONE', ( #370 ), #91, .F. ) ;
#111 = ADVANCED_FACE ( 'NONE', ( #373 ), #87, .T. ) ;
#112 = ADVANCED_FACE ( 'NONE', ( #364 ), #79, .T. ) ;
#113 = PERSON ( 'UNSPECIFIED', 'UNSPECIFIED', 'UNSPECIFIED', ('UNSPECIFIED'), ('UNSPECIFIED'), ('UNSPECIFIED') ) ;
#114 = PRODUCT ( 'Êðûøêà íà óãîë âåðòèêàëüíûé âíåøíèé CDV 90_38344', 'Êðûøêà íà óãîë âåðòèêàëüíûé âíåøíèé CDV 90_38344', '', ( #178 ) ) ;
#115 = MANIFOLD_SOLID_BREP ( 'Âûðåç-Âûòÿíóòü1', #299 ) ;
#116 = UNCERTAINTY_MEASURE_WITH_UNIT (LENGTH_MEASURE( 1.000000000000000100E-005 ), #133, 'distance_accuracy_value', 'NONE');
#117 = ADVANCED_BREP_SHAPE_REPRESENTATION ( '¦¨v°úð ýð ºóþû òõ¨ªøúðû¹ývù òýõ°ýøù CDV 90_38344', ( #115, #224 ), #130 ) ;
#118 = APPROVAL ( #175, 'UNSPECIFIED' ) ;
#119 = PRODUCT_DEFINITION_FORMATION_WITH_SPECIFIED_SOURCE ( 'ANY', '', #114, .NOT_KNOWN. ) ;
#120 = AXIS2_PLACEMENT_3D ( 'NONE', #97, #10, #92 ) ;
#121 = CC_DESIGN_DATE_AND_TIME_ASSIGNMENT ( #409, #164, ( #151 ) ) ;
#122 = AXIS2_PLACEMENT_3D ( 'NONE', #23, #99, #98 ) ;
#123 = CC_DESIGN_PERSON_AND_ORGANIZATION_ASSIGNMENT ( #413, #165, ( #151 ) ) ;
#124 = CC_DESIGN_APPROVAL ( #118, ( #119 ) ) ;
#125 = AXIS2_PLACEMENT_3D ( 'NONE', #25, #7, #3 ) ;
#126 = CC_DESIGN_PERSON_AND_ORGANIZATION_ASSIGNMENT ( #397, #183, ( #119 ) ) ;
#127 = CC_DESIGN_APPROVAL ( #131, ( #151 ) ) ;
#128 = AXIS2_PLACEMENT_3D ( 'NONE', #30, #21, #16 ) ;
#129 = AXIS2_PLACEMENT_3D ( 'NONE', #39, #43, #44 ) ;
#130 =( GEOMETRIC_REPRESENTATION_CONTEXT ( 3 ) GLOBAL_UNCERTAINTY_ASSIGNED_CONTEXT ( ( #116 ) ) GLOBAL_UNIT_ASSIGNED_CONTEXT ( ( #133, #186, #185 ) ) REPRESENTATION_CONTEXT ( 'NONE', 'WORKASPACE' ) );
#131 = APPROVAL ( #171, 'UNSPECIFIED' ) ;
#132 = AXIS2_PLACEMENT_3D ( 'NONE', #46, #42, #38 ) ;
#133 =( LENGTH_UNIT ( ) NAMED_UNIT ( * ) SI_UNIT ( .MILLI., .METRE. ) );
#134 = CARTESIAN_POINT ( 'NONE',  ( 151.0000000000000000, 0.0000000000000000000, 0.0000000000000000000 ) ) ;
#135 = CARTESIAN_POINT ( 'NONE',  ( 151.7999999999999800, 0.8000000000000000400, 0.0000000000000000000 ) ) ;
#136 = CARTESIAN_POINT ( 'NONE',  ( 151.0000000000000000, -14.00000000000000000, 210.0000000000000000 ) ) ;
#137 = CARTESIAN_POINT ( 'NONE',  ( -151.7999999999999800, 0.8000000000000000400, 210.0000000000000000 ) ) ;
#138 = CARTESIAN_POINT ( 'NONE',  ( -151.0000000000000000, -14.00000000000000000, 210.0000000000000000 ) ) ;
#139 = CARTESIAN_POINT ( 'NONE',  ( 151.7999999999999800, 0.8000000000000000400, 210.0000000000000000 ) ) ;
#140 = AXIS2_PLACEMENT_3D ( 'NONE', #49, #55, #57 ) ;
#141 = CARTESIAN_POINT ( 'NONE',  ( 151.0000000000000000, 0.0000000000000000000, 210.0000000000000000 ) ) ;
#142 = CARTESIAN_POINT ( 'NONE',  ( -151.0000000000000000, 0.0000000000000000000, 210.0000000000000000 ) ) ;
#143 = CARTESIAN_POINT ( 'NONE',  ( 151.7999999999999800, -14.00000000000000000, 210.0000000000000000 ) ) ;
#144 = CARTESIAN_POINT ( 'NONE',  ( -151.7999999999999800, 0.8000000000000000400, 0.0000000000000000000 ) ) ;
#145 = CC_DESIGN_PERSON_AND_ORGANIZATION_ASSIGNMENT ( #421, #177, ( #114 ) ) ;
#146 = CARTESIAN_POINT ( 'NONE',  ( -151.0000000000000000, -14.00000000000000000, 0.0000000000000000000 ) ) ;
#147 = CARTESIAN_POINT ( 'NONE',  ( -151.7999999999999800, -14.00000000000000000, 210.0000000000000000 ) ) ;
#148 = DIRECTION ( 'NONE',  ( -0.0000000000000000000, -0.0000000000000000000, -1.000000000000000000 ) ) ;
#149 = CARTESIAN_POINT ( 'NONE',  ( -151.0000000000000000, 0.0000000000000000000, 0.0000000000000000000 ) ) ;
#150 = CARTESIAN_POINT ( 'NONE',  ( 151.0000000000000000, -14.00000000000000000, 210.0000000000000000 ) ) ;
#151 = PRODUCT_DEFINITION ( 'UNKNOWN', '', #119, #437 ) ;
#152 = CARTESIAN_POINT ( 'NONE',  ( 151.7999999999999800, -14.00000000000000000, 0.0000000000000000000 ) ) ;
#153 = DIRECTION ( 'NONE',  ( -0.0000000000000000000, -0.0000000000000000000, -1.000000000000000000 ) ) ;
#154 = APPROVAL_STATUS ( 'not_yet_approved' ) ;
#155 = APPROVAL_ROLE ( '' ) ;
#156 = CARTESIAN_POINT ( 'NONE',  ( 1.734723475976807100E-015, 0.8000000000000000400, 17.49999999999999600 ) ) ;
#157 = CARTESIAN_POINT ( 'NONE',  ( 151.7999999999999800, -14.00000000000000000, 0.0000000000000000000 ) ) ;
#158 = CARTESIAN_POINT ( 'NONE',  ( 0.0000000000000000000, 0.0000000000000000000, 0.0000000000000000000 ) ) ;
#159 = CARTESIAN_POINT ( 'NONE',  ( 1.734723475976807100E-015, 0.8000000000000000400, 192.4999999999999700 ) ) ;
#160 = CARTESIAN_POINT ( 'NONE',  ( 1.734723475976807100E-015, 0.0000000000000000000, 197.4999999999999700 ) ) ;
#161 = DIRECTION ( 'NONE',  ( 0.0000000000000000000, 0.0000000000000000000, 1.000000000000000000 ) ) ;
#162 = CARTESIAN_POINT ( 'NONE',  ( 1.734723475976807100E-015, 0.0000000000000000000, 17.49999999999999600 ) ) ;
#163 = DIRECTION ( 'NONE',  ( -1.000000000000000000, 0.0000000000000000000, 0.0000000000000000000 ) ) ;
#164 = DATE_TIME_ROLE ( 'creation_date' ) ;
#165 = PERSON_AND_ORGANIZATION_ROLE ( 'creator' ) ;
#166 = CARTESIAN_POINT ( 'NONE',  ( 151.7999999999999800, -14.00000000000000000, 210.0000000000000000 ) ) ;
#167 = APPROVAL_ROLE ( '' ) ;
#168 = DATE_TIME_ROLE ( 'classification_date' ) ;
#169 = DIRECTION ( 'NONE',  ( -1.000000000000000000, 0.0000000000000000000, 0.0000000000000000000 ) ) ;
#170 = DIRECTION ( 'NONE',  ( -0.0000000000000000000, -1.000000000000000000, 0.0000000000000000000 ) ) ;
#171 = APPROVAL_STATUS ( 'not_yet_approved' ) ;
#172 = APPLICATION_PROTOCOL_DEFINITION ( 'international standard', 'config_control_design', 1994, #176 ) ;
#173 = PERSON_AND_ORGANIZATION_ROLE ( 'classification_officer' ) ;
#174 = SECURITY_CLASSIFICATION_LEVEL ( 'unclassified' ) ;
#175 = APPROVAL_STATUS ( 'not_yet_approved' ) ;
#176 = APPLICATION_CONTEXT ( 'configuration controlled 3d designs of mechanical parts and assemblies' ) ;
#177 = PERSON_AND_ORGANIZATION_ROLE ( 'design_owner' ) ;
#178 = MECHANICAL_CONTEXT ( 'NONE', #181, 'mechanical' ) ;
#179 = PERSON_AND_ORGANIZATION_ROLE ( 'design_supplier' ) ;
#180 = DIRECTION ( 'NONE',  ( 1.000000000000000000, 0.0000000000000000000, 0.0000000000000000000 ) ) ;
#181 = APPLICATION_CONTEXT ( 'configuration controlled 3d designs of mechanical parts and assemblies' ) ;
#182 = APPLICATION_PROTOCOL_DEFINITION ( 'international standard', 'config_control_design', 1994, #181 ) ;
#183 = PERSON_AND_ORGANIZATION_ROLE ( 'creator' ) ;
#184 = APPROVAL_ROLE ( '' ) ;
#185 =( NAMED_UNIT ( * ) SI_UNIT ( $, .STERADIAN. ) SOLID_ANGLE_UNIT ( ) );
#186 =( NAMED_UNIT ( * ) PLANE_ANGLE_UNIT ( ) SI_UNIT ( $, .RADIAN. ) );
#187 = AXIS2_PLACEMENT_3D ( 'NONE', #78, #54, #52 ) ;
#188 = AXIS2_PLACEMENT_3D ( 'NONE', #58, #96, #59 ) ;
#189 = EDGE_CURVE ( 'NONE', #254, #258, #372, .T. ) ;
#190 = EDGE_CURVE ( 'NONE', #254, #249, #366, .T. ) ;
#191 = EDGE_CURVE ( 'NONE', #424, #424, #367, .T. ) ;
#192 = EDGE_CURVE ( 'NONE', #425, #425, #362, .T. ) ;
#193 = EDGE_CURVE ( 'NONE', #248, #258, #360, .T. ) ;
#194 = EDGE_CURVE ( 'NONE', #256, #248, #368, .T. ) ;
#195 = EDGE_CURVE ( 'NONE', #256, #254, #361, .T. ) ;
#196 = EDGE_CURVE ( 'NONE', #252, #248, #342, .T. ) ;
#197 = EDGE_CURVE ( 'NONE', #250, #252, #346, .T. ) ;
#198 = EDGE_CURVE ( 'NONE', #250, #256, #357, .T. ) ;
#199 = EDGE_CURVE ( 'NONE', #247, #252, #352, .T. ) ;
#200 = EDGE_CURVE ( 'NONE', #255, #247, #350, .T. ) ;
#201 = EDGE_CURVE ( 'NONE', #255, #250, #344, .T. ) ;
#202 = EDGE_CURVE ( 'NONE', #247, #246, #355, .T. ) ;
#203 = EDGE_CURVE ( 'NONE', #253, #259, #354, .T. ) ;
#204 = EDGE_CURVE ( 'NONE', #251, #246, #348, .T. ) ;
#205 = EDGE_CURVE ( 'NONE', #255, #251, #380, .T. ) ;
#206 = EDGE_CURVE ( 'NONE', #423, #423, #428, .T. ) ;
#207 = EDGE_CURVE ( 'NONE', #375, #375, #396, .T. ) ;
#208 = EDGE_CURVE ( 'NONE', #253, #257, #393, .T. ) ;
#209 = EDGE_CURVE ( 'NONE', #246, #259, #394, .T. ) ;
#210 = EDGE_CURVE ( 'NONE', #251, #253, #432, .T. ) ;
#211 = EDGE_CURVE ( 'NONE', #259, #245, #430, .T. ) ;
#212 = EDGE_CURVE ( 'NONE', #249, #257, #340, .T. ) ;
#213 = EDGE_CURVE ( 'NONE', #258, #260, #389, .T. ) ;
#214 = EDGE_CURVE ( 'NONE', #260, #245, #433, .T. ) ;
#215 = EDGE_CURVE ( 'NONE', #249, #260, #377, .T. ) ;
#216 = AXIS2_PLACEMENT_3D ( 'NONE', #14, #13, #12 ) ;
#217 = AXIS2_PLACEMENT_3D ( 'NONE', #6, #5, #9 ) ;
#218 = AXIS2_PLACEMENT_3D ( 'NONE', #65, #35, #36 ) ;
#219 = AXIS2_PLACEMENT_3D ( 'NONE', #90, #77, #76 ) ;
#220 = AXIS2_PLACEMENT_3D ( 'NONE', #69, #68, #67 ) ;
#221 = AXIS2_PLACEMENT_3D ( 'NONE', #95, #84, #83 ) ;
#222 = EDGE_CURVE ( 'NONE', #257, #245, #427, .T. ) ;
#223 = AXIS2_PLACEMENT_3D ( 'NONE', #93, #89, #88 ) ;
#224 = AXIS2_PLACEMENT_3D ( 'NONE', #158, #161, #180 ) ;
#225 = PRODUCT_RELATED_PRODUCT_CATEGORY ( 'detail', '', ( #114 ) ) ;
#226 = CC_DESIGN_SECURITY_CLASSIFICATION ( #231, ( #119 ) ) ;
#227 = CC_DESIGN_APPROVAL ( #228, ( #231 ) ) ;
#228 = APPROVAL ( #154, 'UNSPECIFIED' ) ;
#229 = CC_DESIGN_DATE_AND_TIME_ASSIGNMENT ( #388, #168, ( #231 ) ) ;
#230 = CC_DESIGN_PERSON_AND_ORGANIZATION_ASSIGNMENT ( #399, #173, ( #231 ) ) ;
#231 = SECURITY_CLASSIFICATION ( '', '', #174 ) ;
#232 = CC_DESIGN_PERSON_AND_ORGANIZATION_ASSIGNMENT ( #398, #179, ( #119 ) ) ;
#233 = FACE_OUTER_BOUND ( 'NONE', #320, .T. ) ;
#234 = FACE_OUTER_BOUND ( 'NONE', #324, .T. ) ;
#235 = CYLINDRICAL_SURFACE ( 'NONE', #140, 2.500000000000002200 ) ;
#236 = FACE_OUTER_BOUND ( 'NONE', #335, .T. ) ;
#237 = FACE_OUTER_BOUND ( 'NONE', #323, .T. ) ;
#238 = FACE_OUTER_BOUND ( 'NONE', #332, .T. ) ;
#239 = VECTOR ( 'NONE', #82, 1000.000000000000000 ) ;
#240 = FACE_OUTER_BOUND ( 'NONE', #325, .T. ) ;
#241 = FACE_OUTER_BOUND ( 'NONE', #321, .T. ) ;
#242 = FACE_OUTER_BOUND ( 'NONE', #319, .T. ) ;
#243 = FACE_OUTER_BOUND ( 'NONE', #318, .T. ) ;
#244 = FACE_OUTER_BOUND ( 'NONE', #336, .T. ) ;
#245 = VERTEX_POINT ( 'NONE', #1 ) ;
#246 = VERTEX_POINT ( 'NONE', #149 ) ;
#247 = VERTEX_POINT ( 'NONE', #146 ) ;
#248 = VERTEX_POINT ( 'NONE', #144 ) ;
#249 = VERTEX_POINT ( 'NONE', #143 ) ;
#250 = VERTEX_POINT ( 'NONE', #147 ) ;
#251 = VERTEX_POINT ( 'NONE', #142 ) ;
#252 = VERTEX_POINT ( 'NONE', #8 ) ;
#253 = VERTEX_POINT ( 'NONE', #141 ) ;
#254 = VERTEX_POINT ( 'NONE', #139 ) ;
#255 = VERTEX_POINT ( 'NONE', #138 ) ;
#256 = VERTEX_POINT ( 'NONE', #137 ) ;
#257 = VERTEX_POINT ( 'NONE', #136 ) ;
#258 = VERTEX_POINT ( 'NONE', #135 ) ;
#259 = VERTEX_POINT ( 'NONE', #134 ) ;
#260 = VERTEX_POINT ( 'NONE', #157 ) ;
#261 = ORIENTED_EDGE ( 'NONE', *, *, #203, .T. ) ;
#262 = ORIENTED_EDGE ( 'NONE', *, *, #213, .F. ) ;
#263 = ORIENTED_EDGE ( 'NONE', *, *, #214, .F. ) ;
#264 = ORIENTED_EDGE ( 'NONE', *, *, #215, .F. ) ;
#265 = ORIENTED_EDGE ( 'NONE', *, *, #222, .F. ) ;
#266 = ORIENTED_EDGE ( 'NONE', *, *, #208, .F. ) ;
#267 = ORIENTED_EDGE ( 'NONE', *, *, #222, .T. ) ;
#268 = ORIENTED_EDGE ( 'NONE', *, *, #211, .T. ) ;
#269 = ORIENTED_EDGE ( 'NONE', *, *, #212, .T. ) ;
#270 = ORIENTED_EDGE ( 'NONE', *, *, #193, .F. ) ;
#271 = ORIENTED_EDGE ( 'NONE', *, *, #194, .F. ) ;
#272 = ORIENTED_EDGE ( 'NONE', *, *, #195, .T. ) ;
#273 = ORIENTED_EDGE ( 'NONE', *, *, #189, .T. ) ;
#274 = ORIENTED_EDGE ( 'NONE', *, *, #196, .F. ) ;
#275 = ORIENTED_EDGE ( 'NONE', *, *, #197, .F. ) ;
#276 = ORIENTED_EDGE ( 'NONE', *, *, #198, .T. ) ;
#277 = ORIENTED_EDGE ( 'NONE', *, *, #194, .T. ) ;
#278 = ORIENTED_EDGE ( 'NONE', *, *, #199, .F. ) ;
#279 = ORIENTED_EDGE ( 'NONE', *, *, #200, .F. ) ;
#280 = ORIENTED_EDGE ( 'NONE', *, *, #201, .T. ) ;
#281 = ORIENTED_EDGE ( 'NONE', *, *, #197, .T. ) ;
#282 = ORIENTED_EDGE ( 'NONE', *, *, #202, .T. ) ;
#283 = ORIENTED_EDGE ( 'NONE', *, *, #204, .F. ) ;
#284 = ORIENTED_EDGE ( 'NONE', *, *, #205, .F. ) ;
#285 = ORIENTED_EDGE ( 'NONE', *, *, #200, .T. ) ;
#286 = ORIENTED_EDGE ( 'NONE', *, *, #206, .F. ) ;
#287 = ORIENTED_EDGE ( 'NONE', *, *, #207, .F. ) ;
#288 = ORIENTED_EDGE ( 'NONE', *, *, #209, .T. ) ;
#289 = ORIENTED_EDGE ( 'NONE', *, *, #203, .F. ) ;
#290 = ORIENTED_EDGE ( 'NONE', *, *, #210, .F. ) ;
#291 = ORIENTED_EDGE ( 'NONE', *, *, #204, .T. ) ;
#292 = ORIENTED_EDGE ( 'NONE', *, *, #208, .T. ) ;
#293 = ORIENTED_EDGE ( 'NONE', *, *, #212, .F. ) ;
#294 = ORIENTED_EDGE ( 'NONE', *, *, #190, .F. ) ;
#295 = ORIENTED_EDGE ( 'NONE', *, *, #195, .F. ) ;
#296 = ORIENTED_EDGE ( 'NONE', *, *, #198, .F. ) ;
#297 = ORIENTED_EDGE ( 'NONE', *, *, #201, .F. ) ;
#298 = ORIENTED_EDGE ( 'NONE', *, *, #206, .T. ) ;
#299 = CLOSED_SHELL ( 'NONE', ( #107, #106, #102, #101, #112, #111, #110, #109, #108, #104, #103, #105 ) ) ;
#300 = ORIENTED_EDGE ( 'NONE', *, *, #205, .T. ) ;
#301 = ORIENTED_EDGE ( 'NONE', *, *, #192, .F. ) ;
#302 = ORIENTED_EDGE ( 'NONE', *, *, #215, .T. ) ;
#303 = ORIENTED_EDGE ( 'NONE', *, *, #191, .T. ) ;
#304 = ORIENTED_EDGE ( 'NONE', *, *, #189, .F. ) ;
#305 = ORIENTED_EDGE ( 'NONE', *, *, #191, .F. ) ;
#306 = ORIENTED_EDGE ( 'NONE', *, *, #192, .T. ) ;
#307 = ORIENTED_EDGE ( 'NONE', *, *, #207, .T. ) ;
#308 = ORIENTED_EDGE ( 'NONE', *, *, #190, .T. ) ;
#309 = ORIENTED_EDGE ( 'NONE', *, *, #210, .T. ) ;
#310 = ORIENTED_EDGE ( 'NONE', *, *, #211, .F. ) ;
#311 = ORIENTED_EDGE ( 'NONE', *, *, #209, .F. ) ;
#312 = ORIENTED_EDGE ( 'NONE', *, *, #202, .F. ) ;
#313 = ORIENTED_EDGE ( 'NONE', *, *, #199, .T. ) ;
#314 = ORIENTED_EDGE ( 'NONE', *, *, #196, .T. ) ;
#315 = ORIENTED_EDGE ( 'NONE', *, *, #193, .T. ) ;
#316 = ORIENTED_EDGE ( 'NONE', *, *, #213, .T. ) ;
#317 = ORIENTED_EDGE ( 'NONE', *, *, #214, .T. ) ;
#318 = EDGE_LOOP ( 'NONE', ( #262, #304, #308, #302 ) ) ;
#319 = EDGE_LOOP ( 'NONE', ( #306 ) ) ;
#320 = EDGE_LOOP ( 'NONE', ( #298 ) ) ;
#321 = EDGE_LOOP ( 'NONE', ( #310, #311, #312, #313, #314, #315, #316, #317 ) ) ;
#322 = EDGE_LOOP ( 'NONE', ( #288, #289, #290, #291 ) ) ;
#323 = EDGE_LOOP ( 'NONE', ( #307 ) ) ;
#324 = EDGE_LOOP ( 'NONE', ( #292, #293, #294, #295, #296, #297, #300, #309 ) ) ;
#325 = EDGE_LOOP ( 'NONE', ( #303 ) ) ;
#326 = EDGE_LOOP ( 'NONE', ( #287 ) ) ;
#327 = EDGE_LOOP ( 'NONE', ( #278, #279, #280, #281 ) ) ;
#328 = EDGE_LOOP ( 'NONE', ( #274, #275, #276, #277 ) ) ;
#329 = EDGE_LOOP ( 'NONE', ( #305 ) ) ;
#330 = EDGE_LOOP ( 'NONE', ( #286 ) ) ;
#331 = FACE_BOUND ( 'NONE', #329, .T. ) ;
#332 = EDGE_LOOP ( 'NONE', ( #268, #265, #266, #261 ) ) ;
#333 = EDGE_LOOP ( 'NONE', ( #301 ) ) ;
#334 = FACE_BOUND ( 'NONE', #333, .T. ) ;
#335 = EDGE_LOOP ( 'NONE', ( #263, #264, #269, #267 ) ) ;
#336 = EDGE_LOOP ( 'NONE', ( #270, #271, #272, #273 ) ) ;
#337 = EDGE_LOOP ( 'NONE', ( #282, #283, #284, #285 ) ) ;
#338 = VECTOR ( 'NONE', #170, 1000.000000000000000 ) ;
#339 = VECTOR ( 'NONE', #153, 1000.000000000000000 ) ;
#340 = LINE ( 'NONE', #2, #435 ) ;
#341 = FACE_BOUND ( 'NONE', #330, .T. ) ;
#342 = LINE ( 'NONE', #56, #345 ) ;
#343 = VECTOR ( 'NONE', #48, 1000.000000000000000 ) ;
#344 = LINE ( 'NONE', #61, #353 ) ;
#345 = VECTOR ( 'NONE', #53, 1000.000000000000000 ) ;
#346 = LINE ( 'NONE', #51, #343 ) ;
#347 = VECTOR ( 'NONE', #60, 1000.000000000000000 ) ;
#348 = LINE ( 'NONE', #50, #381 ) ;
#349 = VECTOR ( 'NONE', #33, 1000.000000000000000 ) ;
#350 = LINE ( 'NONE', #32, #356 ) ;
#351 = VECTOR ( 'NONE', #47, 1000.000000000000000 ) ;
#352 = LINE ( 'NONE', #34, #349 ) ;
#353 = VECTOR ( 'NONE', #28, 1000.000000000000000 ) ;
#354 = LINE ( 'NONE', #22, #379 ) ;
#355 = LINE ( 'NONE', #26, #382 ) ;
#356 = VECTOR ( 'NONE', #29, 1000.000000000000000 ) ;
#357 = LINE ( 'NONE', #66, #351 ) ;
#358 = VECTOR ( 'NONE', #37, 1000.000000000000000 ) ;
#359 = VECTOR ( 'NONE', #73, 1000.000000000000000 ) ;
#360 = LINE ( 'NONE', #72, #358 ) ;
#361 = LINE ( 'NONE', #70, #347 ) ;
#362 = CIRCLE ( 'NONE', #218, 2.500000000000002200 ) ;
#363 = VECTOR ( 'NONE', #71, 1000.000000000000000 ) ;
#364 = FACE_OUTER_BOUND ( 'NONE', #328, .T. ) ;
#365 = VECTOR ( 'NONE', #86, 1000.000000000000000 ) ;
#366 = LINE ( 'NONE', #74, #359 ) ;
#367 = CIRCLE ( 'NONE', #220, 2.500000000000002200 ) ;
#368 = LINE ( 'NONE', #64, #363 ) ;
#369 = FACE_OUTER_BOUND ( 'NONE', #322, .T. ) ;
#370 = FACE_OUTER_BOUND ( 'NONE', #337, .T. ) ;
#371 = FACE_BOUND ( 'NONE', #326, .T. ) ;
#372 = LINE ( 'NONE', #75, #365 ) ;
#373 = FACE_OUTER_BOUND ( 'NONE', #327, .T. ) ;
#374 = CYLINDRICAL_SURFACE ( 'NONE', #129, 2.500000000000002200 ) ;
#375 = VERTEX_POINT ( 'NONE', #162 ) ;
#376 = VECTOR ( 'NONE', #80, 1000.000000000000000 ) ;
#377 = LINE ( 'NONE', #166, #339 ) ;
#378 = SHAPE_DEFINITION_REPRESENTATION ( #436, #117 ) ;
#379 = VECTOR ( 'NONE', #20, 1000.000000000000000 ) ;
#380 = LINE ( 'NONE', #31, #391 ) ;
#381 = VECTOR ( 'NONE', #19, 1000.000000000000000 ) ;
#382 = VECTOR ( 'NONE', #24, 1000.000000000000000 ) ;
#383 = LOCAL_TIME ( 12, 45, 9.000000000000000000, #395 ) ;
#384 = CALENDAR_DATE ( 2012, 9, 11 ) ;
#385 = DATE_AND_TIME ( #384, #383 ) ;
#386 = APPROVAL_DATE_TIME ( #385, #228 ) ;
#387 = CALENDAR_DATE ( 2012, 9, 11 ) ;
#388 = DATE_AND_TIME ( #387, #401 ) ;
#389 = LINE ( 'NONE', #81, #338 ) ;
#390 = PERSON_AND_ORGANIZATION ( #113, #422 ) ;
#391 = VECTOR ( 'NONE', #18, 1000.000000000000000 ) ;
#392 = APPROVAL_PERSON_ORGANIZATION ( #390, #228, #167 ) ;
#393 = LINE ( 'NONE', #17, #376 ) ;
#394 = LINE ( 'NONE', #15, #239 ) ;
#395 = COORDINATED_UNIVERSAL_TIME_OFFSET ( 4, 0, .AHEAD. ) ;
#396 = CIRCLE ( 'NONE', #216, 2.500000000000002200 ) ;
#397 = PERSON_AND_ORGANIZATION ( #113, #422 ) ;
#398 = PERSON_AND_ORGANIZATION ( #113, #422 ) ;
#399 = PERSON_AND_ORGANIZATION ( #113, #422 ) ;
#400 = COORDINATED_UNIVERSAL_TIME_OFFSET ( 4, 0, .AHEAD. ) ;
#401 = LOCAL_TIME ( 12, 45, 9.000000000000000000, #400 ) ;
#402 = COORDINATED_UNIVERSAL_TIME_OFFSET ( 4, 0, .AHEAD. ) ;
#403 = LOCAL_TIME ( 12, 45, 9.000000000000000000, #402 ) ;
#404 = CALENDAR_DATE ( 2012, 9, 11 ) ;
#405 = DATE_AND_TIME ( #404, #403 ) ;
#406 = APPROVAL_DATE_TIME ( #405, #118 ) ;
#407 = APPROVAL_PERSON_ORGANIZATION ( #408, #118, #155 ) ;
#408 = PERSON_AND_ORGANIZATION ( #113, #422 ) ;
#409 = DATE_AND_TIME ( #410, #411 ) ;
#410 = CALENDAR_DATE ( 2012, 9, 11 ) ;
#411 = LOCAL_TIME ( 12, 45, 9.000000000000000000, #412 ) ;
#412 = COORDINATED_UNIVERSAL_TIME_OFFSET ( 4, 0, .AHEAD. ) ;
#413 = PERSON_AND_ORGANIZATION ( #113, #422 ) ;
#414 = APPROVAL_DATE_TIME ( #415, #131 ) ;
#415 = DATE_AND_TIME ( #416, #417 ) ;
#416 = CALENDAR_DATE ( 2012, 9, 11 ) ;
#417 = LOCAL_TIME ( 12, 45, 9.000000000000000000, #418 ) ;
#418 = COORDINATED_UNIVERSAL_TIME_OFFSET ( 4, 0, .AHEAD. ) ;
#419 = APPROVAL_PERSON_ORGANIZATION ( #420, #131, #184 ) ;
#420 = PERSON_AND_ORGANIZATION ( #113, #422 ) ;
#421 = PERSON_AND_ORGANIZATION ( #113, #422 ) ;
#422 = ORGANIZATION ( 'UNSPECIFIED', 'UNSPECIFIED', '' ) ;
#423 = VERTEX_POINT ( 'NONE', #160 ) ;
#424 = VERTEX_POINT ( 'NONE', #159 ) ;
#425 = VERTEX_POINT ( 'NONE', #156 ) ;
#426 = VECTOR ( 'NONE', #148, 1000.000000000000000 ) ;
#427 = LINE ( 'NONE', #150, #426 ) ;
#428 = CIRCLE ( 'NONE', #217, 2.500000000000002200 ) ;
#429 = VECTOR ( 'NONE', #4, 1000.000000000000000 ) ;
#430 = LINE ( 'NONE', #62, #429 ) ;
#431 = VECTOR ( 'NONE', #63, 1000.000000000000000 ) ;
#432 = LINE ( 'NONE', #85, #431 ) ;
#433 = LINE ( 'NONE', #152, #434 ) ;
#434 = VECTOR ( 'NONE', #169, 1000.000000000000000 ) ;
#435 = VECTOR ( 'NONE', #163, 1000.000000000000000 ) ;
#436 = PRODUCT_DEFINITION_SHAPE ( 'NONE', 'NONE',  #151 ) ;
#437 = DESIGN_CONTEXT ( 'detailed design', #176, 'design' ) ;
ENDSEC;
END-ISO-10303-21;
