ISO-10303-21;
HEADER;
FILE_DESCRIPTION (( 'STEP AP203' ),
    '1' );
FILE_NAME ('Êðûøêà íà îòâåòâèòåëü Ò-îáðàçíûé âåðòèêàëüíûé TDSR_38401.STEP',
    '2012-11-09T08:44:27',
    ( 'Àñååâ' ),
    ( '' ),
    'SwSTEP 2.0',
    'SolidWorks 2012',
    '' );
FILE_SCHEMA (( 'CONFIG_CONTROL_DESIGN' ));
ENDSEC;

DATA;
#1 = CARTESIAN_POINT ( 'NONE',  ( 0.0000000000000000000, 0.0000000000000000000, 0.0000000000000000000 ) ) ;
#2 = CARTESIAN_POINT ( 'NONE',  ( 2.653208575337321500E-015, 0.0000000000000000000, 347.5000000000000600 ) ) ;
#3 = DIRECTION ( 'NONE',  ( -1.000000000000000000, 0.0000000000000000000, 0.0000000000000000000 ) ) ;
#4 = CARTESIAN_POINT ( 'NONE',  ( 2.653208575337321500E-015, 0.5999999999999999800, 342.5000000000000000 ) ) ;
#5 = DIRECTION ( 'NONE',  ( -0.0000000000000000000, -0.0000000000000000000, -1.000000000000000000 ) ) ;
#6 = CARTESIAN_POINT ( 'NONE',  ( 1.734723475976807100E-015, 0.5999999999999999800, 17.49999999999999600 ) ) ;
#7 = DIRECTION ( 'NONE',  ( 0.0000000000000000000, -0.0000000000000000000, -1.000000000000000000 ) ) ;
#8 = DIRECTION ( 'NONE',  ( 0.0000000000000000000, -1.000000000000000000, 0.0000000000000000000 ) ) ;
#9 = CARTESIAN_POINT ( 'NONE',  ( -101.0000000000000000, 0.0000000000000000000, 360.0000000000000000 ) ) ;
#10 = CARTESIAN_POINT ( 'NONE',  ( -101.0000000000000000, -14.00000000000000000, 360.0000000000000000 ) ) ;
#11 = PLANE ( 'NONE',  #155 ) ;
#12 = DIRECTION ( 'NONE',  ( -0.0000000000000000000, 0.0000000000000000000, -1.000000000000000000 ) ) ;
#13 = DIRECTION ( 'NONE',  ( 1.000000000000000000, 0.0000000000000000000, -0.0000000000000000000 ) ) ;
#14 = DIRECTION ( 'NONE',  ( -1.000000000000000000, 0.0000000000000000000, 0.0000000000000000000 ) ) ;
#15 = CARTESIAN_POINT ( 'NONE',  ( 1.734723475976807100E-015, 0.0000000000000000000, 17.49999999999999600 ) ) ;
#16 = CARTESIAN_POINT ( 'NONE',  ( -101.0000000000000000, -14.00000000000000000, 360.0000000000000000 ) ) ;
#17 = PLANE ( 'NONE',  #181 ) ;
#18 = CARTESIAN_POINT ( 'NONE',  ( 101.0000000000000000, 0.0000000000000000000, 360.0000000000000000 ) ) ;
#19 = DIRECTION ( 'NONE',  ( -0.0000000000000000000, 1.000000000000000000, -0.0000000000000000000 ) ) ;
#20 = CARTESIAN_POINT ( 'NONE',  ( 2.653208575337321500E-015, -14.00099999999999900, 345.0000000000000600 ) ) ;
#21 = DIRECTION ( 'NONE',  ( 0.0000000000000000000, 0.0000000000000000000, 1.000000000000000000 ) ) ;
#22 = CARTESIAN_POINT ( 'NONE',  ( 1.734723475976807100E-015, -14.00099999999999900, 14.99999999999999300 ) ) ;
#23 = DIRECTION ( 'NONE',  ( 0.0000000000000000000, -0.0000000000000000000, 1.000000000000000000 ) ) ;
#24 = DIRECTION ( 'NONE',  ( 0.0000000000000000000, 0.0000000000000000000, 1.000000000000000000 ) ) ;
#25 = PLANE ( 'NONE',  #178 ) ;
#26 = CARTESIAN_POINT ( 'NONE',  ( -101.0000000000000000, -14.00000000000000000, 0.0000000000000000000 ) ) ;
#27 = DIRECTION ( 'NONE',  ( -0.0000000000000000000, 1.000000000000000000, -0.0000000000000000000 ) ) ;
#28 = CARTESIAN_POINT ( 'NONE',  ( -101.0000000000000000, 0.5999999999999999800, 360.0000000000000000 ) ) ;
#29 = DIRECTION ( 'NONE',  ( -0.0000000000000000000, -0.0000000000000000000, -1.000000000000000000 ) ) ;
#30 = DIRECTION ( 'NONE',  ( 0.0000000000000000000, -0.0000000000000000000, -1.000000000000000000 ) ) ;
#31 = DIRECTION ( 'NONE',  ( 0.0000000000000000000, -1.000000000000000000, 0.0000000000000000000 ) ) ;
#32 = PLANE ( 'NONE',  #180 ) ;
#33 = CARTESIAN_POINT ( 'NONE',  ( 101.6000000000000100, 0.5999999999999999800, 360.0000000000000000 ) ) ;
#34 = DIRECTION ( 'NONE',  ( -1.000000000000000000, 0.0000000000000000000, 0.0000000000000000000 ) ) ;
#35 = DIRECTION ( 'NONE',  ( -0.0000000000000000000, 0.0000000000000000000, -1.000000000000000000 ) ) ;
#36 = DIRECTION ( 'NONE',  ( 0.0000000000000000000, 1.000000000000000000, 0.0000000000000000000 ) ) ;
#37 = PLANE ( 'NONE',  #128 ) ;
#38 = DIRECTION ( 'NONE',  ( 0.0000000000000000000, 1.000000000000000000, 0.0000000000000000000 ) ) ;
#39 = DIRECTION ( 'NONE',  ( 0.0000000000000000000, -0.0000000000000000000, 1.000000000000000000 ) ) ;
#40 = CARTESIAN_POINT ( 'NONE',  ( 0.0000000000000000000, 0.0000000000000000000, 360.0000000000000000 ) ) ;
#41 = PLANE ( 'NONE',  #129 ) ;
#42 = CARTESIAN_POINT ( 'NONE',  ( 101.6000000000000100, -14.00000000000000000, 360.0000000000000000 ) ) ;
#43 = CARTESIAN_POINT ( 'NONE',  ( -101.0000000000000000, 0.0000000000000000000, 360.0000000000000000 ) ) ;
#44 = DIRECTION ( 'NONE',  ( 0.0000000000000000000, 0.0000000000000000000, 1.000000000000000000 ) ) ;
#45 = DIRECTION ( 'NONE',  ( -1.000000000000000000, 0.0000000000000000000, 0.0000000000000000000 ) ) ;
#46 = PLANE ( 'NONE',  #130 ) ;
#47 = DIRECTION ( 'NONE',  ( -0.0000000000000000000, -0.0000000000000000000, -1.000000000000000000 ) ) ;
#48 = DIRECTION ( 'NONE',  ( -0.0000000000000000000, 0.0000000000000000000, -1.000000000000000000 ) ) ;
#49 = CARTESIAN_POINT ( 'NONE',  ( 101.6000000000000100, -14.00000000000000000, 360.0000000000000000 ) ) ;
#50 = DIRECTION ( 'NONE',  ( 1.000000000000000000, 0.0000000000000000000, -0.0000000000000000000 ) ) ;
#51 = CARTESIAN_POINT ( 'NONE',  ( -101.6000000000000100, -14.00000000000000000, 360.0000000000000000 ) ) ;
#52 = DIRECTION ( 'NONE',  ( 0.0000000000000000000, 1.000000000000000000, 0.0000000000000000000 ) ) ;
#53 = PLANE ( 'NONE',  #131 ) ;
#54 = DIRECTION ( 'NONE',  ( 0.0000000000000000000, 0.0000000000000000000, 1.000000000000000000 ) ) ;
#55 = DIRECTION ( 'NONE',  ( -1.000000000000000000, 0.0000000000000000000, 0.0000000000000000000 ) ) ;
#56 = CARTESIAN_POINT ( 'NONE',  ( -101.6000000000000100, 0.0000000000000000000, 360.0000000000000000 ) ) ;
#57 = PLANE ( 'NONE',  #138 ) ;
#58 = DIRECTION ( 'NONE',  ( -1.000000000000000000, 0.0000000000000000000, 0.0000000000000000000 ) ) ;
#59 = DIRECTION ( 'NONE',  ( -0.0000000000000000000, 0.0000000000000000000, -1.000000000000000000 ) ) ;
#60 = CARTESIAN_POINT ( 'NONE',  ( 0.0000000000000000000, 0.0000000000000000000, 0.0000000000000000000 ) ) ;
#61 = DIRECTION ( 'NONE',  ( 0.0000000000000000000, 1.000000000000000000, 0.0000000000000000000 ) ) ;
#62 = CARTESIAN_POINT ( 'NONE',  ( 101.6000000000000100, 0.0000000000000000000, 360.0000000000000000 ) ) ;
#63 = CARTESIAN_POINT ( 'NONE',  ( -101.0000000000000000, 0.0000000000000000000, 360.0000000000000000 ) ) ;
#64 = PLANE ( 'NONE',  #140 ) ;
#65 = CARTESIAN_POINT ( 'NONE',  ( -101.6000000000000100, -14.00000000000000000, 360.0000000000000000 ) ) ;
#66 = CARTESIAN_POINT ( 'NONE',  ( 101.6000000000000100, 0.5999999999999999800, 0.0000000000000000000 ) ) ;
#67 = CARTESIAN_POINT ( 'NONE',  ( 101.0000000000000000, 0.0000000000000000000, 0.0000000000000000000 ) ) ;
#68 = CARTESIAN_POINT ( 'NONE',  ( 101.6000000000000100, -14.00000000000000000, 360.0000000000000000 ) ) ;
#69 = CARTESIAN_POINT ( 'NONE',  ( -101.0000000000000000, 0.0000000000000000000, 360.0000000000000000 ) ) ;
#70 = CARTESIAN_POINT ( 'NONE',  ( 101.0000000000000000, 0.0000000000000000000, 360.0000000000000000 ) ) ;
#71 = CARTESIAN_POINT ( 'NONE',  ( -101.0000000000000000, 0.0000000000000000000, 0.0000000000000000000 ) ) ;
#72 = CARTESIAN_POINT ( 'NONE',  ( 101.6000000000000100, -14.00000000000000000, 0.0000000000000000000 ) ) ;
#73 = CARTESIAN_POINT ( 'NONE',  ( 101.0000000000000000, -14.00000000000000000, 360.0000000000000000 ) ) ;
#74 = CARTESIAN_POINT ( 'NONE',  ( -101.0000000000000000, -14.00000000000000000, 0.0000000000000000000 ) ) ;
#75 = CARTESIAN_POINT ( 'NONE',  ( -101.6000000000000100, -14.00000000000000000, 0.0000000000000000000 ) ) ;
#76 = CARTESIAN_POINT ( 'NONE',  ( -101.6000000000000100, 0.5999999999999999800, 0.0000000000000000000 ) ) ;
#77 = CARTESIAN_POINT ( 'NONE',  ( 101.6000000000000100, 0.5999999999999999800, 360.0000000000000000 ) ) ;
#78 = DIRECTION ( 'NONE',  ( -1.000000000000000000, 0.0000000000000000000, 0.0000000000000000000 ) ) ;
#79 = CARTESIAN_POINT ( 'NONE',  ( 101.0000000000000000, -14.00000000000000000, 0.0000000000000000000 ) ) ;
#80 = CARTESIAN_POINT ( 'NONE',  ( 101.6000000000000100, -14.00000000000000000, 0.0000000000000000000 ) ) ;
#81 = CARTESIAN_POINT ( 'NONE',  ( -101.0000000000000000, -14.00000000000000000, 360.0000000000000000 ) ) ;
#82 = DIRECTION ( 'NONE',  ( 0.0000000000000000000, -1.000000000000000000, 0.0000000000000000000 ) ) ;
#83 = DIRECTION ( 'NONE',  ( 1.000000000000000000, 0.0000000000000000000, 0.0000000000000000000 ) ) ;
#84 = CARTESIAN_POINT ( 'NONE',  ( 101.0000000000000000, 0.0000000000000000000, 360.0000000000000000 ) ) ;
#85 = CARTESIAN_POINT ( 'NONE',  ( -101.6000000000000100, 0.0000000000000000000, 360.0000000000000000 ) ) ;
#86 = CARTESIAN_POINT ( 'NONE',  ( -101.6000000000000100, 0.5999999999999999800, 360.0000000000000000 ) ) ;
#87 = DIRECTION ( 'NONE',  ( 0.0000000000000000000, -1.000000000000000000, 0.0000000000000000000 ) ) ;
#88 = DIRECTION ( 'NONE',  ( -0.0000000000000000000, -0.0000000000000000000, -1.000000000000000000 ) ) ;
#89 = DIRECTION ( 'NONE',  ( 1.000000000000000000, 0.0000000000000000000, 0.0000000000000000000 ) ) ;
#90 = CARTESIAN_POINT ( 'NONE',  ( -101.0000000000000000, -14.00000000000000000, 360.0000000000000000 ) ) ;
#91 = CARTESIAN_POINT ( 'NONE',  ( 101.0000000000000000, 0.0000000000000000000, 360.0000000000000000 ) ) ;
#92 = DIRECTION ( 'NONE',  ( -0.0000000000000000000, -0.0000000000000000000, -1.000000000000000000 ) ) ;
#93 = CARTESIAN_POINT ( 'NONE',  ( 101.0000000000000000, -14.00000000000000000, 360.0000000000000000 ) ) ;
#94 = DIRECTION ( 'NONE',  ( 0.0000000000000000000, 0.0000000000000000000, 1.000000000000000000 ) ) ;
#95 = DIRECTION ( 'NONE',  ( -0.0000000000000000000, -0.0000000000000000000, -1.000000000000000000 ) ) ;
#96 = DIRECTION ( 'NONE',  ( 0.0000000000000000000, 1.000000000000000000, 0.0000000000000000000 ) ) ;
#97 = CARTESIAN_POINT ( 'NONE',  ( 1.734723475976807100E-015, 0.5999999999999999800, 14.99999999999999300 ) ) ;
#98 = CARTESIAN_POINT ( 'NONE',  ( 101.6000000000000100, -14.00000000000000000, 360.0000000000000000 ) ) ;
#99 = DIRECTION ( 'NONE',  ( 1.000000000000000000, 0.0000000000000000000, 0.0000000000000000000 ) ) ;
#100 = CARTESIAN_POINT ( 'NONE',  ( -101.0000000000000000, 0.0000000000000000000, 360.0000000000000000 ) ) ;
#101 = DIRECTION ( 'NONE',  ( -0.0000000000000000000, -1.000000000000000000, 0.0000000000000000000 ) ) ;
#102 = CARTESIAN_POINT ( 'NONE',  ( 101.0000000000000000, 0.0000000000000000000, 0.0000000000000000000 ) ) ;
#103 = DIRECTION ( 'NONE',  ( 1.000000000000000000, 0.0000000000000000000, 0.0000000000000000000 ) ) ;
#104 = DIRECTION ( 'NONE',  ( 0.0000000000000000000, 0.0000000000000000000, 1.000000000000000000 ) ) ;
#105 = CARTESIAN_POINT ( 'NONE',  ( -101.6000000000000100, 0.0000000000000000000, 0.0000000000000000000 ) ) ;
#106 = DIRECTION ( 'NONE',  ( -0.0000000000000000000, -1.000000000000000000, -0.0000000000000000000 ) ) ;
#107 = CARTESIAN_POINT ( 'NONE',  ( 1.734723475976807100E-015, 0.0000000000000000000, 14.99999999999999300 ) ) ;
#108 = DIRECTION ( 'NONE',  ( 0.0000000000000000000, 0.0000000000000000000, 1.000000000000000000 ) ) ;
#109 = DIRECTION ( 'NONE',  ( 0.0000000000000000000, 0.0000000000000000000, -1.000000000000000000 ) ) ;
#110 = DIRECTION ( 'NONE',  ( -0.0000000000000000000, -1.000000000000000000, -0.0000000000000000000 ) ) ;
#111 = DIRECTION ( 'NONE',  ( -0.0000000000000000000, 1.000000000000000000, -0.0000000000000000000 ) ) ;
#112 = CARTESIAN_POINT ( 'NONE',  ( 2.653208575337321500E-015, 0.0000000000000000000, 345.0000000000000600 ) ) ;
#113 = CARTESIAN_POINT ( 'NONE',  ( -101.6000000000000100, 0.5999999999999999800, 360.0000000000000000 ) ) ;
#114 = CARTESIAN_POINT ( 'NONE',  ( 101.6000000000000100, 0.0000000000000000000, 0.0000000000000000000 ) ) ;
#115 = CARTESIAN_POINT ( 'NONE',  ( -101.0000000000000000, 0.0000000000000000000, 0.0000000000000000000 ) ) ;
#116 = CARTESIAN_POINT ( 'NONE',  ( -101.0000000000000000, 0.5999999999999999800, 360.0000000000000000 ) ) ;
#117 = CARTESIAN_POINT ( 'NONE',  ( -101.0000000000000000, 0.5999999999999999800, 0.0000000000000000000 ) ) ;
#118 = CARTESIAN_POINT ( 'NONE',  ( 2.653208575337321500E-015, 0.5999999999999999800, 345.0000000000000600 ) ) ;
#119 = DIRECTION ( 'NONE',  ( -0.0000000000000000000, 1.000000000000000000, -0.0000000000000000000 ) ) ;
#120 = DIRECTION ( 'NONE',  ( -0.0000000000000000000, -0.0000000000000000000, -1.000000000000000000 ) ) ;
#121 = DIRECTION ( 'NONE',  ( -1.000000000000000000, 0.0000000000000000000, 0.0000000000000000000 ) ) ;
#122 = DIRECTION ( 'NONE',  ( -0.0000000000000000000, -0.0000000000000000000, -1.000000000000000000 ) ) ;
#123 = CARTESIAN_POINT ( 'NONE',  ( -101.0000000000000000, 0.0000000000000000000, 360.0000000000000000 ) ) ;
#124 = CARTESIAN_POINT ( 'NONE',  ( 101.6000000000000100, 0.0000000000000000000, 360.0000000000000000 ) ) ;
#125 = DIRECTION ( 'NONE',  ( -0.0000000000000000000, 1.000000000000000000, -0.0000000000000000000 ) ) ;
#126 = DIRECTION ( 'NONE',  ( -0.0000000000000000000, -1.000000000000000000, 0.0000000000000000000 ) ) ;
#127 = CARTESIAN_POINT ( 'NONE',  ( -101.0000000000000000, 0.0000000000000000000, 0.0000000000000000000 ) ) ;
#128 = AXIS2_PLACEMENT_3D ( 'NONE', #40, #35, #34 ) ;
#129 = AXIS2_PLACEMENT_3D ( 'NONE', #43, #52, #39 ) ;
#130 = AXIS2_PLACEMENT_3D ( 'NONE', #56, #45, #44 ) ;
#131 = AXIS2_PLACEMENT_3D ( 'NONE', #62, #50, #48 ) ;
#132 = CC_DESIGN_PERSON_AND_ORGANIZATION_ASSIGNMENT ( #251, #437, ( #148 ) ) ;
#133 = CC_DESIGN_DATE_AND_TIME_ASSIGNMENT ( #242, #436, ( #148 ) ) ;
#134 = CC_DESIGN_APPROVAL ( #139, ( #148 ) ) ;
#135 = AXIS2_PLACEMENT_3D ( 'NONE', #22, #27, #24 ) ;
#136 = CC_DESIGN_PERSON_AND_ORGANIZATION_ASSIGNMENT ( #208, #431, ( #177 ) ) ;
#137 = CC_DESIGN_PERSON_AND_ORGANIZATION_ASSIGNMENT ( #210, #433, ( #191 ) ) ;
#138 = AXIS2_PLACEMENT_3D ( 'NONE', #63, #55, #54 ) ;
#139 = APPROVAL ( #425, 'UNSPECIFIED' ) ;
#140 = AXIS2_PLACEMENT_3D ( 'NONE', #60, #59, #58 ) ;
#141 = AXIS2_PLACEMENT_3D ( 'NONE', #107, #106, #104 ) ;
#142 = AXIS2_PLACEMENT_3D ( 'NONE', #112, #110, #108 ) ;
#143 = AXIS2_PLACEMENT_3D ( 'NONE', #97, #96, #94 ) ;
#144 = AXIS2_PLACEMENT_3D ( 'NONE', #118, #111, #109 ) ;
#145 = EDGE_CURVE ( 'NONE', #367, #378, #303, .T. ) ;
#146 = EDGE_CURVE ( 'NONE', #225, #225, #393, .T. ) ;
#147 = EDGE_CURVE ( 'NONE', #224, #224, #299, .T. ) ;
#148 = PRODUCT_DEFINITION ( 'UNKNOWN', '', #191, #401 ) ;
#149 = AXIS2_PLACEMENT_3D ( 'NONE', #1, #407, #416 ) ;
#150 = EDGE_CURVE ( 'NONE', #366, #380, #301, .T. ) ;
#151 = EDGE_CURVE ( 'NONE', #369, #366, #304, .T. ) ;
#152 = EDGE_CURVE ( 'NONE', #369, #367, #300, .T. ) ;
#153 = EDGE_CURVE ( 'NONE', #368, #366, #296, .T. ) ;
#154 = CC_DESIGN_PERSON_AND_ORGANIZATION_ASSIGNMENT ( #220, #421, ( #193 ) ) ;
#155 = AXIS2_PLACEMENT_3D ( 'NONE', #16, #8, #7 ) ;
#156 = EDGE_CURVE ( 'NONE', #381, #368, #215, .T. ) ;
#157 = EDGE_CURVE ( 'NONE', #381, #369, #295, .T. ) ;
#158 = EDGE_CURVE ( 'NONE', #367, #380, #341, .T. ) ;
#159 = EDGE_CURVE ( 'NONE', #370, #368, #293, .T. ) ;
#160 = EDGE_CURVE ( 'NONE', #371, #370, #291, .T. ) ;
#161 = EDGE_CURVE ( 'NONE', #371, #381, #332, .T. ) ;
#162 = EDGE_CURVE ( 'NONE', #370, #375, #287, .T. ) ;
#163 = EDGE_CURVE ( 'NONE', #377, #375, #285, .T. ) ;
#164 = EDGE_CURVE ( 'NONE', #378, #372, #289, .T. ) ;
#165 = EDGE_CURVE ( 'NONE', #371, #377, #283, .T. ) ;
#166 = EDGE_CURVE ( 'NONE', #223, #223, #281, .T. ) ;
#167 = EDGE_CURVE ( 'NONE', #222, #222, #275, .T. ) ;
#168 = EDGE_CURVE ( 'NONE', #375, #379, #277, .T. ) ;
#169 = EDGE_CURVE ( 'NONE', #380, #374, #276, .T. ) ;
#170 = EDGE_CURVE ( 'NONE', #377, #376, #272, .T. ) ;
#171 = EDGE_CURVE ( 'NONE', #378, #374, #271, .T. ) ;
#172 = EDGE_CURVE ( 'NONE', #372, #373, #269, .T. ) ;
#173 = EDGE_CURVE ( 'NONE', #376, #379, #267, .T. ) ;
#174 = EDGE_CURVE ( 'NONE', #379, #373, #279, .T. ) ;
#175 = EDGE_CURVE ( 'NONE', #376, #372, #263, .T. ) ;
#176 = EDGE_CURVE ( 'NONE', #374, #373, #261, .T. ) ;
#177 = SECURITY_CLASSIFICATION ( '', '', #430 ) ;
#178 = AXIS2_PLACEMENT_3D ( 'NONE', #28, #36, #23 ) ;
#179 =( GEOMETRIC_REPRESENTATION_CONTEXT ( 3 ) GLOBAL_UNCERTAINTY_ASSIGNED_CONTEXT ( ( #195 ) ) GLOBAL_UNIT_ASSIGNED_CONTEXT ( ( #418, #409, #410 ) ) REPRESENTATION_CONTEXT ( 'NONE', 'WORKASPACE' ) );
#180 = AXIS2_PLACEMENT_3D ( 'NONE', #42, #31, #30 ) ;
#181 = AXIS2_PLACEMENT_3D ( 'NONE', #18, #13, #12 ) ;
#182 = AXIS2_PLACEMENT_3D ( 'NONE', #20, #19, #21 ) ;
#183 = CC_DESIGN_APPROVAL ( #184, ( #177 ) ) ;
#184 = APPROVAL ( #429, 'UNSPECIFIED' ) ;
#185 = CC_DESIGN_DATE_AND_TIME_ASSIGNMENT ( #204, #428, ( #177 ) ) ;
#186 = APPROVAL ( #435, 'UNSPECIFIED' ) ;
#187 = CC_DESIGN_APPROVAL ( #186, ( #191 ) ) ;
#188 = CC_DESIGN_PERSON_AND_ORGANIZATION_ASSIGNMENT ( #209, #432, ( #191 ) ) ;
#189 = PRODUCT_RELATED_PRODUCT_CATEGORY ( 'detail', '', ( #193 ) ) ;
#190 = CC_DESIGN_SECURITY_CLASSIFICATION ( #177, ( #191 ) ) ;
#191 = PRODUCT_DEFINITION_FORMATION_WITH_SPECIFIED_SOURCE ( 'ANY', '', #193, .NOT_KNOWN. ) ;
#192 = PERSON ( 'UNSPECIFIED', 'UNSPECIFIED', 'UNSPECIFIED', ('UNSPECIFIED'), ('UNSPECIFIED'), ('UNSPECIFIED') ) ;
#193 = PRODUCT ( 'Êðûøêà íà îòâåòâèòåëü Ò-îáðàçíûé âåðòèêàëüíûé TDSR_38401', 'Êðûøêà íà îòâåòâèòåëü Ò-îáðàçíûé âåðòèêàëüíûé TDSR_38401', '', ( #419 ) ) ;
#194 = MANIFOLD_SOLID_BREP ( 'Âûðåç-Âûòÿíóòü1', #390 ) ;
#195 = UNCERTAINTY_MEASURE_WITH_UNIT (LENGTH_MEASURE( 1.000000000000000100E-005 ), #418, 'distance_accuracy_value', 'NONE');
#196 = ADVANCED_BREP_SHAPE_REPRESENTATION ( '¦¨v°úð ýð þªòõªòøªõû¹ T-þñ¨ð÷ývù òõ¨ªøúðû¹ývù TDSR_38401', ( #194, #149 ), #179 ) ;
#197 = APPROVAL_DATE_TIME ( #198, #184 ) ;
#198 = DATE_AND_TIME ( #199, #200 ) ;
#199 = CALENDAR_DATE ( 2012, 9, 11 ) ;
#200 = LOCAL_TIME ( 12, 44, 27.00000000000000000, #201 ) ;
#201 = COORDINATED_UNIVERSAL_TIME_OFFSET ( 4, 0, .AHEAD. ) ;
#202 = APPROVAL_PERSON_ORGANIZATION ( #203, #184, #427 ) ;
#203 = PERSON_AND_ORGANIZATION ( #192, #221 ) ;
#204 = DATE_AND_TIME ( #205, #206 ) ;
#205 = CALENDAR_DATE ( 2012, 9, 11 ) ;
#206 = LOCAL_TIME ( 12, 44, 27.00000000000000000, #207 ) ;
#207 = COORDINATED_UNIVERSAL_TIME_OFFSET ( 4, 0, .AHEAD. ) ;
#208 = PERSON_AND_ORGANIZATION ( #192, #221 ) ;
#209 = PERSON_AND_ORGANIZATION ( #192, #221 ) ;
#210 = PERSON_AND_ORGANIZATION ( #192, #221 ) ;
#211 = APPROVAL_DATE_TIME ( #213, #186 ) ;
#212 = VECTOR ( 'NONE', #61, 1000.000000000000000 ) ;
#213 = DATE_AND_TIME ( #214, #252 ) ;
#214 = CALENDAR_DATE ( 2012, 9, 11 ) ;
#215 = LINE ( 'NONE', #51, #331 ) ;
#216 = LOCAL_TIME ( 12, 44, 27.00000000000000000, #217 ) ;
#217 = COORDINATED_UNIVERSAL_TIME_OFFSET ( 4, 0, .AHEAD. ) ;
#218 = APPROVAL_PERSON_ORGANIZATION ( #219, #139, #426 ) ;
#219 = PERSON_AND_ORGANIZATION ( #192, #221 ) ;
#220 = PERSON_AND_ORGANIZATION ( #192, #221 ) ;
#221 = ORGANIZATION ( 'UNSPECIFIED', 'UNSPECIFIED', '' ) ;
#222 = VERTEX_POINT ( 'NONE', #15 ) ;
#223 = VERTEX_POINT ( 'NONE', #2 ) ;
#224 = VERTEX_POINT ( 'NONE', #6 ) ;
#225 = VERTEX_POINT ( 'NONE', #4 ) ;
#226 = CYLINDRICAL_SURFACE ( 'NONE', #182, 2.500000000000002200 ) ;
#227 = SHAPE_DEFINITION_REPRESENTATION ( #400, #196 ) ;
#228 = FACE_OUTER_BOUND ( 'NONE', #396, .T. ) ;
#229 = CYLINDRICAL_SURFACE ( 'NONE', #135, 2.500000000000002200 ) ;
#230 = FACE_OUTER_BOUND ( 'NONE', #382, .T. ) ;
#231 = FACE_OUTER_BOUND ( 'NONE', #333, .T. ) ;
#232 = FACE_OUTER_BOUND ( 'NONE', #397, .T. ) ;
#233 = FACE_BOUND ( 'NONE', #387, .T. ) ;
#234 = FACE_OUTER_BOUND ( 'NONE', #392, .T. ) ;
#235 = FACE_OUTER_BOUND ( 'NONE', #399, .T. ) ;
#236 = FACE_BOUND ( 'NONE', #385, .T. ) ;
#237 = FACE_OUTER_BOUND ( 'NONE', #384, .T. ) ;
#238 = DATE_AND_TIME ( #239, #216 ) ;
#239 = CALENDAR_DATE ( 2012, 9, 11 ) ;
#240 = LOCAL_TIME ( 12, 44, 27.00000000000000000, #246 ) ;
#241 = CALENDAR_DATE ( 2012, 9, 11 ) ;
#242 = DATE_AND_TIME ( #241, #240 ) ;
#243 = PERSON_AND_ORGANIZATION ( #192, #221 ) ;
#244 = APPROVAL_PERSON_ORGANIZATION ( #243, #186, #434 ) ;
#245 = COORDINATED_UNIVERSAL_TIME_OFFSET ( 4, 0, .AHEAD. ) ;
#246 = COORDINATED_UNIVERSAL_TIME_OFFSET ( 4, 0, .AHEAD. ) ;
#247 = APPROVAL_DATE_TIME ( #238, #139 ) ;
#248 = FACE_BOUND ( 'NONE', #391, .T. ) ;
#249 = FACE_OUTER_BOUND ( 'NONE', #395, .T. ) ;
#250 = FACE_OUTER_BOUND ( 'NONE', #394, .T. ) ;
#251 = PERSON_AND_ORGANIZATION ( #192, #221 ) ;
#252 = LOCAL_TIME ( 12, 44, 27.00000000000000000, #245 ) ;
#253 = FACE_OUTER_BOUND ( 'NONE', #386, .T. ) ;
#254 = VECTOR ( 'NONE', #83, 1000.000000000000000 ) ;
#255 = FACE_OUTER_BOUND ( 'NONE', #337, .T. ) ;
#256 = FACE_OUTER_BOUND ( 'NONE', #383, .T. ) ;
#257 = FACE_OUTER_BOUND ( 'NONE', #388, .T. ) ;
#258 = VECTOR ( 'NONE', #78, 1000.000000000000000 ) ;
#259 = FACE_OUTER_BOUND ( 'NONE', #398, .T. ) ;
#260 = VECTOR ( 'NONE', #82, 1000.000000000000000 ) ;
#261 = LINE ( 'NONE', #80, #258 ) ;
#262 = VECTOR ( 'NONE', #87, 1000.000000000000000 ) ;
#263 = LINE ( 'NONE', #84, #260 ) ;
#264 = VECTOR ( 'NONE', #88, 1000.000000000000000 ) ;
#265 = FACE_BOUND ( 'NONE', #389, .T. ) ;
#266 = VECTOR ( 'NONE', #92, 1000.000000000000000 ) ;
#267 = LINE ( 'NONE', #91, #264 ) ;
#268 = VECTOR ( 'NONE', #95, 1000.000000000000000 ) ;
#269 = LINE ( 'NONE', #93, #266 ) ;
#270 = VECTOR ( 'NONE', #99, 1000.000000000000000 ) ;
#271 = LINE ( 'NONE', #98, #268 ) ;
#272 = LINE ( 'NONE', #100, #270 ) ;
#273 = VECTOR ( 'NONE', #103, 1000.000000000000000 ) ;
#274 = VECTOR ( 'NONE', #101, 1000.000000000000000 ) ;
#275 = CIRCLE ( 'NONE', #141, 2.500000000000002200 ) ;
#276 = LINE ( 'NONE', #114, #274 ) ;
#277 = LINE ( 'NONE', #115, #273 ) ;
#278 = VECTOR ( 'NONE', #119, 1000.000000000000000 ) ;
#279 = LINE ( 'NONE', #102, #262 ) ;
#280 = VECTOR ( 'NONE', #121, 1000.000000000000000 ) ;
#281 = CIRCLE ( 'NONE', #142, 2.500000000000002200 ) ;
#282 = VECTOR ( 'NONE', #122, 1000.000000000000000 ) ;
#283 = LINE ( 'NONE', #9, #278 ) ;
#284 = VECTOR ( 'NONE', #125, 1000.000000000000000 ) ;
#285 = LINE ( 'NONE', #123, #282 ) ;
#286 = VECTOR ( 'NONE', #3, 1000.000000000000000 ) ;
#287 = LINE ( 'NONE', #127, #284 ) ;
#288 = VECTOR ( 'NONE', #5, 1000.000000000000000 ) ;
#289 = LINE ( 'NONE', #49, #280 ) ;
#290 = VECTOR ( 'NONE', #14, 1000.000000000000000 ) ;
#291 = LINE ( 'NONE', #10, #288 ) ;
#292 = VECTOR ( 'NONE', #29, 1000.000000000000000 ) ;
#293 = LINE ( 'NONE', #26, #290 ) ;
#294 = VECTOR ( 'NONE', #38, 1000.000000000000000 ) ;
#295 = LINE ( 'NONE', #85, #294 ) ;
#296 = LINE ( 'NONE', #105, #212 ) ;
#297 = VECTOR ( 'NONE', #89, 1000.000000000000000 ) ;
#298 = VECTOR ( 'NONE', #120, 1000.000000000000000 ) ;
#299 = CIRCLE ( 'NONE', #143, 2.500000000000002200 ) ;
#300 = LINE ( 'NONE', #116, #254 ) ;
#301 = LINE ( 'NONE', #117, #297 ) ;
#302 = VECTOR ( 'NONE', #126, 1000.000000000000000 ) ;
#303 = LINE ( 'NONE', #124, #302 ) ;
#304 = LINE ( 'NONE', #86, #298 ) ;
#305 = ORIENTED_EDGE ( 'NONE', *, *, #153, .F. ) ;
#306 = ORIENTED_EDGE ( 'NONE', *, *, #159, .F. ) ;
#307 = ORIENTED_EDGE ( 'NONE', *, *, #157, .T. ) ;
#308 = ORIENTED_EDGE ( 'NONE', *, *, #160, .F. ) ;
#309 = ORIENTED_EDGE ( 'NONE', *, *, #162, .F. ) ;
#310 = ORIENTED_EDGE ( 'NONE', *, *, #161, .T. ) ;
#311 = ORIENTED_EDGE ( 'NONE', *, *, #170, .F. ) ;
#312 = ORIENTED_EDGE ( 'NONE', *, *, #152, .F. ) ;
#313 = ORIENTED_EDGE ( 'NONE', *, *, #175, .T. ) ;
#314 = ORIENTED_EDGE ( 'NONE', *, *, #145, .F. ) ;
#315 = ORIENTED_EDGE ( 'NONE', *, *, #174, .F. ) ;
#316 = ORIENTED_EDGE ( 'NONE', *, *, #159, .T. ) ;
#317 = ORIENTED_EDGE ( 'NONE', *, *, #146, .T. ) ;
#318 = ORIENTED_EDGE ( 'NONE', *, *, #168, .F. ) ;
#319 = ORIENTED_EDGE ( 'NONE', *, *, #153, .T. ) ;
#320 = ORIENTED_EDGE ( 'NONE', *, *, #167, .T. ) ;
#321 = ORIENTED_EDGE ( 'NONE', *, *, #161, .F. ) ;
#322 = ORIENTED_EDGE ( 'NONE', *, *, #176, .T. ) ;
#323 = ORIENTED_EDGE ( 'NONE', *, *, #156, .T. ) ;
#324 = ORIENTED_EDGE ( 'NONE', *, *, #151, .T. ) ;
#325 = ORIENTED_EDGE ( 'NONE', *, *, #166, .T. ) ;
#326 = ORIENTED_EDGE ( 'NONE', *, *, #147, .T. ) ;
#327 = ORIENTED_EDGE ( 'NONE', *, *, #150, .T. ) ;
#328 = ORIENTED_EDGE ( 'NONE', *, *, #174, .T. ) ;
#329 = ORIENTED_EDGE ( 'NONE', *, *, #157, .F. ) ;
#330 = ORIENTED_EDGE ( 'NONE', *, *, #175, .F. ) ;
#331 = VECTOR ( 'NONE', #47, 1000.000000000000000 ) ;
#332 = LINE ( 'NONE', #81, #286 ) ;
#333 = EDGE_LOOP ( 'NONE', ( #320 ) ) ;
#334 = ORIENTED_EDGE ( 'NONE', *, *, #165, .T. ) ;
#335 = ORIENTED_EDGE ( 'NONE', *, *, #170, .T. ) ;
#336 = ORIENTED_EDGE ( 'NONE', *, *, #163, .T. ) ;
#337 = EDGE_LOOP ( 'NONE', ( #346, #347, #348, #350 ) ) ;
#338 = ORIENTED_EDGE ( 'NONE', *, *, #172, .F. ) ;
#339 = ORIENTED_EDGE ( 'NONE', *, *, #173, .T. ) ;
#340 = ORIENTED_EDGE ( 'NONE', *, *, #176, .F. ) ;
#341 = LINE ( 'NONE', #33, #292 ) ;
#342 = ORIENTED_EDGE ( 'NONE', *, *, #156, .F. ) ;
#343 = ORIENTED_EDGE ( 'NONE', *, *, #171, .F. ) ;
#344 = ORIENTED_EDGE ( 'NONE', *, *, #164, .T. ) ;
#345 = ORIENTED_EDGE ( 'NONE', *, *, #172, .T. ) ;
#346 = ORIENTED_EDGE ( 'NONE', *, *, #169, .F. ) ;
#347 = ORIENTED_EDGE ( 'NONE', *, *, #158, .F. ) ;
#348 = ORIENTED_EDGE ( 'NONE', *, *, #145, .T. ) ;
#349 = ORIENTED_EDGE ( 'NONE', *, *, #169, .T. ) ;
#350 = ORIENTED_EDGE ( 'NONE', *, *, #171, .T. ) ;
#351 = ORIENTED_EDGE ( 'NONE', *, *, #146, .F. ) ;
#352 = ORIENTED_EDGE ( 'NONE', *, *, #147, .F. ) ;
#353 = ORIENTED_EDGE ( 'NONE', *, *, #150, .F. ) ;
#354 = ORIENTED_EDGE ( 'NONE', *, *, #162, .T. ) ;
#355 = ORIENTED_EDGE ( 'NONE', *, *, #151, .F. ) ;
#356 = ORIENTED_EDGE ( 'NONE', *, *, #163, .F. ) ;
#357 = ORIENTED_EDGE ( 'NONE', *, *, #165, .F. ) ;
#358 = ORIENTED_EDGE ( 'NONE', *, *, #160, .T. ) ;
#359 = ORIENTED_EDGE ( 'NONE', *, *, #166, .F. ) ;
#360 = ORIENTED_EDGE ( 'NONE', *, *, #167, .F. ) ;
#361 = ORIENTED_EDGE ( 'NONE', *, *, #168, .T. ) ;
#362 = ORIENTED_EDGE ( 'NONE', *, *, #152, .T. ) ;
#363 = ORIENTED_EDGE ( 'NONE', *, *, #164, .F. ) ;
#364 = ORIENTED_EDGE ( 'NONE', *, *, #173, .F. ) ;
#365 = ORIENTED_EDGE ( 'NONE', *, *, #158, .T. ) ;
#366 = VERTEX_POINT ( 'NONE', #76 ) ;
#367 = VERTEX_POINT ( 'NONE', #77 ) ;
#368 = VERTEX_POINT ( 'NONE', #75 ) ;
#369 = VERTEX_POINT ( 'NONE', #113 ) ;
#370 = VERTEX_POINT ( 'NONE', #74 ) ;
#371 = VERTEX_POINT ( 'NONE', #90 ) ;
#372 = VERTEX_POINT ( 'NONE', #73 ) ;
#373 = VERTEX_POINT ( 'NONE', #79 ) ;
#374 = VERTEX_POINT ( 'NONE', #72 ) ;
#375 = VERTEX_POINT ( 'NONE', #71 ) ;
#376 = VERTEX_POINT ( 'NONE', #70 ) ;
#377 = VERTEX_POINT ( 'NONE', #69 ) ;
#378 = VERTEX_POINT ( 'NONE', #68 ) ;
#379 = VERTEX_POINT ( 'NONE', #67 ) ;
#380 = VERTEX_POINT ( 'NONE', #66 ) ;
#381 = VERTEX_POINT ( 'NONE', #65 ) ;
#382 = EDGE_LOOP ( 'NONE', ( #328, #338, #330, #339 ) ) ;
#383 = EDGE_LOOP ( 'NONE', ( #305, #342, #307, #324 ) ) ;
#384 = EDGE_LOOP ( 'NONE', ( #313, #363, #314, #312, #329, #321, #334, #335 ) ) ;
#385 = EDGE_LOOP ( 'NONE', ( #351 ) ) ;
#386 = EDGE_LOOP ( 'NONE', ( #340, #343, #344, #345 ) ) ;
#387 = EDGE_LOOP ( 'NONE', ( #352 ) ) ;
#388 = EDGE_LOOP ( 'NONE', ( #354, #356, #357, #358 ) ) ;
#389 = EDGE_LOOP ( 'NONE', ( #359 ) ) ;
#390 = CLOSED_SHELL ( 'NONE', ( #420, #411, #404, #412, #405, #422, #403, #406, #408, #402, #415, #417 ) ) ;
#391 = EDGE_LOOP ( 'NONE', ( #360 ) ) ;
#392 = EDGE_LOOP ( 'NONE', ( #326 ) ) ;
#393 = CIRCLE ( 'NONE', #144, 2.500000000000002200 ) ;
#394 = EDGE_LOOP ( 'NONE', ( #315, #318, #309, #316, #319, #327, #349, #322 ) ) ;
#395 = EDGE_LOOP ( 'NONE', ( #306, #308, #310, #323 ) ) ;
#396 = EDGE_LOOP ( 'NONE', ( #325 ) ) ;
#397 = EDGE_LOOP ( 'NONE', ( #317 ) ) ;
#398 = EDGE_LOOP ( 'NONE', ( #361, #364, #311, #336 ) ) ;
#399 = EDGE_LOOP ( 'NONE', ( #353, #355, #362, #365 ) ) ;
#400 = PRODUCT_DEFINITION_SHAPE ( 'NONE', 'NONE',  #148 ) ;
#401 = DESIGN_CONTEXT ( 'detailed design', #423, 'design' ) ;
#402 = ADVANCED_FACE ( 'NONE', ( #250 ), #64, .T. ) ;
#403 = ADVANCED_FACE ( 'NONE', ( #257 ), #57, .F. ) ;
#404 = ADVANCED_FACE ( 'NONE', ( #255 ), #53, .T. ) ;
#405 = ADVANCED_FACE ( 'NONE', ( #256 ), #46, .T. ) ;
#406 = ADVANCED_FACE ( 'NONE', ( #265, #248, #259 ), #41, .F. ) ;
#407 = DIRECTION ( 'NONE',  ( 0.0000000000000000000, 0.0000000000000000000, 1.000000000000000000 ) ) ;
#408 = ADVANCED_FACE ( 'NONE', ( #237 ), #37, .F. ) ;
#409 =( NAMED_UNIT ( * ) PLANE_ANGLE_UNIT ( ) SI_UNIT ( $, .RADIAN. ) );
#410 =( NAMED_UNIT ( * ) SI_UNIT ( $, .STERADIAN. ) SOLID_ANGLE_UNIT ( ) );
#411 = ADVANCED_FACE ( 'NONE', ( #253 ), #32, .T. ) ;
#412 = ADVANCED_FACE ( 'NONE', ( #236, #233, #235 ), #25, .T. ) ;
#413 = APPLICATION_CONTEXT ( 'configuration controlled 3d designs of mechanical parts and assemblies' ) ;
#414 = APPLICATION_PROTOCOL_DEFINITION ( 'international standard', 'config_control_design', 1994, #413 ) ;
#415 = ADVANCED_FACE ( 'NONE', ( #234, #231 ), #229, .F. ) ;
#416 = DIRECTION ( 'NONE',  ( 1.000000000000000000, 0.0000000000000000000, 0.0000000000000000000 ) ) ;
#417 = ADVANCED_FACE ( 'NONE', ( #232, #228 ), #226, .F. ) ;
#418 =( LENGTH_UNIT ( ) NAMED_UNIT ( * ) SI_UNIT ( .MILLI., .METRE. ) );
#419 = MECHANICAL_CONTEXT ( 'NONE', #413, 'mechanical' ) ;
#420 = ADVANCED_FACE ( 'NONE', ( #230 ), #17, .F. ) ;
#421 = PERSON_AND_ORGANIZATION_ROLE ( 'design_owner' ) ;
#422 = ADVANCED_FACE ( 'NONE', ( #249 ), #11, .T. ) ;
#423 = APPLICATION_CONTEXT ( 'configuration controlled 3d designs of mechanical parts and assemblies' ) ;
#424 = APPLICATION_PROTOCOL_DEFINITION ( 'international standard', 'config_control_design', 1994, #423 ) ;
#425 = APPROVAL_STATUS ( 'not_yet_approved' ) ;
#426 = APPROVAL_ROLE ( '' ) ;
#427 = APPROVAL_ROLE ( '' ) ;
#428 = DATE_TIME_ROLE ( 'classification_date' ) ;
#429 = APPROVAL_STATUS ( 'not_yet_approved' ) ;
#430 = SECURITY_CLASSIFICATION_LEVEL ( 'unclassified' ) ;
#431 = PERSON_AND_ORGANIZATION_ROLE ( 'classification_officer' ) ;
#432 = PERSON_AND_ORGANIZATION_ROLE ( 'design_supplier' ) ;
#433 = PERSON_AND_ORGANIZATION_ROLE ( 'creator' ) ;
#434 = APPROVAL_ROLE ( '' ) ;
#435 = APPROVAL_STATUS ( 'not_yet_approved' ) ;
#436 = DATE_TIME_ROLE ( 'creation_date' ) ;
#437 = PERSON_AND_ORGANIZATION_ROLE ( 'creator' ) ;
ENDSEC;
END-ISO-10303-21;
