ISO-10303-21;
HEADER;
FILE_DESCRIPTION (( 'STEP AP203' ),
    '1' );
FILE_NAME ('Êðûøêà íà óãîë âåðòèêàëüíûé âíåøíèé CDV 90_38342.STEP',
    '2012-11-09T08:45:08',
    ( 'Àñååâ' ),
    ( '' ),
    'SwSTEP 2.0',
    'SolidWorks 2012',
    '' );
FILE_SCHEMA (( 'CONFIG_CONTROL_DESIGN' ));
ENDSEC;

DATA;
#1 = CARTESIAN_POINT ( 'NONE',  ( 76.79999999999999700, -14.00000000000000000, 210.0000000000000000 ) ) ;
#2 = APPLICATION_CONTEXT ( 'configuration controlled 3d designs of mechanical parts and assemblies' ) ;
#3 = APPLICATION_PROTOCOL_DEFINITION ( 'international standard', 'config_control_design', 1994, #2 ) ;
#4 =( NAMED_UNIT ( * ) SI_UNIT ( $, .STERADIAN. ) SOLID_ANGLE_UNIT ( ) );
#5 =( NAMED_UNIT ( * ) PLANE_ANGLE_UNIT ( ) SI_UNIT ( $, .RADIAN. ) );
#6 = DIRECTION ( 'NONE',  ( 1.000000000000000000, 0.0000000000000000000, 0.0000000000000000000 ) ) ;
#7 =( LENGTH_UNIT ( ) NAMED_UNIT ( * ) SI_UNIT ( .MILLI., .METRE. ) );
#8 = DIRECTION ( 'NONE',  ( 0.0000000000000000000, 0.0000000000000000000, 1.000000000000000000 ) ) ;
#9 = CARTESIAN_POINT ( 'NONE',  ( 1.734723475976807100E-015, 0.0000000000000000000, 17.49999999999999600 ) ) ;
#10 = CARTESIAN_POINT ( 'NONE',  ( 0.0000000000000000000, 0.0000000000000000000, 0.0000000000000000000 ) ) ;
#11 = CARTESIAN_POINT ( 'NONE',  ( 1.734723475976807100E-015, 0.8000000000000000400, 192.4999999999999700 ) ) ;
#12 = CARTESIAN_POINT ( 'NONE',  ( 1.734723475976807100E-015, 0.0000000000000000000, 197.4999999999999700 ) ) ;
#13 = CARTESIAN_POINT ( 'NONE',  ( 1.734723475976807100E-015, 0.8000000000000000400, 17.49999999999999600 ) ) ;
#14 = CARTESIAN_POINT ( 'NONE',  ( 76.79999999999999700, 0.8000000000000000400, 210.0000000000000000 ) ) ;
#15 = CARTESIAN_POINT ( 'NONE',  ( -76.79999999999999700, -14.00000000000000000, 210.0000000000000000 ) ) ;
#16 = CARTESIAN_POINT ( 'NONE',  ( 76.00000000000000000, -14.00000000000000000, 210.0000000000000000 ) ) ;
#17 = CARTESIAN_POINT ( 'NONE',  ( -76.79999999999999700, -14.00000000000000000, 0.0000000000000000000 ) ) ;
#18 = CARTESIAN_POINT ( 'NONE',  ( 76.00000000000000000, 0.0000000000000000000, 210.0000000000000000 ) ) ;
#19 = CARTESIAN_POINT ( 'NONE',  ( 76.79999999999999700, -14.00000000000000000, 0.0000000000000000000 ) ) ;
#20 = CARTESIAN_POINT ( 'NONE',  ( -76.00000000000000000, -14.00000000000000000, 0.0000000000000000000 ) ) ;
#21 = CARTESIAN_POINT ( 'NONE',  ( -76.79999999999999700, 0.8000000000000000400, 210.0000000000000000 ) ) ;
#22 = CARTESIAN_POINT ( 'NONE',  ( 76.79999999999999700, 0.8000000000000000400, 0.0000000000000000000 ) ) ;
#23 = CARTESIAN_POINT ( 'NONE',  ( 76.79999999999999700, -14.00000000000000000, 210.0000000000000000 ) ) ;
#24 = CARTESIAN_POINT ( 'NONE',  ( -76.00000000000000000, 0.0000000000000000000, 210.0000000000000000 ) ) ;
#25 = CARTESIAN_POINT ( 'NONE',  ( 76.00000000000000000, 0.0000000000000000000, 0.0000000000000000000 ) ) ;
#26 = CARTESIAN_POINT ( 'NONE',  ( -76.00000000000000000, -14.00000000000000000, 210.0000000000000000 ) ) ;
#27 = CARTESIAN_POINT ( 'NONE',  ( 76.00000000000000000, -14.00000000000000000, 0.0000000000000000000 ) ) ;
#28 = CARTESIAN_POINT ( 'NONE',  ( 76.00000000000000000, 0.0000000000000000000, 210.0000000000000000 ) ) ;
#29 = CARTESIAN_POINT ( 'NONE',  ( 76.79999999999999700, -14.00000000000000000, 0.0000000000000000000 ) ) ;
#30 = DIRECTION ( 'NONE',  ( 0.0000000000000000000, -1.000000000000000000, 0.0000000000000000000 ) ) ;
#31 = DIRECTION ( 'NONE',  ( 0.0000000000000000000, -1.000000000000000000, 0.0000000000000000000 ) ) ;
#32 = DIRECTION ( 'NONE',  ( -0.0000000000000000000, -0.0000000000000000000, -1.000000000000000000 ) ) ;
#33 = CARTESIAN_POINT ( 'NONE',  ( -76.00000000000000000, 0.0000000000000000000, 0.0000000000000000000 ) ) ;
#34 = CARTESIAN_POINT ( 'NONE',  ( 76.00000000000000000, 0.0000000000000000000, 210.0000000000000000 ) ) ;
#35 = DIRECTION ( 'NONE',  ( -1.000000000000000000, 0.0000000000000000000, 0.0000000000000000000 ) ) ;
#36 = DIRECTION ( 'NONE',  ( -0.0000000000000000000, -1.000000000000000000, -0.0000000000000000000 ) ) ;
#37 = APPROVAL_ROLE ( '' ) ;
#38 = APPROVAL_STATUS ( 'not_yet_approved' ) ;
#39 = DATE_TIME_ROLE ( 'classification_date' ) ;
#40 = CARTESIAN_POINT ( 'NONE',  ( 1.734723475976807100E-015, 0.0000000000000000000, 14.99999999999999300 ) ) ;
#41 = PERSON_AND_ORGANIZATION_ROLE ( 'classification_officer' ) ;
#42 = DIRECTION ( 'NONE',  ( -0.0000000000000000000, -1.000000000000000000, -0.0000000000000000000 ) ) ;
#43 = SECURITY_CLASSIFICATION_LEVEL ( 'unclassified' ) ;
#44 = PERSON_AND_ORGANIZATION_ROLE ( 'design_supplier' ) ;
#45 = PERSON_AND_ORGANIZATION_ROLE ( 'creator' ) ;
#46 = APPROVAL_ROLE ( '' ) ;
#47 = DIRECTION ( 'NONE',  ( 0.0000000000000000000, 0.0000000000000000000, 1.000000000000000000 ) ) ;
#48 = DIRECTION ( 'NONE',  ( 1.000000000000000000, 0.0000000000000000000, 0.0000000000000000000 ) ) ;
#49 = CARTESIAN_POINT ( 'NONE',  ( 76.00000000000000000, 0.0000000000000000000, 0.0000000000000000000 ) ) ;
#50 = DIRECTION ( 'NONE',  ( 1.000000000000000000, 0.0000000000000000000, 0.0000000000000000000 ) ) ;
#51 = APPROVAL_STATUS ( 'not_yet_approved' ) ;
#52 = DIRECTION ( 'NONE',  ( -0.0000000000000000000, -0.0000000000000000000, -1.000000000000000000 ) ) ;
#53 = DATE_TIME_ROLE ( 'creation_date' ) ;
#54 = PERSON_AND_ORGANIZATION_ROLE ( 'creator' ) ;
#55 = APPROVAL_ROLE ( '' ) ;
#56 = MECHANICAL_CONTEXT ( 'NONE', #2, 'mechanical' ) ;
#57 = APPROVAL_STATUS ( 'not_yet_approved' ) ;
#58 = DIRECTION ( 'NONE',  ( 0.0000000000000000000, 0.0000000000000000000, 1.000000000000000000 ) ) ;
#59 = APPLICATION_PROTOCOL_DEFINITION ( 'international standard', 'config_control_design', 1994, #60 ) ;
#60 = APPLICATION_CONTEXT ( 'configuration controlled 3d designs of mechanical parts and assemblies' ) ;
#61 = PERSON_AND_ORGANIZATION_ROLE ( 'design_owner' ) ;
#62 = ORIENTED_EDGE ( 'NONE', *, *, #241, .T. ) ;
#63 = ORIENTED_EDGE ( 'NONE', *, *, #234, .T. ) ;
#64 = CLOSED_SHELL ( 'NONE', ( #97, #98, #101, #95, #96, #100, #93, #99, #94, #92, #91, #90 ) ) ;
#65 = ORIENTED_EDGE ( 'NONE', *, *, #228, .T. ) ;
#66 = ORIENTED_EDGE ( 'NONE', *, *, #236, .T. ) ;
#67 = ORIENTED_EDGE ( 'NONE', *, *, #213, .F. ) ;
#68 = ORIENTED_EDGE ( 'NONE', *, *, #209, .T. ) ;
#69 = ORIENTED_EDGE ( 'NONE', *, *, #227, .F. ) ;
#70 = ORIENTED_EDGE ( 'NONE', *, *, #216, .T. ) ;
#71 = ORIENTED_EDGE ( 'NONE', *, *, #213, .T. ) ;
#72 = ORIENTED_EDGE ( 'NONE', *, *, #214, .T. ) ;
#73 = ORIENTED_EDGE ( 'NONE', *, *, #243, .T. ) ;
#74 = ORIENTED_EDGE ( 'NONE', *, *, #215, .F. ) ;
#75 = FACE_OUTER_BOUND ( 'NONE', #331, .T. ) ;
#76 = ORIENTED_EDGE ( 'NONE', *, *, #205, .F. ) ;
#77 = ORIENTED_EDGE ( 'NONE', *, *, #241, .F. ) ;
#78 = ORIENTED_EDGE ( 'NONE', *, *, #209, .F. ) ;
#79 = ORIENTED_EDGE ( 'NONE', *, *, #239, .F. ) ;
#80 = ORIENTED_EDGE ( 'NONE', *, *, #218, .F. ) ;
#81 = ORIENTED_EDGE ( 'NONE', *, *, #205, .T. ) ;
#82 = ORIENTED_EDGE ( 'NONE', *, *, #229, .F. ) ;
#83 = FACE_OUTER_BOUND ( 'NONE', #334, .T. ) ;
#84 = ORIENTED_EDGE ( 'NONE', *, *, #210, .T. ) ;
#85 = PRODUCT ( 'Êðûøêà íà óãîë âåðòèêàëüíûé âíåøíèé CDV 90_38342', 'Êðûøêà íà óãîë âåðòèêàëüíûé âíåøíèé CDV 90_38342', '', ( #56 ) ) ;
#86 = PERSON ( 'UNSPECIFIED', 'UNSPECIFIED', 'UNSPECIFIED', ('UNSPECIFIED'), ('UNSPECIFIED'), ('UNSPECIFIED') ) ;
#87 = ADVANCED_BREP_SHAPE_REPRESENTATION ( '¦¨v°úð ýð ºóþû òõ¨ªøúðû¹ývù òýõ°ýøù CDV 90_38342', ( #88, #254 ), #102 ) ;
#88 = MANIFOLD_SOLID_BREP ( 'Âûðåç-Âûòÿíóòü1', #64 ) ;
#89 = UNCERTAINTY_MEASURE_WITH_UNIT (LENGTH_MEASURE( 1.000000000000000100E-005 ), #7, 'distance_accuracy_value', 'NONE');
#90 = ADVANCED_FACE ( 'NONE', ( #83, #75 ), #416, .F. ) ;
#91 = ADVANCED_FACE ( 'NONE', ( #347, #358 ), #355, .F. ) ;
#92 = ADVANCED_FACE ( 'NONE', ( #359 ), #113, .T. ) ;
#93 = ADVANCED_FACE ( 'NONE', ( #346 ), #184, .F. ) ;
#94 = ADVANCED_FACE ( 'NONE', ( #256 ), #121, .F. ) ;
#95 = ADVANCED_FACE ( 'NONE', ( #357, #350, #348 ), #141, .T. ) ;
#96 = ADVANCED_FACE ( 'NONE', ( #349 ), #201, .T. ) ;
#97 = ADVANCED_FACE ( 'NONE', ( #354 ), #111, .F. ) ;
#98 = ADVANCED_FACE ( 'NONE', ( #261 ), #159, .T. ) ;
#99 = ADVANCED_FACE ( 'NONE', ( #356, #361, #277 ), #164, .F. ) ;
#100 = ADVANCED_FACE ( 'NONE', ( #272 ), #167, .T. ) ;
#101 = ADVANCED_FACE ( 'NONE', ( #368 ), #172, .T. ) ;
#102 =( GEOMETRIC_REPRESENTATION_CONTEXT ( 3 ) GLOBAL_UNCERTAINTY_ASSIGNED_CONTEXT ( ( #89 ) ) GLOBAL_UNIT_ASSIGNED_CONTEXT ( ( #7, #5, #4 ) ) REPRESENTATION_CONTEXT ( 'NONE', 'WORKASPACE' ) );
#103 = AXIS2_PLACEMENT_3D ( 'NONE', #127, #198, #133 ) ;
#104 = AXIS2_PLACEMENT_3D ( 'NONE', #112, #187, #125 ) ;
#105 = AXIS2_PLACEMENT_3D ( 'NONE', #118, #117, #116 ) ;
#106 = AXIS2_PLACEMENT_3D ( 'NONE', #200, #130, #122 ) ;
#107 = AXIS2_PLACEMENT_3D ( 'NONE', #192, #126, #131 ) ;
#108 = AXIS2_PLACEMENT_3D ( 'NONE', #195, #183, #190 ) ;
#109 = AXIS2_PLACEMENT_3D ( 'NONE', #196, #193, #194 ) ;
#110 = CC_DESIGN_PERSON_AND_ORGANIZATION_ASSIGNMENT ( #405, #54, ( #248 ) ) ;
#111 = PLANE ( 'NONE',  #211 ) ;
#112 = CARTESIAN_POINT ( 'NONE',  ( -76.00000000000000000, 0.8000000000000000400, 210.0000000000000000 ) ) ;
#113 = PLANE ( 'NONE',  #107 ) ;
#114 = CARTESIAN_POINT ( 'NONE',  ( -76.00000000000000000, 0.0000000000000000000, 0.0000000000000000000 ) ) ;
#115 = CARTESIAN_POINT ( 'NONE',  ( 76.00000000000000000, 0.0000000000000000000, 210.0000000000000000 ) ) ;
#116 = DIRECTION ( 'NONE',  ( -1.000000000000000000, 0.0000000000000000000, 0.0000000000000000000 ) ) ;
#117 = DIRECTION ( 'NONE',  ( -0.0000000000000000000, 0.0000000000000000000, -1.000000000000000000 ) ) ;
#118 = CARTESIAN_POINT ( 'NONE',  ( 0.0000000000000000000, 0.0000000000000000000, 210.0000000000000000 ) ) ;
#119 = DIRECTION ( 'NONE',  ( -0.0000000000000000000, 0.0000000000000000000, -1.000000000000000000 ) ) ;
#120 = CARTESIAN_POINT ( 'NONE',  ( 76.79999999999999700, 0.0000000000000000000, 0.0000000000000000000 ) ) ;
#121 = PLANE ( 'NONE',  #105 ) ;
#122 = DIRECTION ( 'NONE',  ( 0.0000000000000000000, 0.0000000000000000000, 1.000000000000000000 ) ) ;
#123 = CARTESIAN_POINT ( 'NONE',  ( 1.734723475976807100E-015, 0.0000000000000000000, 194.9999999999999700 ) ) ;
#124 = CARTESIAN_POINT ( 'NONE',  ( 76.00000000000000000, -14.00000000000000000, 210.0000000000000000 ) ) ;
#125 = DIRECTION ( 'NONE',  ( 0.0000000000000000000, -0.0000000000000000000, 1.000000000000000000 ) ) ;
#126 = DIRECTION ( 'NONE',  ( -0.0000000000000000000, 0.0000000000000000000, -1.000000000000000000 ) ) ;
#127 = CARTESIAN_POINT ( 'NONE',  ( -76.79999999999999700, 0.0000000000000000000, 210.0000000000000000 ) ) ;
#128 = DIRECTION ( 'NONE',  ( -1.000000000000000000, 0.0000000000000000000, 0.0000000000000000000 ) ) ;
#129 = DIRECTION ( 'NONE',  ( 1.000000000000000000, 0.0000000000000000000, 0.0000000000000000000 ) ) ;
#130 = DIRECTION ( 'NONE',  ( -1.000000000000000000, 0.0000000000000000000, 0.0000000000000000000 ) ) ;
#131 = DIRECTION ( 'NONE',  ( -1.000000000000000000, 0.0000000000000000000, 0.0000000000000000000 ) ) ;
#132 = CARTESIAN_POINT ( 'NONE',  ( -76.00000000000000000, -14.00000000000000000, 0.0000000000000000000 ) ) ;
#133 = DIRECTION ( 'NONE',  ( 0.0000000000000000000, 0.0000000000000000000, 1.000000000000000000 ) ) ;
#134 = DIRECTION ( 'NONE',  ( -1.000000000000000000, 0.0000000000000000000, 0.0000000000000000000 ) ) ;
#135 = CARTESIAN_POINT ( 'NONE',  ( -76.00000000000000000, 0.8000000000000000400, 210.0000000000000000 ) ) ;
#136 = PRODUCT_RELATED_PRODUCT_CATEGORY ( 'detail', '', ( #85 ) ) ;
#137 = CARTESIAN_POINT ( 'NONE',  ( 76.79999999999999700, 0.0000000000000000000, 210.0000000000000000 ) ) ;
#138 = CARTESIAN_POINT ( 'NONE',  ( -76.00000000000000000, 0.0000000000000000000, 210.0000000000000000 ) ) ;
#139 = CARTESIAN_POINT ( 'NONE',  ( -76.79999999999999700, -14.00000000000000000, 210.0000000000000000 ) ) ;
#140 = CARTESIAN_POINT ( 'NONE',  ( -76.00000000000000000, -14.00000000000000000, 210.0000000000000000 ) ) ;
#141 = PLANE ( 'NONE',  #104 ) ;
#142 = DIRECTION ( 'NONE',  ( 0.0000000000000000000, 1.000000000000000000, 0.0000000000000000000 ) ) ;
#143 = DIRECTION ( 'NONE',  ( -0.0000000000000000000, -0.0000000000000000000, -1.000000000000000000 ) ) ;
#144 = DIRECTION ( 'NONE',  ( 0.0000000000000000000, 1.000000000000000000, 0.0000000000000000000 ) ) ;
#145 = CARTESIAN_POINT ( 'NONE',  ( 76.79999999999999700, -14.00000000000000000, 210.0000000000000000 ) ) ;
#146 = CARTESIAN_POINT ( 'NONE',  ( 1.734723475976807100E-015, 0.8000000000000000400, 14.99999999999999300 ) ) ;
#147 = DIRECTION ( 'NONE',  ( 0.0000000000000000000, 1.000000000000000000, 0.0000000000000000000 ) ) ;
#148 = DIRECTION ( 'NONE',  ( 0.0000000000000000000, 0.0000000000000000000, -1.000000000000000000 ) ) ;
#149 = DIRECTION ( 'NONE',  ( -1.000000000000000000, 0.0000000000000000000, 0.0000000000000000000 ) ) ;
#150 = DIRECTION ( 'NONE',  ( -0.0000000000000000000, 1.000000000000000000, -0.0000000000000000000 ) ) ;
#151 = CARTESIAN_POINT ( 'NONE',  ( 1.734723475976807100E-015, 0.8000000000000000400, 194.9999999999999700 ) ) ;
#152 = CARTESIAN_POINT ( 'NONE',  ( -76.79999999999999700, 0.0000000000000000000, 210.0000000000000000 ) ) ;
#153 = DIRECTION ( 'NONE',  ( 0.0000000000000000000, 1.000000000000000000, 0.0000000000000000000 ) ) ;
#154 = DIRECTION ( 'NONE',  ( 0.0000000000000000000, 0.0000000000000000000, 1.000000000000000000 ) ) ;
#155 = DIRECTION ( 'NONE',  ( -0.0000000000000000000, 1.000000000000000000, -0.0000000000000000000 ) ) ;
#156 = DIRECTION ( 'NONE',  ( 1.000000000000000000, 0.0000000000000000000, 0.0000000000000000000 ) ) ;
#157 = CARTESIAN_POINT ( 'NONE',  ( -76.79999999999999700, 0.8000000000000000400, 210.0000000000000000 ) ) ;
#158 = CARTESIAN_POINT ( 'NONE',  ( -76.00000000000000000, 0.0000000000000000000, 0.0000000000000000000 ) ) ;
#159 = PLANE ( 'NONE',  #250 ) ;
#160 = DIRECTION ( 'NONE',  ( 0.0000000000000000000, -1.000000000000000000, 0.0000000000000000000 ) ) ;
#161 = DIRECTION ( 'NONE',  ( 0.0000000000000000000, -0.0000000000000000000, -1.000000000000000000 ) ) ;
#162 = CARTESIAN_POINT ( 'NONE',  ( -76.00000000000000000, 0.0000000000000000000, 210.0000000000000000 ) ) ;
#163 = CARTESIAN_POINT ( 'NONE',  ( 76.79999999999999700, 0.0000000000000000000, 210.0000000000000000 ) ) ;
#164 = PLANE ( 'NONE',  #247 ) ;
#165 = CARTESIAN_POINT ( 'NONE',  ( -76.00000000000000000, -14.00000000000000000, 210.0000000000000000 ) ) ;
#166 = DIRECTION ( 'NONE',  ( 0.0000000000000000000, -0.0000000000000000000, 1.000000000000000000 ) ) ;
#167 = PLANE ( 'NONE',  #253 ) ;
#168 = DIRECTION ( 'NONE',  ( -0.0000000000000000000, -1.000000000000000000, 0.0000000000000000000 ) ) ;
#169 = DIRECTION ( 'NONE',  ( -0.0000000000000000000, -0.0000000000000000000, -1.000000000000000000 ) ) ;
#170 = DIRECTION ( 'NONE',  ( 0.0000000000000000000, -1.000000000000000000, 0.0000000000000000000 ) ) ;
#171 = DIRECTION ( 'NONE',  ( 0.0000000000000000000, -0.0000000000000000000, -1.000000000000000000 ) ) ;
#172 = PLANE ( 'NONE',  #208 ) ;
#173 = CARTESIAN_POINT ( 'NONE',  ( 76.79999999999999700, 0.8000000000000000400, 210.0000000000000000 ) ) ;
#174 = DIRECTION ( 'NONE',  ( -0.0000000000000000000, -0.0000000000000000000, -1.000000000000000000 ) ) ;
#175 = DIRECTION ( 'NONE',  ( -0.0000000000000000000, -1.000000000000000000, 0.0000000000000000000 ) ) ;
#176 = CARTESIAN_POINT ( 'NONE',  ( -76.00000000000000000, 0.8000000000000000400, 0.0000000000000000000 ) ) ;
#177 = CARTESIAN_POINT ( 'NONE',  ( -76.00000000000000000, -14.00000000000000000, 210.0000000000000000 ) ) ;
#178 = DIRECTION ( 'NONE',  ( -0.0000000000000000000, 1.000000000000000000, -0.0000000000000000000 ) ) ;
#179 = DIRECTION ( 'NONE',  ( -0.0000000000000000000, -0.0000000000000000000, -1.000000000000000000 ) ) ;
#180 = DIRECTION ( 'NONE',  ( -0.0000000000000000000, -0.0000000000000000000, -1.000000000000000000 ) ) ;
#181 = CARTESIAN_POINT ( 'NONE',  ( -76.00000000000000000, 0.0000000000000000000, 210.0000000000000000 ) ) ;
#182 = DIRECTION ( 'NONE',  ( 1.000000000000000000, 0.0000000000000000000, -0.0000000000000000000 ) ) ;
#183 = DIRECTION ( 'NONE',  ( -0.0000000000000000000, 1.000000000000000000, -0.0000000000000000000 ) ) ;
#184 = PLANE ( 'NONE',  #106 ) ;
#185 = CARTESIAN_POINT ( 'NONE',  ( -76.79999999999999700, 0.0000000000000000000, 0.0000000000000000000 ) ) ;
#186 = CARTESIAN_POINT ( 'NONE',  ( -76.00000000000000000, 0.0000000000000000000, 210.0000000000000000 ) ) ;
#187 = DIRECTION ( 'NONE',  ( 0.0000000000000000000, 1.000000000000000000, 0.0000000000000000000 ) ) ;
#188 = DIRECTION ( 'NONE',  ( -0.0000000000000000000, 0.0000000000000000000, -1.000000000000000000 ) ) ;
#189 = DIRECTION ( 'NONE',  ( -0.0000000000000000000, -0.0000000000000000000, -1.000000000000000000 ) ) ;
#190 = DIRECTION ( 'NONE',  ( 0.0000000000000000000, 0.0000000000000000000, 1.000000000000000000 ) ) ;
#191 = CARTESIAN_POINT ( 'NONE',  ( 76.79999999999999700, -14.00000000000000000, 210.0000000000000000 ) ) ;
#192 = CARTESIAN_POINT ( 'NONE',  ( 0.0000000000000000000, 0.0000000000000000000, 0.0000000000000000000 ) ) ;
#193 = DIRECTION ( 'NONE',  ( -0.0000000000000000000, 1.000000000000000000, -0.0000000000000000000 ) ) ;
#194 = DIRECTION ( 'NONE',  ( 0.0000000000000000000, 0.0000000000000000000, 1.000000000000000000 ) ) ;
#195 = CARTESIAN_POINT ( 'NONE',  ( 1.734723475976807100E-015, -14.00099999999999900, 14.99999999999999300 ) ) ;
#196 = CARTESIAN_POINT ( 'NONE',  ( 1.734723475976807100E-015, -14.00099999999999900, 194.9999999999999700 ) ) ;
#197 = DIRECTION ( 'NONE',  ( 1.000000000000000000, 0.0000000000000000000, -0.0000000000000000000 ) ) ;
#198 = DIRECTION ( 'NONE',  ( -1.000000000000000000, 0.0000000000000000000, 0.0000000000000000000 ) ) ;
#199 = CARTESIAN_POINT ( 'NONE',  ( -76.79999999999999700, 0.8000000000000000400, 0.0000000000000000000 ) ) ;
#200 = CARTESIAN_POINT ( 'NONE',  ( -76.00000000000000000, 0.0000000000000000000, 210.0000000000000000 ) ) ;
#201 = PLANE ( 'NONE',  #103 ) ;
#202 = EDGE_CURVE ( 'NONE', #263, #273, #325, .T. ) ;
#203 = EDGE_CURVE ( 'NONE', #265, #269, #327, .T. ) ;
#204 = CC_DESIGN_APPROVAL ( #252, ( #248 ) ) ;
#205 = EDGE_CURVE ( 'NONE', #273, #259, #328, .T. ) ;
#206 = EDGE_CURVE ( 'NONE', #275, #265, #322, .T. ) ;
#207 = EDGE_CURVE ( 'NONE', #275, #263, #324, .T. ) ;
#208 = AXIS2_PLACEMENT_3D ( 'NONE', #163, #197, #119 ) ;
#209 = EDGE_CURVE ( 'NONE', #353, #353, #320, .T. ) ;
#210 = EDGE_CURVE ( 'NONE', #351, #351, #314, .T. ) ;
#211 = AXIS2_PLACEMENT_3D ( 'NONE', #115, #182, #188 ) ;
#212 = EDGE_CURVE ( 'NONE', #266, #265, #312, .T. ) ;
#213 = EDGE_CURVE ( 'NONE', #267, #266, #313, .T. ) ;
#214 = EDGE_CURVE ( 'NONE', #267, #275, #318, .T. ) ;
#215 = EDGE_CURVE ( 'NONE', #271, #266, #308, .T. ) ;
#216 = EDGE_CURVE ( 'NONE', #274, #271, #310, .T. ) ;
#217 = EDGE_CURVE ( 'NONE', #274, #267, #307, .T. ) ;
#218 = EDGE_CURVE ( 'NONE', #268, #271, #304, .T. ) ;
#219 = APPROVAL ( #51, 'UNSPECIFIED' ) ;
#220 = CC_DESIGN_DATE_AND_TIME_ASSIGNMENT ( #401, #53, ( #248 ) ) ;
#221 = CC_DESIGN_PERSON_AND_ORGANIZATION_ASSIGNMENT ( #396, #44, ( #235 ) ) ;
#222 = CC_DESIGN_APPROVAL ( #219, ( #235 ) ) ;
#223 = APPROVAL ( #38, 'UNSPECIFIED' ) ;
#224 = SECURITY_CLASSIFICATION ( '', '', #43 ) ;
#225 = CC_DESIGN_SECURITY_CLASSIFICATION ( #224, ( #235 ) ) ;
#226 = CC_DESIGN_APPROVAL ( #223, ( #224 ) ) ;
#227 = EDGE_CURVE ( 'NONE', #264, #268, #306, .T. ) ;
#228 = EDGE_CURVE ( 'NONE', #264, #274, #302, .T. ) ;
#229 = EDGE_CURVE ( 'NONE', #268, #257, #300, .T. ) ;
#230 = AXIS2_PLACEMENT_3D ( 'NONE', #40, #42, #47 ) ;
#231 = EDGE_CURVE ( 'NONE', #262, #257, #296, .T. ) ;
#232 = EDGE_CURVE ( 'NONE', #264, #262, #298, .T. ) ;
#233 = AXIS2_PLACEMENT_3D ( 'NONE', #146, #147, #154 ) ;
#234 = EDGE_CURVE ( 'NONE', #433, #433, #278, .T. ) ;
#235 = PRODUCT_DEFINITION_FORMATION_WITH_SPECIFIED_SOURCE ( 'ANY', '', #85, .NOT_KNOWN. ) ;
#236 = EDGE_CURVE ( 'NONE', #380, #380, #289, .T. ) ;
#237 = EDGE_CURVE ( 'NONE', #257, #260, #280, .T. ) ;
#238 = EDGE_CURVE ( 'NONE', #262, #270, #279, .T. ) ;
#239 = EDGE_CURVE ( 'NONE', #263, #269, #286, .T. ) ;
#240 = EDGE_CURVE ( 'NONE', #270, #273, #284, .T. ) ;
#241 = EDGE_CURVE ( 'NONE', #269, #259, #293, .T. ) ;
#242 = AXIS2_PLACEMENT_3D ( 'NONE', #123, #36, #58 ) ;
#243 = EDGE_CURVE ( 'NONE', #270, #260, #292, .T. ) ;
#244 = EDGE_CURVE ( 'NONE', #260, #259, #282, .T. ) ;
#245 = CC_DESIGN_PERSON_AND_ORGANIZATION_ASSIGNMENT ( #366, #41, ( #224 ) ) ;
#246 = AXIS2_PLACEMENT_3D ( 'NONE', #151, #150, #148 ) ;
#247 = AXIS2_PLACEMENT_3D ( 'NONE', #162, #153, #166 ) ;
#248 = PRODUCT_DEFINITION ( 'UNKNOWN', '', #235, #437 ) ;
#249 = CC_DESIGN_DATE_AND_TIME_ASSIGNMENT ( #391, #39, ( #224 ) ) ;
#250 = AXIS2_PLACEMENT_3D ( 'NONE', #191, #160, #161 ) ;
#251 = CC_DESIGN_PERSON_AND_ORGANIZATION_ASSIGNMENT ( #395, #45, ( #235 ) ) ;
#252 = APPROVAL ( #57, 'UNSPECIFIED' ) ;
#253 = AXIS2_PLACEMENT_3D ( 'NONE', #165, #170, #171 ) ;
#254 = AXIS2_PLACEMENT_3D ( 'NONE', #10, #8, #6 ) ;
#255 = CC_DESIGN_PERSON_AND_ORGANIZATION_ASSIGNMENT ( #285, #61, ( #85 ) ) ;
#256 = FACE_OUTER_BOUND ( 'NONE', #343, .T. ) ;
#257 = VERTEX_POINT ( 'NONE', #33 ) ;
#258 = COORDINATED_UNIVERSAL_TIME_OFFSET ( 4, 0, .AHEAD. ) ;
#259 = VERTEX_POINT ( 'NONE', #27 ) ;
#260 = VERTEX_POINT ( 'NONE', #25 ) ;
#261 = FACE_OUTER_BOUND ( 'NONE', #341, .T. ) ;
#262 = VERTEX_POINT ( 'NONE', #24 ) ;
#263 = VERTEX_POINT ( 'NONE', #23 ) ;
#264 = VERTEX_POINT ( 'NONE', #26 ) ;
#265 = VERTEX_POINT ( 'NONE', #22 ) ;
#266 = VERTEX_POINT ( 'NONE', #199 ) ;
#267 = VERTEX_POINT ( 'NONE', #21 ) ;
#268 = VERTEX_POINT ( 'NONE', #20 ) ;
#269 = VERTEX_POINT ( 'NONE', #19 ) ;
#270 = VERTEX_POINT ( 'NONE', #18 ) ;
#271 = VERTEX_POINT ( 'NONE', #17 ) ;
#272 = FACE_OUTER_BOUND ( 'NONE', #336, .T. ) ;
#273 = VERTEX_POINT ( 'NONE', #16 ) ;
#274 = VERTEX_POINT ( 'NONE', #15 ) ;
#275 = VERTEX_POINT ( 'NONE', #14 ) ;
#276 = EDGE_LOOP ( 'NONE', ( #379, #378, #382, #381 ) ) ;
#277 = FACE_OUTER_BOUND ( 'NONE', #333, .T. ) ;
#278 = CIRCLE ( 'NONE', #242, 2.500000000000002200 ) ;
#279 = LINE ( 'NONE', #186, #288 ) ;
#280 = LINE ( 'NONE', #114, #287 ) ;
#281 = VECTOR ( 'NONE', #178, 1000.000000000000000 ) ;
#282 = LINE ( 'NONE', #49, #376 ) ;
#283 = VECTOR ( 'NONE', #179, 1000.000000000000000 ) ;
#284 = LINE ( 'NONE', #28, #291 ) ;
#285 = PERSON_AND_ORGANIZATION ( #86, #404 ) ;
#286 = LINE ( 'NONE', #1, #294 ) ;
#287 = VECTOR ( 'NONE', #48, 1000.000000000000000 ) ;
#288 = VECTOR ( 'NONE', #50, 1000.000000000000000 ) ;
#289 = CIRCLE ( 'NONE', #230, 2.500000000000002200 ) ;
#290 = ORIENTED_EDGE ( 'NONE', *, *, #218, .T. ) ;
#291 = VECTOR ( 'NONE', #30, 1000.000000000000000 ) ;
#292 = LINE ( 'NONE', #34, #372 ) ;
#293 = LINE ( 'NONE', #29, #377 ) ;
#294 = VECTOR ( 'NONE', #52, 1000.000000000000000 ) ;
#295 = VECTOR ( 'NONE', #155, 1000.000000000000000 ) ;
#296 = LINE ( 'NONE', #181, #283 ) ;
#297 = VECTOR ( 'NONE', #128, 1000.000000000000000 ) ;
#298 = LINE ( 'NONE', #138, #281 ) ;
#299 = VECTOR ( 'NONE', #180, 1000.000000000000000 ) ;
#300 = LINE ( 'NONE', #158, #295 ) ;
#301 = VECTOR ( 'NONE', #134, 1000.000000000000000 ) ;
#302 = LINE ( 'NONE', #140, #301 ) ;
#303 = VECTOR ( 'NONE', #189, 1000.000000000000000 ) ;
#304 = LINE ( 'NONE', #132, #297 ) ;
#305 = VECTOR ( 'NONE', #144, 1000.000000000000000 ) ;
#306 = LINE ( 'NONE', #177, #299 ) ;
#307 = LINE ( 'NONE', #152, #305 ) ;
#308 = LINE ( 'NONE', #185, #311 ) ;
#309 = VECTOR ( 'NONE', #129, 1000.000000000000000 ) ;
#310 = LINE ( 'NONE', #139, #303 ) ;
#311 = VECTOR ( 'NONE', #142, 1000.000000000000000 ) ;
#312 = LINE ( 'NONE', #176, #316 ) ;
#313 = LINE ( 'NONE', #157, #315 ) ;
#314 = CIRCLE ( 'NONE', #233, 2.500000000000002200 ) ;
#315 = VECTOR ( 'NONE', #143, 1000.000000000000000 ) ;
#316 = VECTOR ( 'NONE', #156, 1000.000000000000000 ) ;
#317 = VECTOR ( 'NONE', #175, 1000.000000000000000 ) ;
#318 = LINE ( 'NONE', #135, #309 ) ;
#319 = VECTOR ( 'NONE', #174, 1000.000000000000000 ) ;
#320 = CIRCLE ( 'NONE', #246, 2.500000000000002200 ) ;
#321 = VECTOR ( 'NONE', #169, 1000.000000000000000 ) ;
#322 = LINE ( 'NONE', #173, #319 ) ;
#323 = VECTOR ( 'NONE', #168, 1000.000000000000000 ) ;
#324 = LINE ( 'NONE', #137, #317 ) ;
#325 = LINE ( 'NONE', #145, #326 ) ;
#326 = VECTOR ( 'NONE', #149, 1000.000000000000000 ) ;
#327 = LINE ( 'NONE', #120, #323 ) ;
#328 = LINE ( 'NONE', #124, #321 ) ;
#329 = EDGE_LOOP ( 'NONE', ( #66 ) ) ;
#330 = EDGE_LOOP ( 'NONE', ( #84 ) ) ;
#331 = EDGE_LOOP ( 'NONE', ( #63 ) ) ;
#332 = EDGE_LOOP ( 'NONE', ( #430, #432, #82, #290, #373, #434, #435, #62 ) ) ;
#333 = EDGE_LOOP ( 'NONE', ( #418, #420, #421, #429 ) ) ;
#334 = EDGE_LOOP ( 'NONE', ( #68 ) ) ;
#335 = EDGE_LOOP ( 'NONE', ( #414 ) ) ;
#336 = EDGE_LOOP ( 'NONE', ( #80, #69, #65, #70 ) ) ;
#337 = EDGE_LOOP ( 'NONE', ( #419, #67, #72, #360 ) ) ;
#338 = EDGE_LOOP ( 'NONE', ( #413 ) ) ;
#339 = EDGE_LOOP ( 'NONE', ( #383, #406, #410, #412 ) ) ;
#340 = EDGE_LOOP ( 'NONE', ( #415 ) ) ;
#341 = EDGE_LOOP ( 'NONE', ( #77, #79, #362, #81 ) ) ;
#342 = EDGE_LOOP ( 'NONE', ( #78 ) ) ;
#343 = EDGE_LOOP ( 'NONE', ( #422, #423, #424, #426, #425, #428, #427, #431 ) ) ;
#344 = EDGE_LOOP ( 'NONE', ( #374, #76, #363, #73 ) ) ;
#345 = EDGE_LOOP ( 'NONE', ( #74, #367, #375, #71 ) ) ;
#346 = FACE_OUTER_BOUND ( 'NONE', #339, .T. ) ;
#347 = FACE_OUTER_BOUND ( 'NONE', #330, .T. ) ;
#348 = FACE_OUTER_BOUND ( 'NONE', #337, .T. ) ;
#349 = FACE_OUTER_BOUND ( 'NONE', #345, .T. ) ;
#350 = FACE_BOUND ( 'NONE', #340, .T. ) ;
#351 = VERTEX_POINT ( 'NONE', #13 ) ;
#352 = SHAPE_DEFINITION_REPRESENTATION ( #436, #87 ) ;
#353 = VERTEX_POINT ( 'NONE', #11 ) ;
#354 = FACE_OUTER_BOUND ( 'NONE', #344, .T. ) ;
#355 = CYLINDRICAL_SURFACE ( 'NONE', #108, 2.500000000000002200 ) ;
#356 = FACE_BOUND ( 'NONE', #338, .T. ) ;
#357 = FACE_BOUND ( 'NONE', #342, .T. ) ;
#358 = FACE_OUTER_BOUND ( 'NONE', #329, .T. ) ;
#359 = FACE_OUTER_BOUND ( 'NONE', #332, .T. ) ;
#360 = ORIENTED_EDGE ( 'NONE', *, *, #206, .T. ) ;
#361 = FACE_BOUND ( 'NONE', #335, .T. ) ;
#362 = ORIENTED_EDGE ( 'NONE', *, *, #202, .T. ) ;
#363 = ORIENTED_EDGE ( 'NONE', *, *, #240, .F. ) ;
#364 = APPROVAL_PERSON_ORGANIZATION ( #402, #219, #46 ) ;
#365 = DATE_AND_TIME ( #399, #398 ) ;
#366 = PERSON_AND_ORGANIZATION ( #86, #404 ) ;
#367 = ORIENTED_EDGE ( 'NONE', *, *, #216, .F. ) ;
#368 = FACE_OUTER_BOUND ( 'NONE', #276, .T. ) ;
#369 = APPROVAL_PERSON_ORGANIZATION ( #417, #252, #55 ) ;
#370 = DATE_AND_TIME ( #411, #409 ) ;
#371 = LOCAL_TIME ( 12, 45, 8.000000000000000000, #407 ) ;
#372 = VECTOR ( 'NONE', #32, 1000.000000000000000 ) ;
#373 = ORIENTED_EDGE ( 'NONE', *, *, #215, .T. ) ;
#374 = ORIENTED_EDGE ( 'NONE', *, *, #244, .T. ) ;
#375 = ORIENTED_EDGE ( 'NONE', *, *, #217, .T. ) ;
#376 = VECTOR ( 'NONE', #31, 1000.000000000000000 ) ;
#377 = VECTOR ( 'NONE', #35, 1000.000000000000000 ) ;
#378 = ORIENTED_EDGE ( 'NONE', *, *, #206, .F. ) ;
#379 = ORIENTED_EDGE ( 'NONE', *, *, #203, .F. ) ;
#380 = VERTEX_POINT ( 'NONE', #9 ) ;
#381 = ORIENTED_EDGE ( 'NONE', *, *, #239, .T. ) ;
#382 = ORIENTED_EDGE ( 'NONE', *, *, #207, .T. ) ;
#383 = ORIENTED_EDGE ( 'NONE', *, *, #229, .T. ) ;
#384 = APPROVAL_DATE_TIME ( #385, #223 ) ;
#385 = DATE_AND_TIME ( #386, #387 ) ;
#386 = CALENDAR_DATE ( 2012, 9, 11 ) ;
#387 = LOCAL_TIME ( 12, 45, 8.000000000000000000, #388 ) ;
#388 = COORDINATED_UNIVERSAL_TIME_OFFSET ( 4, 0, .AHEAD. ) ;
#389 = APPROVAL_PERSON_ORGANIZATION ( #390, #223, #37 ) ;
#390 = PERSON_AND_ORGANIZATION ( #86, #404 ) ;
#391 = DATE_AND_TIME ( #392, #393 ) ;
#392 = CALENDAR_DATE ( 2012, 9, 11 ) ;
#393 = LOCAL_TIME ( 12, 45, 8.000000000000000000, #394 ) ;
#394 = COORDINATED_UNIVERSAL_TIME_OFFSET ( 4, 0, .AHEAD. ) ;
#395 = PERSON_AND_ORGANIZATION ( #86, #404 ) ;
#396 = PERSON_AND_ORGANIZATION ( #86, #404 ) ;
#397 = APPROVAL_DATE_TIME ( #365, #219 ) ;
#398 = LOCAL_TIME ( 12, 45, 8.000000000000000000, #400 ) ;
#399 = CALENDAR_DATE ( 2012, 9, 11 ) ;
#400 = COORDINATED_UNIVERSAL_TIME_OFFSET ( 4, 0, .AHEAD. ) ;
#401 = DATE_AND_TIME ( #403, #371 ) ;
#402 = PERSON_AND_ORGANIZATION ( #86, #404 ) ;
#403 = CALENDAR_DATE ( 2012, 9, 11 ) ;
#404 = ORGANIZATION ( 'UNSPECIFIED', 'UNSPECIFIED', '' ) ;
#405 = PERSON_AND_ORGANIZATION ( #86, #404 ) ;
#406 = ORIENTED_EDGE ( 'NONE', *, *, #231, .F. ) ;
#407 = COORDINATED_UNIVERSAL_TIME_OFFSET ( 4, 0, .AHEAD. ) ;
#408 = APPROVAL_DATE_TIME ( #370, #252 ) ;
#409 = LOCAL_TIME ( 12, 45, 8.000000000000000000, #258 ) ;
#410 = ORIENTED_EDGE ( 'NONE', *, *, #232, .F. ) ;
#411 = CALENDAR_DATE ( 2012, 9, 11 ) ;
#412 = ORIENTED_EDGE ( 'NONE', *, *, #227, .T. ) ;
#413 = ORIENTED_EDGE ( 'NONE', *, *, #234, .F. ) ;
#414 = ORIENTED_EDGE ( 'NONE', *, *, #236, .F. ) ;
#415 = ORIENTED_EDGE ( 'NONE', *, *, #210, .F. ) ;
#416 = CYLINDRICAL_SURFACE ( 'NONE', #109, 2.500000000000002200 ) ;
#417 = PERSON_AND_ORGANIZATION ( #86, #404 ) ;
#418 = ORIENTED_EDGE ( 'NONE', *, *, #237, .T. ) ;
#419 = ORIENTED_EDGE ( 'NONE', *, *, #212, .F. ) ;
#420 = ORIENTED_EDGE ( 'NONE', *, *, #243, .F. ) ;
#421 = ORIENTED_EDGE ( 'NONE', *, *, #238, .F. ) ;
#422 = ORIENTED_EDGE ( 'NONE', *, *, #240, .T. ) ;
#423 = ORIENTED_EDGE ( 'NONE', *, *, #202, .F. ) ;
#424 = ORIENTED_EDGE ( 'NONE', *, *, #207, .F. ) ;
#425 = ORIENTED_EDGE ( 'NONE', *, *, #217, .F. ) ;
#426 = ORIENTED_EDGE ( 'NONE', *, *, #214, .F. ) ;
#427 = ORIENTED_EDGE ( 'NONE', *, *, #232, .T. ) ;
#428 = ORIENTED_EDGE ( 'NONE', *, *, #228, .F. ) ;
#429 = ORIENTED_EDGE ( 'NONE', *, *, #231, .T. ) ;
#430 = ORIENTED_EDGE ( 'NONE', *, *, #244, .F. ) ;
#431 = ORIENTED_EDGE ( 'NONE', *, *, #238, .T. ) ;
#432 = ORIENTED_EDGE ( 'NONE', *, *, #237, .F. ) ;
#433 = VERTEX_POINT ( 'NONE', #12 ) ;
#434 = ORIENTED_EDGE ( 'NONE', *, *, #212, .T. ) ;
#435 = ORIENTED_EDGE ( 'NONE', *, *, #203, .T. ) ;
#436 = PRODUCT_DEFINITION_SHAPE ( 'NONE', 'NONE',  #248 ) ;
#437 = DESIGN_CONTEXT ( 'detailed design', #60, 'design' ) ;
ENDSEC;
END-ISO-10303-21;
