ISO-10303-21;
HEADER;
FILE_DESCRIPTION(('OneSpaceDesigner STEP Export'),'2;1');
FILE_NAME('CBD.70-PT.stp','2008-07-03T14:28:58',(''),(''),
'OneSpace Designer STEP processor for AP214 (Solid Model)',
'OneSpace Modeling 15.50  10-Aug-2007 (C) CoCreate Software GmbH','');
FILE_SCHEMA(('AUTOMOTIVE_DESIGN { 1 0 10303 214 1 1 1 1 }'));
ENDSEC;
DATA;
#10=CARTESIAN_POINT('',(13.737274,39.907324,0.));
#20=DIRECTION('',(0.,0.,1.));
#30=DIRECTION('',(1.,0.,-0.));
#40=AXIS2_PLACEMENT_3D('',#10,#20,#30);
#50=PLANE('',#40);
#60=CARTESIAN_POINT('',(29.4999999999993,1.5,0.));
#70=DIRECTION('',(0.,0.,1.));
#80=DIRECTION('',(1.,0.,0.));
#90=AXIS2_PLACEMENT_3D('',#60,#70,#80);
#100=CIRCLE('',#90,1.5);
#110=CARTESIAN_POINT('',(29.5,0.,0.));
#120=VERTEX_POINT('',#110);
#130=CARTESIAN_POINT('',(30.9999999999993,1.5,0.));
#140=VERTEX_POINT('',#130);
#150=EDGE_CURVE('',#120,#140,#100,.T.);
#160=ORIENTED_EDGE('',*,*,#150,.F.);
#170=CARTESIAN_POINT('',(30.9999999999995,15.705912,0.));
#180=DIRECTION('',(1.68273681275468E-14,1.,0.));
#190=VECTOR('',#180,1.);
#200=LINE('',#170,#190);
#210=CARTESIAN_POINT('',(31.,45.9099589413106,0.));
#220=VERTEX_POINT('',#210);
#230=EDGE_CURVE('',#140,#220,#200,.T.);
#240=ORIENTED_EDGE('',*,*,#230,.F.);
#250=CARTESIAN_POINT('',(29.,45.9099589413106,0.));
#260=DIRECTION('',(0.,0.,1.));
#270=DIRECTION('',(1.,0.,-0.));
#280=AXIS2_PLACEMENT_3D('',#250,#260,#270);
#290=CIRCLE('',#280,2.);
#300=CARTESIAN_POINT('',(30.8793852415718,46.593999227962,0.));
#310=VERTEX_POINT('',#300);
#320=EDGE_CURVE('',#220,#310,#290,.T.);
#330=ORIENTED_EDGE('',*,*,#320,.F.);
#340=CARTESIAN_POINT('',(30.6001709277305,47.3611342504296,0.));
#350=DIRECTION('',(-0.342020143325686,0.939692620785902,0.));
#360=VECTOR('',#350,1.);
#370=LINE('',#340,#360);
#380=CARTESIAN_POINT('',(26.2394850825762,59.3420201433257,0.));
#390=VERTEX_POINT('',#380);
#400=EDGE_CURVE('',#310,#390,#370,.T.);
#410=ORIENTED_EDGE('',*,*,#400,.F.);
#420=CARTESIAN_POINT('',(25.2997924617903,59.,0.));
#430=DIRECTION('',(0.,0.,1.));
#440=DIRECTION('',(1.,0.,-0.));
#450=AXIS2_PLACEMENT_3D('',#420,#430,#440);
#460=CIRCLE('',#450,1.);
#470=CARTESIAN_POINT('',(25.2997924617903,60.,0.));
#480=VERTEX_POINT('',#470);
#490=EDGE_CURVE('',#390,#480,#460,.T.);
#500=ORIENTED_EDGE('',*,*,#490,.F.);
#510=CARTESIAN_POINT('',(25.2997924617905,60.,0.));
#520=DIRECTION('',(-1.,0.,0.));
#530=VECTOR('',#520,1.);
#540=LINE('',#510,#530);
#550=CARTESIAN_POINT('',(-25.2997924617916,60.,0.));
#560=VERTEX_POINT('',#550);
#570=EDGE_CURVE('',#480,#560,#540,.T.);
#580=ORIENTED_EDGE('',*,*,#570,.F.);
#590=CARTESIAN_POINT('',(-25.2997924617916,59.,0.));
#600=DIRECTION('',(0.,0.,1.));
#610=DIRECTION('',(1.,0.,-0.));
#620=AXIS2_PLACEMENT_3D('',#590,#600,#610);
#630=CIRCLE('',#620,1.);
#640=CARTESIAN_POINT('',(-26.2394850825775,59.3420201433256,0.));
#650=VERTEX_POINT('',#640);
#660=EDGE_CURVE('',#560,#650,#630,.T.);
#670=ORIENTED_EDGE('',*,*,#660,.F.);
#680=CARTESIAN_POINT('',(-30.6001709277302,47.3611342504296,0.));
#690=DIRECTION('',(-0.342020143325579,-0.939692620785941,0.));
#700=VECTOR('',#690,1.);
#710=LINE('',#680,#700);
#720=CARTESIAN_POINT('',(-30.8793852415715,46.5939992279619,0.));
#730=VERTEX_POINT('',#720);
#740=EDGE_CURVE('',#650,#730,#710,.T.);
#750=ORIENTED_EDGE('',*,*,#740,.F.);
#760=CARTESIAN_POINT('',(-28.9999999999999,45.9099589413106,0.));
#770=DIRECTION('',(0.,0.,1.));
#780=DIRECTION('',(0.,-1.,-0.));
#790=AXIS2_PLACEMENT_3D('',#760,#770,#780);
#800=CIRCLE('',#790,1.99999999999977);
#810=CARTESIAN_POINT('',(-30.9999999999999,45.9099589413106,0.));
#820=VERTEX_POINT('',#810);
#830=EDGE_CURVE('',#730,#820,#800,.T.);
#840=ORIENTED_EDGE('',*,*,#830,.F.);
#850=CARTESIAN_POINT('',(-31.,8.5265128291212E-14,0.));
#860=DIRECTION('',(1.09314267040017E-15,1.,0.));
#870=VECTOR('',#860,1.);
#880=LINE('',#850,#870);
#890=CARTESIAN_POINT('',(-31.,1.50000000000009,0.));
#900=VERTEX_POINT('',#890);
#910=EDGE_CURVE('',#900,#820,#880,.T.);
#920=ORIENTED_EDGE('',*,*,#910,.T.);
#930=CARTESIAN_POINT('',(-29.5,1.50000000000009,0.));
#940=DIRECTION('',(0.,0.,1.));
#950=DIRECTION('',(1.,0.,0.));
#960=AXIS2_PLACEMENT_3D('',#930,#940,#950);
#970=CIRCLE('',#960,1.5);
#980=CARTESIAN_POINT('',(-29.5,8.5265128291212E-14,0.));
#990=VERTEX_POINT('',#980);
#1000=EDGE_CURVE('',#900,#990,#970,.T.);
#1010=ORIENTED_EDGE('',*,*,#1000,.F.);
#1020=CARTESIAN_POINT('',(29.5,0.,0.));
#1030=DIRECTION('',(-1.,1.40934096349111E-15,0.));
#1040=VECTOR('',#1030,1.);
#1050=LINE('',#1020,#1040);
#1060=EDGE_CURVE('',#120,#990,#1050,.T.);
#1070=ORIENTED_EDGE('',*,*,#1060,.T.);
#1080=EDGE_LOOP('',(#1070,#1010,#920,#840,#750,#670,#580,#500,#410,#330,
#240,#160));
#1090=FACE_OUTER_BOUND('',#1080,.T.);
#1100=ADVANCED_FACE('',(#1090),#50,.F.);
#1110=CARTESIAN_POINT('',(13.737274,39.907324,1.5));
#1120=DIRECTION('',(0.,0.,1.));
#1130=DIRECTION('',(1.,0.,-0.));
#1140=AXIS2_PLACEMENT_3D('',#1110,#1120,#1130);
#1150=PLANE('',#1140);
#1160=CARTESIAN_POINT('',(29.5,0.,1.5));
#1170=DIRECTION('',(-1.,1.40934096349111E-15,0.));
#1180=VECTOR('',#1170,1.);
#1190=LINE('',#1160,#1180);
#1200=CARTESIAN_POINT('',(29.5,0.,1.5));
#1210=VERTEX_POINT('',#1200);
#1220=CARTESIAN_POINT('',(-29.5,8.5265128291212E-14,1.5));
#1230=VERTEX_POINT('',#1220);
#1240=EDGE_CURVE('',#1210,#1230,#1190,.T.);
#1250=ORIENTED_EDGE('',*,*,#1240,.F.);
#1260=CARTESIAN_POINT('',(-29.5,1.50000000000009,1.5));
#1270=DIRECTION('',(0.,0.,1.));
#1280=DIRECTION('',(1.,0.,0.));
#1290=AXIS2_PLACEMENT_3D('',#1260,#1270,#1280);
#1300=CIRCLE('',#1290,1.5);
#1310=CARTESIAN_POINT('',(-31.,1.50000000000009,1.5));
#1320=VERTEX_POINT('',#1310);
#1330=EDGE_CURVE('',#1320,#1230,#1300,.T.);
#1340=ORIENTED_EDGE('',*,*,#1330,.T.);
#1350=CARTESIAN_POINT('',(-31.,8.5265128291212E-14,1.5));
#1360=DIRECTION('',(1.09314267040017E-15,1.,0.));
#1370=VECTOR('',#1360,1.);
#1380=LINE('',#1350,#1370);
#1390=CARTESIAN_POINT('',(-30.9999999999999,45.9099589413106,1.5));
#1400=VERTEX_POINT('',#1390);
#1410=EDGE_CURVE('',#1320,#1400,#1380,.T.);
#1420=ORIENTED_EDGE('',*,*,#1410,.F.);
#1430=CARTESIAN_POINT('',(-28.9999999999999,45.9099589413106,1.5));
#1440=DIRECTION('',(0.,0.,1.));
#1450=DIRECTION('',(0.,-1.,-0.));
#1460=AXIS2_PLACEMENT_3D('',#1430,#1440,#1450);
#1470=CIRCLE('',#1460,1.99999999999977);
#1480=CARTESIAN_POINT('',(-30.8793852415715,46.5939992279619,1.5));
#1490=VERTEX_POINT('',#1480);
#1500=EDGE_CURVE('',#1490,#1400,#1470,.T.);
#1510=ORIENTED_EDGE('',*,*,#1500,.T.);
#1520=CARTESIAN_POINT('',(-30.6001709277302,47.3611342504296,1.5));
#1530=DIRECTION('',(-0.342020143325579,-0.939692620785941,0.));
#1540=VECTOR('',#1530,1.);
#1550=LINE('',#1520,#1540);
#1560=CARTESIAN_POINT('',(-26.2394850825775,59.3420201433256,1.5));
#1570=VERTEX_POINT('',#1560);
#1580=EDGE_CURVE('',#1570,#1490,#1550,.T.);
#1590=ORIENTED_EDGE('',*,*,#1580,.T.);
#1600=CARTESIAN_POINT('',(-25.2997924617916,59.,1.5));
#1610=DIRECTION('',(0.,0.,1.));
#1620=DIRECTION('',(1.,0.,-0.));
#1630=AXIS2_PLACEMENT_3D('',#1600,#1610,#1620);
#1640=CIRCLE('',#1630,1.);
#1650=CARTESIAN_POINT('',(-25.2997924617916,60.,1.5));
#1660=VERTEX_POINT('',#1650);
#1670=EDGE_CURVE('',#1660,#1570,#1640,.T.);
#1680=ORIENTED_EDGE('',*,*,#1670,.T.);
#1690=CARTESIAN_POINT('',(25.2997924617905,60.,1.5));
#1700=DIRECTION('',(-1.,0.,0.));
#1710=VECTOR('',#1700,1.);
#1720=LINE('',#1690,#1710);
#1730=CARTESIAN_POINT('',(25.2997924617903,60.,1.5));
#1740=VERTEX_POINT('',#1730);
#1750=EDGE_CURVE('',#1740,#1660,#1720,.T.);
#1760=ORIENTED_EDGE('',*,*,#1750,.T.);
#1770=CARTESIAN_POINT('',(25.2997924617903,59.,1.5));
#1780=DIRECTION('',(0.,0.,1.));
#1790=DIRECTION('',(1.,0.,-0.));
#1800=AXIS2_PLACEMENT_3D('',#1770,#1780,#1790);
#1810=CIRCLE('',#1800,1.);
#1820=CARTESIAN_POINT('',(26.2394850825762,59.3420201433257,1.5));
#1830=VERTEX_POINT('',#1820);
#1840=EDGE_CURVE('',#1830,#1740,#1810,.T.);
#1850=ORIENTED_EDGE('',*,*,#1840,.T.);
#1860=CARTESIAN_POINT('',(30.6001709277305,47.3611342504296,1.5));
#1870=DIRECTION('',(-0.342020143325686,0.939692620785902,0.));
#1880=VECTOR('',#1870,1.);
#1890=LINE('',#1860,#1880);
#1900=CARTESIAN_POINT('',(30.8793852415718,46.593999227962,1.5));
#1910=VERTEX_POINT('',#1900);
#1920=EDGE_CURVE('',#1910,#1830,#1890,.T.);
#1930=ORIENTED_EDGE('',*,*,#1920,.T.);
#1940=CARTESIAN_POINT('',(29.,45.9099589413106,1.5));
#1950=DIRECTION('',(0.,0.,1.));
#1960=DIRECTION('',(1.,0.,-0.));
#1970=AXIS2_PLACEMENT_3D('',#1940,#1950,#1960);
#1980=CIRCLE('',#1970,2.);
#1990=CARTESIAN_POINT('',(31.,45.9099589413106,1.5));
#2000=VERTEX_POINT('',#1990);
#2010=EDGE_CURVE('',#2000,#1910,#1980,.T.);
#2020=ORIENTED_EDGE('',*,*,#2010,.T.);
#2030=CARTESIAN_POINT('',(30.9999999999995,15.705912,1.5));
#2040=DIRECTION('',(1.68273681275468E-14,1.,0.));
#2050=VECTOR('',#2040,1.);
#2060=LINE('',#2030,#2050);
#2070=CARTESIAN_POINT('',(30.9999999999993,1.5,1.5));
#2080=VERTEX_POINT('',#2070);
#2090=EDGE_CURVE('',#2080,#2000,#2060,.T.);
#2100=ORIENTED_EDGE('',*,*,#2090,.T.);
#2110=CARTESIAN_POINT('',(29.4999999999993,1.5,1.5));
#2120=DIRECTION('',(0.,0.,1.));
#2130=DIRECTION('',(1.,0.,0.));
#2140=AXIS2_PLACEMENT_3D('',#2110,#2120,#2130);
#2150=CIRCLE('',#2140,1.5);
#2160=EDGE_CURVE('',#1210,#2080,#2150,.T.);
#2170=ORIENTED_EDGE('',*,*,#2160,.T.);
#2180=EDGE_LOOP('',(#2170,#2100,#2020,#1930,#1850,#1760,#1680,#1590,
#1510,#1420,#1340,#1250));
#2190=FACE_OUTER_BOUND('',#2180,.T.);
#2200=ADVANCED_FACE('',(#2190),#1150,.T.);
#2210=CARTESIAN_POINT('',(-30.8793852415715,46.5939992279619,0.));
#2220=DIRECTION('',(-0.939692620785941,0.342020143325579,0.));
#2230=DIRECTION('',(0.342020143325579,0.939692620785941,0.));
#2240=AXIS2_PLACEMENT_3D('',#2210,#2220,#2230);
#2250=PLANE('',#2240);
#2260=CARTESIAN_POINT('',(-26.2394850825775,59.3420201433256,0.));
#2270=DIRECTION('',(0.,0.,1.));
#2280=VECTOR('',#2270,1.);
#2290=LINE('',#2260,#2280);
#2300=EDGE_CURVE('',#650,#1570,#2290,.T.);
#2310=ORIENTED_EDGE('',*,*,#2300,.F.);
#2320=ORIENTED_EDGE('',*,*,#1580,.F.);
#2330=CARTESIAN_POINT('',(-30.8793852415715,46.5939992279619,0.));
#2340=DIRECTION('',(0.,0.,1.));
#2350=VECTOR('',#2340,1.);
#2360=LINE('',#2330,#2350);
#2370=EDGE_CURVE('',#730,#1490,#2360,.T.);
#2380=ORIENTED_EDGE('',*,*,#2370,.T.);
#2390=ORIENTED_EDGE('',*,*,#740,.T.);
#2400=EDGE_LOOP('',(#2390,#2380,#2320,#2310));
#2410=FACE_OUTER_BOUND('',#2400,.T.);
#2420=ADVANCED_FACE('',(#2410),#2250,.T.);
#2430=CARTESIAN_POINT('',(-28.9999999999999,45.9099589413106,0.));
#2440=DIRECTION('',(0.,0.,1.));
#2450=DIRECTION('',(0.,-1.,-0.));
#2460=AXIS2_PLACEMENT_3D('',#2430,#2440,#2450);
#2470=CYLINDRICAL_SURFACE('',#2460,1.99999999999977);
#2480=ORIENTED_EDGE('',*,*,#2370,.F.);
#2490=ORIENTED_EDGE('',*,*,#1500,.F.);
#2500=CARTESIAN_POINT('',(-30.9999999999999,45.9099589413106,0.));
#2510=DIRECTION('',(0.,0.,1.));
#2520=VECTOR('',#2510,1.);
#2530=LINE('',#2500,#2520);
#2540=EDGE_CURVE('',#820,#1400,#2530,.T.);
#2550=ORIENTED_EDGE('',*,*,#2540,.T.);
#2560=ORIENTED_EDGE('',*,*,#830,.T.);
#2570=EDGE_LOOP('',(#2560,#2550,#2490,#2480));
#2580=FACE_OUTER_BOUND('',#2570,.T.);
#2590=ADVANCED_FACE('',(#2580),#2470,.T.);
#2600=CARTESIAN_POINT('',(-31.,6.5,0.));
#2610=DIRECTION('',(-1.,1.44236178843676E-15,0.));
#2620=DIRECTION('',(1.44236178843676E-15,1.,0.));
#2630=AXIS2_PLACEMENT_3D('',#2600,#2610,#2620);
#2640=PLANE('',#2630);
#2650=ORIENTED_EDGE('',*,*,#2540,.F.);
#2660=ORIENTED_EDGE('',*,*,#1410,.T.);
#2670=CARTESIAN_POINT('',(-31.,1.50000000000009,0.));
#2680=DIRECTION('',(0.,0.,1.));
#2690=VECTOR('',#2680,1.);
#2700=LINE('',#2670,#2690);
#2710=EDGE_CURVE('',#900,#1320,#2700,.T.);
#2720=ORIENTED_EDGE('',*,*,#2710,.T.);
#2730=ORIENTED_EDGE('',*,*,#910,.F.);
#2740=EDGE_LOOP('',(#2730,#2720,#2660,#2650));
#2750=FACE_OUTER_BOUND('',#2740,.T.);
#2760=ADVANCED_FACE('',(#2750),#2640,.T.);
#2770=CARTESIAN_POINT('',(-25.9999999999999,60.,0.));
#2780=DIRECTION('',(0.,1.,0.));
#2790=DIRECTION('',(1.,-0.,0.));
#2800=AXIS2_PLACEMENT_3D('',#2770,#2780,#2790);
#2810=PLANE('',#2800);
#2820=ORIENTED_EDGE('',*,*,#570,.T.);
#2830=CARTESIAN_POINT('',(25.2997924617903,60.,0.));
#2840=DIRECTION('',(0.,0.,1.));
#2850=VECTOR('',#2840,1.);
#2860=LINE('',#2830,#2850);
#2870=EDGE_CURVE('',#480,#1740,#2860,.T.);
#2880=ORIENTED_EDGE('',*,*,#2870,.F.);
#2890=ORIENTED_EDGE('',*,*,#1750,.F.);
#2900=CARTESIAN_POINT('',(-25.2997924617916,60.,0.));
#2910=DIRECTION('',(0.,0.,1.));
#2920=VECTOR('',#2910,1.);
#2930=LINE('',#2900,#2920);
#2940=EDGE_CURVE('',#560,#1660,#2930,.T.);
#2950=ORIENTED_EDGE('',*,*,#2940,.T.);
#2960=EDGE_LOOP('',(#2950,#2890,#2880,#2820));
#2970=FACE_OUTER_BOUND('',#2960,.T.);
#2980=ADVANCED_FACE('',(#2970),#2810,.T.);
#2990=CARTESIAN_POINT('',(-29.5,1.50000000000009,0.));
#3000=DIRECTION('',(0.,0.,1.));
#3010=DIRECTION('',(1.,0.,0.));
#3020=AXIS2_PLACEMENT_3D('',#2990,#3000,#3010);
#3030=CYLINDRICAL_SURFACE('',#3020,1.5);
#3040=ORIENTED_EDGE('',*,*,#2710,.F.);
#3050=ORIENTED_EDGE('',*,*,#1330,.F.);
#3060=CARTESIAN_POINT('',(-29.5,8.5265128291212E-14,0.));
#3070=DIRECTION('',(0.,0.,1.));
#3080=VECTOR('',#3070,1.);
#3090=LINE('',#3060,#3080);
#3100=EDGE_CURVE('',#990,#1230,#3090,.T.);
#3110=ORIENTED_EDGE('',*,*,#3100,.T.);
#3120=ORIENTED_EDGE('',*,*,#1000,.T.);
#3130=EDGE_LOOP('',(#3120,#3110,#3050,#3040));
#3140=FACE_OUTER_BOUND('',#3130,.T.);
#3150=ADVANCED_FACE('',(#3140),#3030,.T.);
#3160=CARTESIAN_POINT('',(29.5,0.,0.));
#3170=DIRECTION('',(-1.40934096349111E-15,-1.,0.));
#3180=DIRECTION('',(-1.,1.40934096349111E-15,0.));
#3190=AXIS2_PLACEMENT_3D('',#3160,#3170,#3180);
#3200=PLANE('',#3190);
#3210=ORIENTED_EDGE('',*,*,#3100,.F.);
#3220=ORIENTED_EDGE('',*,*,#1240,.T.);
#3230=CARTESIAN_POINT('',(29.5,0.,0.));
#3240=DIRECTION('',(0.,0.,1.));
#3250=VECTOR('',#3240,1.);
#3260=LINE('',#3230,#3250);
#3270=EDGE_CURVE('',#120,#1210,#3260,.T.);
#3280=ORIENTED_EDGE('',*,*,#3270,.T.);
#3290=ORIENTED_EDGE('',*,*,#1060,.F.);
#3300=EDGE_LOOP('',(#3290,#3280,#3220,#3210));
#3310=FACE_OUTER_BOUND('',#3300,.T.);
#3320=ADVANCED_FACE('',(#3310),#3200,.T.);
#3330=CARTESIAN_POINT('',(29.4999999999993,1.5,0.));
#3340=DIRECTION('',(0.,0.,1.));
#3350=DIRECTION('',(1.,0.,0.));
#3360=AXIS2_PLACEMENT_3D('',#3330,#3340,#3350);
#3370=CYLINDRICAL_SURFACE('',#3360,1.5);
#3380=ORIENTED_EDGE('',*,*,#3270,.F.);
#3390=ORIENTED_EDGE('',*,*,#2160,.F.);
#3400=CARTESIAN_POINT('',(30.9999999999993,1.5,0.));
#3410=DIRECTION('',(0.,0.,1.));
#3420=VECTOR('',#3410,1.);
#3430=LINE('',#3400,#3420);
#3440=EDGE_CURVE('',#140,#2080,#3430,.T.);
#3450=ORIENTED_EDGE('',*,*,#3440,.T.);
#3460=ORIENTED_EDGE('',*,*,#150,.T.);
#3470=EDGE_LOOP('',(#3460,#3450,#3390,#3380));
#3480=FACE_OUTER_BOUND('',#3470,.T.);
#3490=ADVANCED_FACE('',(#3480),#3370,.T.);
#3500=CARTESIAN_POINT('',(31.,46.2626129027276,0.));
#3510=DIRECTION('',(1.,-1.68273681275468E-14,0.));
#3520=DIRECTION('',(-1.68273681275468E-14,-1.,0.));
#3530=AXIS2_PLACEMENT_3D('',#3500,#3510,#3520);
#3540=PLANE('',#3530);
#3550=ORIENTED_EDGE('',*,*,#230,.T.);
#3560=ORIENTED_EDGE('',*,*,#3440,.F.);
#3570=ORIENTED_EDGE('',*,*,#2090,.F.);
#3580=CARTESIAN_POINT('',(31.,45.9099589413106,0.));
#3590=DIRECTION('',(0.,0.,1.));
#3600=VECTOR('',#3590,1.);
#3610=LINE('',#3580,#3600);
#3620=EDGE_CURVE('',#220,#2000,#3610,.T.);
#3630=ORIENTED_EDGE('',*,*,#3620,.T.);
#3640=EDGE_LOOP('',(#3630,#3570,#3560,#3550));
#3650=FACE_OUTER_BOUND('',#3640,.T.);
#3660=ADVANCED_FACE('',(#3650),#3540,.T.);
#3670=CARTESIAN_POINT('',(26.,60.,0.));
#3680=DIRECTION('',(0.939692620785902,0.342020143325686,0.));
#3690=DIRECTION('',(0.342020143325686,-0.939692620785902,0.));
#3700=AXIS2_PLACEMENT_3D('',#3670,#3680,#3690);
#3710=PLANE('',#3700);
#3720=ORIENTED_EDGE('',*,*,#400,.T.);
#3730=CARTESIAN_POINT('',(30.8793852415718,46.593999227962,0.));
#3740=DIRECTION('',(0.,0.,1.));
#3750=VECTOR('',#3740,1.);
#3760=LINE('',#3730,#3750);
#3770=EDGE_CURVE('',#310,#1910,#3760,.T.);
#3780=ORIENTED_EDGE('',*,*,#3770,.F.);
#3790=ORIENTED_EDGE('',*,*,#1920,.F.);
#3800=CARTESIAN_POINT('',(26.2394850825762,59.3420201433257,0.));
#3810=DIRECTION('',(0.,0.,1.));
#3820=VECTOR('',#3810,1.);
#3830=LINE('',#3800,#3820);
#3840=EDGE_CURVE('',#390,#1830,#3830,.T.);
#3850=ORIENTED_EDGE('',*,*,#3840,.T.);
#3860=EDGE_LOOP('',(#3850,#3790,#3780,#3720));
#3870=FACE_OUTER_BOUND('',#3860,.T.);
#3880=ADVANCED_FACE('',(#3870),#3710,.T.);
#3890=CARTESIAN_POINT('',(29.,45.9099589413106,0.));
#3900=DIRECTION('',(0.,0.,1.));
#3910=DIRECTION('',(1.,0.,-0.));
#3920=AXIS2_PLACEMENT_3D('',#3890,#3900,#3910);
#3930=CYLINDRICAL_SURFACE('',#3920,2.);
#3940=ORIENTED_EDGE('',*,*,#2010,.F.);
#3950=ORIENTED_EDGE('',*,*,#3770,.T.);
#3960=ORIENTED_EDGE('',*,*,#320,.T.);
#3970=ORIENTED_EDGE('',*,*,#3620,.F.);
#3980=EDGE_LOOP('',(#3970,#3960,#3950,#3940));
#3990=FACE_OUTER_BOUND('',#3980,.T.);
#4000=ADVANCED_FACE('',(#3990),#3930,.T.);
#4010=CARTESIAN_POINT('',(25.2997924617903,59.,0.));
#4020=DIRECTION('',(0.,0.,1.));
#4030=DIRECTION('',(1.,0.,-0.));
#4040=AXIS2_PLACEMENT_3D('',#4010,#4020,#4030);
#4050=CYLINDRICAL_SURFACE('',#4040,1.);
#4060=ORIENTED_EDGE('',*,*,#1840,.F.);
#4070=ORIENTED_EDGE('',*,*,#2870,.T.);
#4080=ORIENTED_EDGE('',*,*,#490,.T.);
#4090=ORIENTED_EDGE('',*,*,#3840,.F.);
#4100=EDGE_LOOP('',(#4090,#4080,#4070,#4060));
#4110=FACE_OUTER_BOUND('',#4100,.T.);
#4120=ADVANCED_FACE('',(#4110),#4050,.T.);
#4130=CARTESIAN_POINT('',(-25.2997924617916,59.,0.));
#4140=DIRECTION('',(0.,0.,1.));
#4150=DIRECTION('',(1.,0.,-0.));
#4160=AXIS2_PLACEMENT_3D('',#4130,#4140,#4150);
#4170=CYLINDRICAL_SURFACE('',#4160,1.);
#4180=ORIENTED_EDGE('',*,*,#1670,.F.);
#4190=ORIENTED_EDGE('',*,*,#2300,.T.);
#4200=ORIENTED_EDGE('',*,*,#660,.T.);
#4210=ORIENTED_EDGE('',*,*,#2940,.F.);
#4220=EDGE_LOOP('',(#4210,#4200,#4190,#4180));
#4230=FACE_OUTER_BOUND('',#4220,.T.);
#4240=ADVANCED_FACE('',(#4230),#4170,.T.);
#4250=CLOSED_SHELL('',(#2420,#2590,#2760,#2980,#3150,#3320,#3490,#3660,
#3880,#4000,#4120,#4240,#2200,#1100));
#4260=MANIFOLD_SOLID_BREP('',#4250);
#4270=CARTESIAN_POINT('',(0.,0.,0.));
#4280=DIRECTION('',(0.,0.,1.));
#4290=DIRECTION('',(1.,0.,0.));
#4300=AXIS2_PLACEMENT_3D('',#4270,#4280,#4290);
#4310=APPLICATION_CONTEXT(' ');
#4320=APPLICATION_PROTOCOL_DEFINITION(' ','automotive_design',1998,#4310
);
#4330=PRODUCT_CONTEXT('',#4310,'mechanical');
#4340=PRODUCT_DEFINITION_CONTEXT('part definition',#4310,'design');
#4350=PRODUCT('CBD.70-PT','CBD.70-PT','',(#4330));
#4360=PRODUCT_RELATED_PRODUCT_CATEGORY('part',' ',(#4350));
#4370=PRODUCT_DEFINITION_FORMATION_WITH_SPECIFIED_SOURCE('','',#4350,
.BOUGHT.);
#4380=PRODUCT_DEFINITION('',' ',#4370,#4340);
#4390=PRODUCT_DEFINITION_SHAPE('','',#4380);
#4400=DIMENSIONAL_EXPONENTS(1.,0.,0.,0.,0.,0.,0.);
#4410=DIMENSIONAL_EXPONENTS(0.,0.,0.,0.,0.,0.,0.);
#4420=DIMENSIONAL_EXPONENTS(0.,0.,0.,0.,0.,0.,0.);
#4430=(LENGTH_UNIT() NAMED_UNIT(*) SI_UNIT(.MILLI.,.METRE.));
#4440=(NAMED_UNIT(*) PLANE_ANGLE_UNIT() SI_UNIT($,.RADIAN.));
#4450=(NAMED_UNIT(*) SI_UNIT($,.STERADIAN.) SOLID_ANGLE_UNIT());
#4460=(GEOMETRIC_REPRESENTATION_CONTEXT(3) 
GLOBAL_UNCERTAINTY_ASSIGNED_CONTEXT((#4470)) 
GLOBAL_UNIT_ASSIGNED_CONTEXT((#4430,#4440,#4450)) REPRESENTATION_CONTEXT
('',''));
#4470=UNCERTAINTY_MEASURE_WITH_UNIT(LENGTH_MEASURE(1.E-6),#4430,
'distance_accuracy_value','maximum gap value');
#4480=ADVANCED_BREP_SHAPE_REPRESENTATION('',(#4300,#4260),#4460);
#4490=SHAPE_DEFINITION_REPRESENTATION(#4390,#4480);
#4500=COLOUR_RGB('',1.,0.878431439399719,0.701960802078247);
#4510=FILL_AREA_STYLE_COLOUR('',#4500);
#4520=FILL_AREA_STYLE('',(#4510));
#4530=SURFACE_STYLE_FILL_AREA(#4520);
#4540=SURFACE_SIDE_STYLE('',(#4530));
#4550=SURFACE_STYLE_USAGE(.BOTH.,#4540);
#4560=PRESENTATION_STYLE_ASSIGNMENT((#4550));
#4570=STYLED_ITEM('',(#4560),#4260);
#4580=DRAUGHTING_MODEL('',(#4570),#4460);
ENDSEC;
END-ISO-10303-21;
