ISO-10303-21;
HEADER;
FILE_DESCRIPTION (( 'STEP AP203' ),
    '1' );
FILE_NAME ('CTR10-032-K41-030I Òðóáà ãëàäêàÿ æåñòêàÿ ÏÂÕ d32 ÈÝÊ ñåðàÿ (30ì),3ì.STEP',
    '2016-04-27T08:16:24',
    ( '' ),
    ( '' ),
    'SwSTEP 2.0',
    'SolidWorks 2014',
    '' );
FILE_SCHEMA (( 'CONFIG_CONTROL_DESIGN' ));
ENDSEC;

DATA;
#1 = CARTESIAN_POINT ( 'NONE',  ( 0.0000000000000000000, 0.0000000000000000000, -14.90000000000000000 ) ) ;
#2 = COORDINATED_UNIVERSAL_TIME_OFFSET ( 3, 0, .AHEAD. ) ;
#3 = DIRECTION ( 'NONE',  ( 0.0000000000000000000, 0.0000000000000000000, 1.000000000000000000 ) ) ;
#4 = AXIS2_PLACEMENT_3D ( 'NONE', #80, #167, #96 ) ;
#5 = APPROVAL_DATE_TIME ( #43, #9 ) ;
#6 = PERSON_AND_ORGANIZATION_ROLE ( 'creator' ) ;
#7 = CC_DESIGN_DATE_AND_TIME_ASSIGNMENT ( #71, #33, ( #152 ) ) ;
#8 = AXIS2_PLACEMENT_3D ( 'NONE', #168, #72, #3 ) ;
#9 = APPROVAL ( #124, 'UNSPECIFIED' ) ;
#10 = DIRECTION ( 'NONE',  ( 1.000000000000000000, 0.0000000000000000000, 0.0000000000000000000 ) ) ;
#11 = DIRECTION ( 'NONE',  ( 1.000000000000000000, 0.0000000000000000000, 0.0000000000000000000 ) ) ;
#12 = DESIGN_CONTEXT ( 'detailed design', #21, 'design' ) ;
#13 = CARTESIAN_POINT ( 'NONE',  ( 3000.000000000000000, 0.0000000000000000000, -14.90000000000000000 ) ) ;
#14 = VERTEX_POINT ( 'NONE', #155 ) ;
#15 = AXIS2_PLACEMENT_3D ( 'NONE', #60, #143, #70 ) ;
#16 = EDGE_LOOP ( 'NONE', ( #19 ) ) ;
#17 = SECURITY_CLASSIFICATION_LEVEL ( 'unclassified' ) ;
#18 = FACE_BOUND ( 'NONE', #91, .T. ) ;
#19 = ORIENTED_EDGE ( 'NONE', *, *, #27, .F. ) ;
#20 = APPROVAL_PERSON_ORGANIZATION ( #58, #79, #139 ) ;
#21 = APPLICATION_CONTEXT ( 'configuration controlled 3d designs of mechanical parts and assemblies' ) ;
#22 = VERTEX_POINT ( 'NONE', #1 ) ;
#23 = AXIS2_PLACEMENT_3D ( 'NONE', #111, #62, #160 ) ;
#24 = CALENDAR_DATE ( 2016, 27, 4 ) ;
#25 = CC_DESIGN_APPROVAL ( #9, ( #152 ) ) ;
#26 = CIRCLE ( 'NONE', #23, 16.00000000000000000 ) ;
#27 = EDGE_CURVE ( 'NONE', #95, #95, #36, .T. ) ;
#28 = ORIENTED_EDGE ( 'NONE', *, *, #27, .T. ) ;
#29 = CARTESIAN_POINT ( 'NONE',  ( 0.0000000000000000000, 0.0000000000000000000, 0.0000000000000000000 ) ) ;
#30 = ORIENTED_EDGE ( 'NONE', *, *, #81, .T. ) ;
#31 = PERSON_AND_ORGANIZATION ( #97, #127 ) ;
#32 = DIRECTION ( 'NONE',  ( 1.000000000000000000, 0.0000000000000000000, 0.0000000000000000000 ) ) ;
#33 = DATE_TIME_ROLE ( 'classification_date' ) ;
#34 = CC_DESIGN_SECURITY_CLASSIFICATION ( #152, ( #117 ) ) ;
#35 = CALENDAR_DATE ( 2016, 27, 4 ) ;
#36 = CIRCLE ( 'NONE', #4, 16.00000000000000000 ) ;
#37 = EDGE_CURVE ( 'NONE', #14, #14, #26, .T. ) ;
#38 = CALENDAR_DATE ( 2016, 27, 4 ) ;
#39 = APPROVAL_STATUS ( 'not_yet_approved' ) ;
#40 = PERSON_AND_ORGANIZATION ( #97, #127 ) ;
#41 =( LENGTH_UNIT ( ) NAMED_UNIT ( * ) SI_UNIT ( .MILLI., .METRE. ) );
#42 = ORIENTED_EDGE ( 'NONE', *, *, #37, .F. ) ;
#43 = DATE_AND_TIME ( #75, #105 ) ;
#44 = PRODUCT_RELATED_PRODUCT_CATEGORY ( 'detail', '', ( #158 ) ) ;
#45 = LOCAL_TIME ( 11, 16, 24.00000000000000000, #76 ) ;
#46 = MECHANICAL_CONTEXT ( 'NONE', #77, 'mechanical' ) ;
#47 = APPROVAL_ROLE ( '' ) ;
#48 = ADVANCED_FACE ( 'NONE', ( #164, #68 ), #145, .F. ) ;
#49 = CYLINDRICAL_SURFACE ( 'NONE', #146, 16.00000000000000000 ) ;
#50 =( NAMED_UNIT ( * ) SI_UNIT ( $, .STERADIAN. ) SOLID_ANGLE_UNIT ( ) );
#51 = EDGE_CURVE ( 'NONE', #22, #22, #56, .T. ) ;
#52 = AXIS2_PLACEMENT_3D ( 'NONE', #99, #163, #92 ) ;
#53 = EDGE_LOOP ( 'NONE', ( #42 ) ) ;
#54 = ADVANCED_FACE ( 'NONE', ( #126, #118 ), #49, .T. ) ;
#55 = DIRECTION ( 'NONE',  ( 0.0000000000000000000, 0.0000000000000000000, 1.000000000000000000 ) ) ;
#56 = CIRCLE ( 'NONE', #120, 14.90000000000000000 ) ;
#57 = ORIENTED_EDGE ( 'NONE', *, *, #81, .F. ) ;
#58 = PERSON_AND_ORGANIZATION ( #97, #127 ) ;
#59 = UNCERTAINTY_MEASURE_WITH_UNIT (LENGTH_MEASURE( 1.000000000000000100E-005 ), #41, 'distance_accuracy_value', 'NONE');
#60 = CARTESIAN_POINT ( 'NONE',  ( 3000.000000000000000, 0.0000000000000000000, 0.0000000000000000000 ) ) ;
#61 = FACE_OUTER_BOUND ( 'NONE', #119, .T. ) ;
#62 = DIRECTION ( 'NONE',  ( 1.000000000000000000, 0.0000000000000000000, 0.0000000000000000000 ) ) ;
#63 = CC_DESIGN_PERSON_AND_ORGANIZATION_ASSIGNMENT ( #94, #102, ( #158 ) ) ;
#64 = APPLICATION_PROTOCOL_DEFINITION ( 'international standard', 'config_control_design', 1994, #77 ) ;
#65 = PERSON_AND_ORGANIZATION_ROLE ( 'creator' ) ;
#66 = PERSON_AND_ORGANIZATION ( #97, #127 ) ;
#67 = LOCAL_TIME ( 11, 16, 24.00000000000000000, #106 ) ;
#68 = FACE_BOUND ( 'NONE', #136, .T. ) ;
#69 = LOCAL_TIME ( 11, 16, 24.00000000000000000, #108 ) ;
#70 = DIRECTION ( 'NONE',  ( 0.0000000000000000000, 0.0000000000000000000, -1.000000000000000000 ) ) ;
#71 = DATE_AND_TIME ( #109, #137 ) ;
#72 = DIRECTION ( 'NONE',  ( -1.000000000000000000, -0.0000000000000000000, -0.0000000000000000000 ) ) ;
#73 = PRODUCT_DEFINITION ( 'UNKNOWN', '', #117, #12 ) ;
#74 = EDGE_LOOP ( 'NONE', ( #30 ) ) ;
#75 = CALENDAR_DATE ( 2016, 27, 4 ) ;
#76 = COORDINATED_UNIVERSAL_TIME_OFFSET ( 3, 0, .AHEAD. ) ;
#77 = APPLICATION_CONTEXT ( 'configuration controlled 3d designs of mechanical parts and assemblies' ) ;
#78 = APPROVAL_STATUS ( 'not_yet_approved' ) ;
#79 = APPROVAL ( #39, 'UNSPECIFIED' ) ;
#80 = CARTESIAN_POINT ( 'NONE',  ( 0.0000000000000000000, 0.0000000000000000000, 0.0000000000000000000 ) ) ;
#81 = EDGE_CURVE ( 'NONE', #151, #151, #86, .T. ) ;
#82 = ADVANCED_BREP_SHAPE_REPRESENTATION ( 'CTR10-032-K41-030I T¨ºñð óûðôúð  öõ¸ªúð  ¦T- d32 L¦¦ ¸õ¨ð  (30ü),3ü', ( #84, #52 ), #156 ) ;
#83 = CARTESIAN_POINT ( 'NONE',  ( 0.0000000000000000000, 0.0000000000000000000, -16.00000000000000000 ) ) ;
#84 = MANIFOLD_SOLID_BREP ( 'Áîáûøêà-Âûòÿíóòü1', #131 ) ;
#85 = APPROVAL_ROLE ( '' ) ;
#86 = CIRCLE ( 'NONE', #140, 14.90000000000000000 ) ;
#87 = ORIENTED_EDGE ( 'NONE', *, *, #51, .F. ) ;
#88 = CC_DESIGN_APPROVAL ( #79, ( #73 ) ) ;
#89 = APPROVAL_PERSON_ORGANIZATION ( #125, #123, #85 ) ;
#90 = FACE_OUTER_BOUND ( 'NONE', #74, .T. ) ;
#91 = EDGE_LOOP ( 'NONE', ( #57 ) ) ;
#92 = DIRECTION ( 'NONE',  ( 1.000000000000000000, 0.0000000000000000000, 0.0000000000000000000 ) ) ;
#93 = PRODUCT_DEFINITION_SHAPE ( 'NONE', 'NONE',  #73 ) ;
#94 = PERSON_AND_ORGANIZATION ( #97, #127 ) ;
#95 = VERTEX_POINT ( 'NONE', #83 ) ;
#96 = DIRECTION ( 'NONE',  ( 0.0000000000000000000, 0.0000000000000000000, -1.000000000000000000 ) ) ;
#97 = PERSON ( 'UNSPECIFIED', 'UNSPECIFIED', 'UNSPECIFIED', ('UNSPECIFIED'), ('UNSPECIFIED'), ('UNSPECIFIED') ) ;
#98 = CARTESIAN_POINT ( 'NONE',  ( 0.0000000000000000000, 0.0000000000000000000, 0.0000000000000000000 ) ) ;
#99 = CARTESIAN_POINT ( 'NONE',  ( 0.0000000000000000000, 0.0000000000000000000, 0.0000000000000000000 ) ) ;
#100 = CC_DESIGN_PERSON_AND_ORGANIZATION_ASSIGNMENT ( #115, #65, ( #73 ) ) ;
#101 = PERSON_AND_ORGANIZATION_ROLE ( 'design_supplier' ) ;
#102 = PERSON_AND_ORGANIZATION_ROLE ( 'design_owner' ) ;
#103 = PERSON_AND_ORGANIZATION ( #97, #127 ) ;
#104 = ADVANCED_FACE ( 'NONE', ( #90, #147 ), #150, .F. ) ;
#105 = LOCAL_TIME ( 11, 16, 24.00000000000000000, #135 ) ;
#106 = COORDINATED_UNIVERSAL_TIME_OFFSET ( 3, 0, .AHEAD. ) ;
#107 = ORIENTED_EDGE ( 'NONE', *, *, #51, .T. ) ;
#108 = COORDINATED_UNIVERSAL_TIME_OFFSET ( 3, 0, .AHEAD. ) ;
#109 = CALENDAR_DATE ( 2016, 27, 4 ) ;
#110 = CC_DESIGN_DATE_AND_TIME_ASSIGNMENT ( #153, #149, ( #73 ) ) ;
#111 = CARTESIAN_POINT ( 'NONE',  ( 3000.000000000000000, 0.0000000000000000000, 0.0000000000000000000 ) ) ;
#112 = DIRECTION ( 'NONE',  ( 0.0000000000000000000, 0.0000000000000000000, -1.000000000000000000 ) ) ;
#113 = CARTESIAN_POINT ( 'NONE',  ( 3000.000000000000000, 0.0000000000000000000, 0.0000000000000000000 ) ) ;
#114 = PERSON_AND_ORGANIZATION_ROLE ( 'classification_officer' ) ;
#115 = PERSON_AND_ORGANIZATION ( #97, #127 ) ;
#116 = APPLICATION_PROTOCOL_DEFINITION ( 'international standard', 'config_control_design', 1994, #21 ) ;
#117 = PRODUCT_DEFINITION_FORMATION_WITH_SPECIFIED_SOURCE ( 'ANY', '', #158, .NOT_KNOWN. ) ;
#118 = FACE_OUTER_BOUND ( 'NONE', #169, .T. ) ;
#119 = EDGE_LOOP ( 'NONE', ( #128 ) ) ;
#120 = AXIS2_PLACEMENT_3D ( 'NONE', #98, #11, #112 ) ;
#121 = SHAPE_DEFINITION_REPRESENTATION ( #93, #82 ) ;
#122 = DIRECTION ( 'NONE',  ( 0.0000000000000000000, 0.0000000000000000000, -1.000000000000000000 ) ) ;
#123 = APPROVAL ( #78, 'UNSPECIFIED' ) ;
#124 = APPROVAL_STATUS ( 'not_yet_approved' ) ;
#125 = PERSON_AND_ORGANIZATION ( #97, #127 ) ;
#126 = FACE_OUTER_BOUND ( 'NONE', #53, .T. ) ;
#127 = ORGANIZATION ( 'UNSPECIFIED', 'UNSPECIFIED', '' ) ;
#128 = ORIENTED_EDGE ( 'NONE', *, *, #37, .T. ) ;
#129 = AXIS2_PLACEMENT_3D ( 'NONE', #29, #10, #133 ) ;
#130 =( NAMED_UNIT ( * ) PLANE_ANGLE_UNIT ( ) SI_UNIT ( $, .RADIAN. ) );
#131 = CLOSED_SHELL ( 'NONE', ( #159, #48, #54, #104 ) ) ;
#132 = CC_DESIGN_APPROVAL ( #123, ( #117 ) ) ;
#133 = DIRECTION ( 'NONE',  ( 0.0000000000000000000, 0.0000000000000000000, -1.000000000000000000 ) ) ;
#134 = APPROVAL_DATE_TIME ( #165, #123 ) ;
#135 = COORDINATED_UNIVERSAL_TIME_OFFSET ( 3, 0, .AHEAD. ) ;
#136 = EDGE_LOOP ( 'NONE', ( #107 ) ) ;
#137 = LOCAL_TIME ( 11, 16, 24.00000000000000000, #2 ) ;
#138 = CC_DESIGN_PERSON_AND_ORGANIZATION_ASSIGNMENT ( #103, #6, ( #117 ) ) ;
#139 = APPROVAL_ROLE ( '' ) ;
#140 = AXIS2_PLACEMENT_3D ( 'NONE', #113, #32, #122 ) ;
#141 = CARTESIAN_POINT ( 'NONE',  ( 3000.000000000000000, 0.0000000000000000000, 0.0000000000000000000 ) ) ;
#142 = APPROVAL_DATE_TIME ( #162, #79 ) ;
#143 = DIRECTION ( 'NONE',  ( 1.000000000000000000, 0.0000000000000000000, 0.0000000000000000000 ) ) ;
#144 = CC_DESIGN_PERSON_AND_ORGANIZATION_ASSIGNMENT ( #66, #101, ( #117 ) ) ;
#145 = PLANE ( 'NONE',  #129 ) ;
#146 = AXIS2_PLACEMENT_3D ( 'NONE', #141, #154, #55 ) ;
#147 = FACE_OUTER_BOUND ( 'NONE', #148, .T. ) ;
#148 = EDGE_LOOP ( 'NONE', ( #87 ) ) ;
#149 = DATE_TIME_ROLE ( 'creation_date' ) ;
#150 = CYLINDRICAL_SURFACE ( 'NONE', #8, 14.90000000000000000 ) ;
#151 = VERTEX_POINT ( 'NONE', #13 ) ;
#152 = SECURITY_CLASSIFICATION ( '', '', #17 ) ;
#153 = DATE_AND_TIME ( #24, #45 ) ;
#154 = DIRECTION ( 'NONE',  ( -1.000000000000000000, -0.0000000000000000000, -0.0000000000000000000 ) ) ;
#155 = CARTESIAN_POINT ( 'NONE',  ( 3000.000000000000000, 0.0000000000000000000, -16.00000000000000000 ) ) ;
#156 =( GEOMETRIC_REPRESENTATION_CONTEXT ( 3 ) GLOBAL_UNCERTAINTY_ASSIGNED_CONTEXT ( ( #59 ) ) GLOBAL_UNIT_ASSIGNED_CONTEXT ( ( #41, #130, #50 ) ) REPRESENTATION_CONTEXT ( 'NONE', 'WORKASPACE' ) );
#157 = PLANE ( 'NONE',  #15 ) ;
#158 = PRODUCT ( 'CTR10-032-K41-030I Òðóáà ãëàäêàÿ æåñòêàÿ ÏÂÕ d32 ÈÝÊ ñåðàÿ (30ì),3ì', 'CTR10-032-K41-030I Òðóáà ãëàäêàÿ æåñòêàÿ ÏÂÕ d32 ÈÝÊ ñåðàÿ (30ì),3ì', '', ( #46 ) ) ;
#159 = ADVANCED_FACE ( 'NONE', ( #61, #18 ), #157, .T. ) ;
#160 = DIRECTION ( 'NONE',  ( 0.0000000000000000000, 0.0000000000000000000, -1.000000000000000000 ) ) ;
#161 = CC_DESIGN_PERSON_AND_ORGANIZATION_ASSIGNMENT ( #31, #114, ( #152 ) ) ;
#162 = DATE_AND_TIME ( #35, #67 ) ;
#163 = DIRECTION ( 'NONE',  ( 0.0000000000000000000, 0.0000000000000000000, 1.000000000000000000 ) ) ;
#164 = FACE_OUTER_BOUND ( 'NONE', #16, .T. ) ;
#165 = DATE_AND_TIME ( #38, #69 ) ;
#166 = APPROVAL_PERSON_ORGANIZATION ( #40, #9, #47 ) ;
#167 = DIRECTION ( 'NONE',  ( 1.000000000000000000, 0.0000000000000000000, 0.0000000000000000000 ) ) ;
#168 = CARTESIAN_POINT ( 'NONE',  ( 3000.000000000000000, 0.0000000000000000000, 0.0000000000000000000 ) ) ;
#169 = EDGE_LOOP ( 'NONE', ( #28 ) ) ;
ENDSEC;
END-ISO-10303-21;
