ISO-10303-21;
HEADER;
FILE_DESCRIPTION (( 'STEP AP203' ),
    '1' );
FILE_NAME ('Ãèëüçà àëþìèíèåâàÿ GL-25-7 (ÃÀ) EKF.STEP',
    '2016-12-30T10:32:08',
    ( 'kuryshev' ),
    ( '' ),
    'SwSTEP 2.0',
    'SolidWorks 2010',
    '' );
FILE_SCHEMA (( 'CONFIG_CONTROL_DESIGN' ));
ENDSEC;

DATA;
#1 = MANIFOLD_SOLID_BREP ( 'Ñêðóãëåíèå2', #8 ) ;
#2 = UNCERTAINTY_MEASURE_WITH_UNIT (LENGTH_MEASURE( 1.000000000000000100E-005 ), #218, 'distance_accuracy_value', 'NONE');
#3 = AXIS2_PLACEMENT_3D ( 'NONE', #176, #177, #178 ) ;
#4 = PRODUCT_DEFINITION_SHAPE ( 'NONE', 'NONE',  #282 ) ;
#5 = DESIGN_CONTEXT ( 'detailed design', #235, 'design' ) ;
#6 = ORIENTED_EDGE ( 'NONE', *, *, #311, .T. ) ;
#7 = ORIENTED_EDGE ( 'NONE', *, *, #307, .F. ) ;
#8 = CLOSED_SHELL ( 'NONE', ( #108, #112, #110, #109, #111, #107, #106, #105, #104, #103 ) ) ;
#9 = ORIENTED_EDGE ( 'NONE', *, *, #310, .F. ) ;
#10 = ORIENTED_EDGE ( 'NONE', *, *, #308, .T. ) ;
#11 = TOROIDAL_SURFACE ( 'NONE', #305, 5.000000000000000900, 1.000000000000000000 ) ;
#12 = ORIENTED_EDGE ( 'NONE', *, *, #302, .F. ) ;
#13 = FACE_OUTER_BOUND ( 'NONE', #60, .T. ) ;
#14 = ORIENTED_EDGE ( 'NONE', *, *, #312, .F. ) ;
#15 = ORIENTED_EDGE ( 'NONE', *, *, #309, .F. ) ;
#16 = ORIENTED_EDGE ( 'NONE', *, *, #255, .F. ) ;
#17 = ORIENTED_EDGE ( 'NONE', *, *, #258, .T. ) ;
#18 = ORIENTED_EDGE ( 'NONE', *, *, #257, .T. ) ;
#19 = ORIENTED_EDGE ( 'NONE', *, *, #259, .F. ) ;
#20 = ORIENTED_EDGE ( 'NONE', *, *, #310, .T. ) ;
#21 = ORIENTED_EDGE ( 'NONE', *, *, #304, .F. ) ;
#22 = ORIENTED_EDGE ( 'NONE', *, *, #256, .T. ) ;
#23 = ORIENTED_EDGE ( 'NONE', *, *, #309, .T. ) ;
#24 = ORIENTED_EDGE ( 'NONE', *, *, #261, .F. ) ;
#25 = ORIENTED_EDGE ( 'NONE', *, *, #302, .T. ) ;
#26 = ORIENTED_EDGE ( 'NONE', *, *, #260, .T. ) ;
#27 = ORIENTED_EDGE ( 'NONE', *, *, #266, .T. ) ;
#28 = ORIENTED_EDGE ( 'NONE', *, *, #258, .F. ) ;
#29 = ORIENTED_EDGE ( 'NONE', *, *, #263, .F. ) ;
#30 = ORIENTED_EDGE ( 'NONE', *, *, #312, .T. ) ;
#31 = ORIENTED_EDGE ( 'NONE', *, *, #304, .T. ) ;
#32 = ORIENTED_EDGE ( 'NONE', *, *, #264, .T. ) ;
#33 = ORIENTED_EDGE ( 'NONE', *, *, #256, .F. ) ;
#34 = ORIENTED_EDGE ( 'NONE', *, *, #265, .T. ) ;
#35 = ORIENTED_EDGE ( 'NONE', *, *, #261, .T. ) ;
#36 = ORIENTED_EDGE ( 'NONE', *, *, #262, .T. ) ;
#37 = ORIENTED_EDGE ( 'NONE', *, *, #257, .F. ) ;
#38 = ORIENTED_EDGE ( 'NONE', *, *, #263, .T. ) ;
#39 = ORIENTED_EDGE ( 'NONE', *, *, #259, .T. ) ;
#40 = ORIENTED_EDGE ( 'NONE', *, *, #264, .F. ) ;
#41 = ORIENTED_EDGE ( 'NONE', *, *, #311, .F. ) ;
#42 = ORIENTED_EDGE ( 'NONE', *, *, #266, .F. ) ;
#43 = ORIENTED_EDGE ( 'NONE', *, *, #255, .T. ) ;
#44 = ORIENTED_EDGE ( 'NONE', *, *, #262, .F. ) ;
#45 = ORIENTED_EDGE ( 'NONE', *, *, #308, .F. ) ;
#46 = ORIENTED_EDGE ( 'NONE', *, *, #265, .F. ) ;
#47 = ORIENTED_EDGE ( 'NONE', *, *, #307, .T. ) ;
#48 = ORIENTED_EDGE ( 'NONE', *, *, #260, .F. ) ;
#49 = EDGE_LOOP ( 'NONE', ( #17, #18, #21, #19 ) ) ;
#50 = EDGE_LOOP ( 'NONE', ( #25, #26 ) ) ;
#51 = EDGE_LOOP ( 'NONE', ( #33, #34, #35, #36 ) ) ;
#52 = EDGE_LOOP ( 'NONE', ( #28, #29 ) ) ;
#53 = EDGE_LOOP ( 'NONE', ( #37, #38, #39, #40 ) ) ;
#54 = EDGE_LOOP ( 'NONE', ( #20, #22, #23, #24 ) ) ;
#55 = EDGE_LOOP ( 'NONE', ( #9, #10, #12, #7 ) ) ;
#56 = EDGE_LOOP ( 'NONE', ( #27, #30 ) ) ;
#57 = EDGE_LOOP ( 'NONE', ( #14, #6, #15, #16 ) ) ;
#58 = EDGE_LOOP ( 'NONE', ( #45, #46, #47, #48 ) ) ;
#59 = EDGE_LOOP ( 'NONE', ( #31, #32 ) ) ;
#60 = EDGE_LOOP ( 'NONE', ( #41, #42, #43, #44 ) ) ;
#61 = FACE_OUTER_BOUND ( 'NONE', #51, .T. ) ;
#62 = FACE_OUTER_BOUND ( 'NONE', #58, .T. ) ;
#63 = FACE_OUTER_BOUND ( 'NONE', #56, .T. ) ;
#64 = TOROIDAL_SURFACE ( 'NONE', #303, 5.000000000000000900, 1.000000000000000000 ) ;
#65 = LINE ( 'NONE', #173, #84 ) ;
#66 = FACE_OUTER_BOUND ( 'NONE', #53, .T. ) ;
#67 = FACE_OUTER_BOUND ( 'NONE', #55, .T. ) ;
#68 = CYLINDRICAL_SURFACE ( 'NONE', #352, 3.500000000000000000 ) ;
#69 = TOROIDAL_SURFACE ( 'NONE', #353, 5.000000000000000900, 1.000000000000000000 ) ;
#70 = CYLINDRICAL_SURFACE ( 'NONE', #300, 6.000000000000000900 ) ;
#71 = FACE_BOUND ( 'NONE', #59, .T. ) ;
#72 = FACE_OUTER_BOUND ( 'NONE', #49, .T. ) ;
#73 = FACE_OUTER_BOUND ( 'NONE', #50, .T. ) ;
#74 = FACE_OUTER_BOUND ( 'NONE', #54, .T. ) ;
#75 = FACE_OUTER_BOUND ( 'NONE', #57, .T. ) ;
#76 = CYLINDRICAL_SURFACE ( 'NONE', #253, 6.000000000000000900 ) ;
#77 = TOROIDAL_SURFACE ( 'NONE', #350, 5.000000000000000900, 1.000000000000000000 ) ;
#78 = CYLINDRICAL_SURFACE ( 'NONE', #306, 3.500000000000000000 ) ;
#79 = FACE_BOUND ( 'NONE', #52, .T. ) ;
#80 = VECTOR ( 'NONE', #174, 1000.000000000000000 ) ;
#81 = VECTOR ( 'NONE', #181, 1000.000000000000000 ) ;
#82 = LINE ( 'NONE', #169, #80 ) ;
#83 = CIRCLE ( 'NONE', #267, 1.000000000000000000 ) ;
#84 = VECTOR ( 'NONE', #175, 1000.000000000000000 ) ;
#85 = LINE ( 'NONE', #180, #81 ) ;
#86 = VECTOR ( 'NONE', #186, 1000.000000000000000 ) ;
#87 = CIRCLE ( 'NONE', #3, 3.500000000000000000 ) ;
#88 = LINE ( 'NONE', #179, #86 ) ;
#89 = CIRCLE ( 'NONE', #268, 5.000000000000000900 ) ;
#90 = CIRCLE ( 'NONE', #351, 6.000000000000000900 ) ;
#91 = CIRCLE ( 'NONE', #254, 3.500000000000000000 ) ;
#92 = CIRCLE ( 'NONE', #269, 3.500000000000000000 ) ;
#93 = CIRCLE ( 'NONE', #271, 6.000000000000000900 ) ;
#94 = CIRCLE ( 'NONE', #270, 5.000000000000000900 ) ;
#95 = CIRCLE ( 'NONE', #274, 5.000000000000000900 ) ;
#96 = CIRCLE ( 'NONE', #273, 3.500000000000000000 ) ;
#97 = CIRCLE ( 'NONE', #275, 1.000000000000000900 ) ;
#98 = CIRCLE ( 'NONE', #272, 1.000000000000000000 ) ;
#99 = CIRCLE ( 'NONE', #276, 6.000000000000000900 ) ;
#100 = CIRCLE ( 'NONE', #278, 6.000000000000000900 ) ;
#101 = CIRCLE ( 'NONE', #279, 1.000000000000000000 ) ;
#102 = CIRCLE ( 'NONE', #277, 5.000000000000000900 ) ;
#103 = ADVANCED_FACE ( 'NONE', ( #62 ), #11, .T. ) ;
#104 = ADVANCED_FACE ( 'NONE', ( #13 ), #64, .T. ) ;
#105 = ADVANCED_FACE ( 'NONE', ( #66 ), #68, .F. ) ;
#106 = ADVANCED_FACE ( 'NONE', ( #61 ), #70, .T. ) ;
#107 = ADVANCED_FACE ( 'NONE', ( #63, #71 ), #140, .F. ) ;
#108 = ADVANCED_FACE ( 'NONE', ( #67 ), #69, .T. ) ;
#109 = ADVANCED_FACE ( 'NONE', ( #74 ), #76, .T. ) ;
#110 = ADVANCED_FACE ( 'NONE', ( #72 ), #78, .F. ) ;
#111 = ADVANCED_FACE ( 'NONE', ( #73, #79 ), #153, .T. ) ;
#112 = ADVANCED_FACE ( 'NONE', ( #75 ), #77, .T. ) ;
#113 = VERTEX_POINT ( 'NONE', #158 ) ;
#114 = VERTEX_POINT ( 'NONE', #160 ) ;
#115 = VERTEX_POINT ( 'NONE', #157 ) ;
#116 = VERTEX_POINT ( 'NONE', #161 ) ;
#117 = VERTEX_POINT ( 'NONE', #162 ) ;
#118 = DIRECTION ( 'NONE',  ( 0.0000000000000000000, 0.0000000000000000000, 1.000000000000000000 ) ) ;
#119 = DIRECTION ( 'NONE',  ( -0.0000000000000000000, -0.0000000000000000000, -1.000000000000000000 ) ) ;
#120 = CARTESIAN_POINT ( 'NONE',  ( 0.0000000000000000000, 0.0000000000000000000, 1.000000000000000900 ) ) ;
#121 = CARTESIAN_POINT ( 'NONE',  ( 0.0000000000000000000, 0.0000000000000000000, 62.00000000000000000 ) ) ;
#122 = VERTEX_POINT ( 'NONE', #163 ) ;
#123 = VERTEX_POINT ( 'NONE', #164 ) ;
#124 = VERTEX_POINT ( 'NONE', #165 ) ;
#125 = VERTEX_POINT ( 'NONE', #148 ) ;
#126 = VERTEX_POINT ( 'NONE', #166 ) ;
#127 = VERTEX_POINT ( 'NONE', #167 ) ;
#128 = VERTEX_POINT ( 'NONE', #168 ) ;
#129 = DIRECTION ( 'NONE',  ( 0.0000000000000000000, 0.0000000000000000000, 1.000000000000000000 ) ) ;
#130 = DIRECTION ( 'NONE',  ( 1.000000000000000000, 0.0000000000000000000, 0.0000000000000000000 ) ) ;
#131 = DIRECTION ( 'NONE',  ( -1.000000000000000000, 0.0000000000000000000, 0.0000000000000000000 ) ) ;
#132 = DIRECTION ( 'NONE',  ( -1.000000000000000000, 0.0000000000000000000, 0.0000000000000000000 ) ) ;
#133 = DIRECTION ( 'NONE',  ( 1.000000000000000000, 0.0000000000000000000, 0.0000000000000000000 ) ) ;
#134 = CARTESIAN_POINT ( 'NONE',  ( 0.0000000000000000000, 0.0000000000000000000, 63.00000000000000000 ) ) ;
#135 = DIRECTION ( 'NONE',  ( -1.000000000000000000, 0.0000000000000000000, 0.0000000000000000000 ) ) ;
#136 = DIRECTION ( 'NONE',  ( -0.0000000000000000000, -0.0000000000000000000, -1.000000000000000000 ) ) ;
#137 = CARTESIAN_POINT ( 'NONE',  ( 0.0000000000000000000, 0.0000000000000000000, 63.00000000000000000 ) ) ;
#138 = CARTESIAN_POINT ( 'NONE',  ( 0.0000000000000000000, 0.0000000000000000000, 62.00000000000000000 ) ) ;
#139 = CARTESIAN_POINT ( 'NONE',  ( 0.0000000000000000000, 0.0000000000000000000, 0.0000000000000000000 ) ) ;
#140 = PLANE ( 'NONE',  #299 ) ;
#141 = DIRECTION ( 'NONE',  ( 0.0000000000000000000, 0.0000000000000000000, 1.000000000000000000 ) ) ;
#142 = DIRECTION ( 'NONE',  ( 0.0000000000000000000, 0.0000000000000000000, 1.000000000000000000 ) ) ;
#143 = DIRECTION ( 'NONE',  ( 1.000000000000000000, 0.0000000000000000000, -0.0000000000000000000 ) ) ;
#144 = DIRECTION ( 'NONE',  ( -0.0000000000000000000, -0.0000000000000000000, -1.000000000000000000 ) ) ;
#145 = DIRECTION ( 'NONE',  ( -1.000000000000000000, 0.0000000000000000000, 0.0000000000000000000 ) ) ;
#146 = DIRECTION ( 'NONE',  ( 1.000000000000000000, 0.0000000000000000000, 0.0000000000000000000 ) ) ;
#147 = CARTESIAN_POINT ( 'NONE',  ( 0.0000000000000000000, 0.0000000000000000000, 63.00000000000000000 ) ) ;
#148 = CARTESIAN_POINT ( 'NONE',  ( -3.500000000000000000, 0.0000000000000000000, 63.00000000000000000 ) ) ;
#149 = DIRECTION ( 'NONE',  ( -0.0000000000000000000, -0.0000000000000000000, -1.000000000000000000 ) ) ;
#150 = CARTESIAN_POINT ( 'NONE',  ( 0.0000000000000000000, 0.0000000000000000000, 63.00000000000000000 ) ) ;
#151 = CARTESIAN_POINT ( 'NONE',  ( 0.0000000000000000000, 0.0000000000000000000, 1.000000000000000900 ) ) ;
#152 = CARTESIAN_POINT ( 'NONE',  ( 0.0000000000000000000, 0.0000000000000000000, 63.00000000000000000 ) ) ;
#153 = PLANE ( 'NONE',  #301 ) ;
#154 = DIRECTION ( 'NONE',  ( 0.0000000000000000000, 0.0000000000000000000, 1.000000000000000000 ) ) ;
#155 = DIRECTION ( 'NONE',  ( 0.0000000000000000000, 0.0000000000000000000, 1.000000000000000000 ) ) ;
#156 = DIRECTION ( 'NONE',  ( 1.000000000000000000, 0.0000000000000000000, -0.0000000000000000000 ) ) ;
#157 = CARTESIAN_POINT ( 'NONE',  ( -6.000000000000000900, 0.0000000000000000000, 62.00000000000000000 ) ) ;
#158 = CARTESIAN_POINT ( 'NONE',  ( 6.000000000000000900, 7.347880794884120700E-016, 62.00000000000000000 ) ) ;
#159 = DIRECTION ( 'NONE',  ( 1.000000000000000000, 0.0000000000000000000, 0.0000000000000000000 ) ) ;
#160 = CARTESIAN_POINT ( 'NONE',  ( 5.000000000000000900, 0.0000000000000000000, 0.0000000000000000000 ) ) ;
#161 = CARTESIAN_POINT ( 'NONE',  ( 6.000000000000000900, 7.347880794884120700E-016, 1.000000000000000900 ) ) ;
#162 = CARTESIAN_POINT ( 'NONE',  ( -6.000000000000000900, 0.0000000000000000000, 1.000000000000000900 ) ) ;
#163 = CARTESIAN_POINT ( 'NONE',  ( -5.000000000000000900, 6.735557395310443000E-016, 63.00000000000000000 ) ) ;
#164 = CARTESIAN_POINT ( 'NONE',  ( 5.000000000000000900, 0.0000000000000000000, 63.00000000000000000 ) ) ;
#165 = CARTESIAN_POINT ( 'NONE',  ( -5.000000000000000900, 6.735557395310443000E-016, 0.0000000000000000000 ) ) ;
#166 = CARTESIAN_POINT ( 'NONE',  ( 3.500000000000000000, 4.286263797015736600E-016, 63.00000000000000000 ) ) ;
#167 = CARTESIAN_POINT ( 'NONE',  ( 3.500000000000000000, 4.286263797015736600E-016, 0.0000000000000000000 ) ) ;
#168 = CARTESIAN_POINT ( 'NONE',  ( -3.500000000000000000, 0.0000000000000000000, 0.0000000000000000000 ) ) ;
#169 = CARTESIAN_POINT ( 'NONE',  ( 6.000000000000000900, 7.347880794884120700E-016, 63.00000000000000000 ) ) ;
#170 = CARTESIAN_POINT ( 'NONE',  ( 5.000000000000000900, 0.0000000000000000000, 1.000000000000000900 ) ) ;
#171 = DIRECTION ( 'NONE',  ( 0.0000000000000000000, -1.000000000000000000, 0.0000000000000000000 ) ) ;
#172 = DIRECTION ( 'NONE',  ( 0.0000000000000000000, 0.0000000000000000000, -1.000000000000000000 ) ) ;
#173 = CARTESIAN_POINT ( 'NONE',  ( 3.500000000000000000, 4.286263797015736600E-016, 63.00000000000000000 ) ) ;
#174 = DIRECTION ( 'NONE',  ( -0.0000000000000000000, -0.0000000000000000000, -1.000000000000000000 ) ) ;
#175 = DIRECTION ( 'NONE',  ( -0.0000000000000000000, -0.0000000000000000000, -1.000000000000000000 ) ) ;
#176 = CARTESIAN_POINT ( 'NONE',  ( 0.0000000000000000000, 0.0000000000000000000, 63.00000000000000000 ) ) ;
#177 = DIRECTION ( 'NONE',  ( 0.0000000000000000000, 0.0000000000000000000, 1.000000000000000000 ) ) ;
#178 = DIRECTION ( 'NONE',  ( 1.000000000000000000, 0.0000000000000000000, 0.0000000000000000000 ) ) ;
#179 = CARTESIAN_POINT ( 'NONE',  ( -6.000000000000000900, 0.0000000000000000000, 63.00000000000000000 ) ) ;
#180 = CARTESIAN_POINT ( 'NONE',  ( -3.500000000000000000, 0.0000000000000000000, 63.00000000000000000 ) ) ;
#181 = DIRECTION ( 'NONE',  ( -0.0000000000000000000, -0.0000000000000000000, -1.000000000000000000 ) ) ;
#182 = CARTESIAN_POINT ( 'NONE',  ( 0.0000000000000000000, 0.0000000000000000000, 63.00000000000000000 ) ) ;
#183 = DIRECTION ( 'NONE',  ( 0.0000000000000000000, 0.0000000000000000000, 1.000000000000000000 ) ) ;
#184 = DIRECTION ( 'NONE',  ( 1.000000000000000000, 0.0000000000000000000, 0.0000000000000000000 ) ) ;
#185 = CARTESIAN_POINT ( 'NONE',  ( 0.0000000000000000000, 0.0000000000000000000, 63.00000000000000000 ) ) ;
#186 = DIRECTION ( 'NONE',  ( -0.0000000000000000000, -0.0000000000000000000, -1.000000000000000000 ) ) ;
#187 = CARTESIAN_POINT ( 'NONE',  ( 0.0000000000000000000, 0.0000000000000000000, 1.000000000000000900 ) ) ;
#188 = CARTESIAN_POINT ( 'NONE',  ( 0.0000000000000000000, 0.0000000000000000000, 0.0000000000000000000 ) ) ;
#189 = DIRECTION ( 'NONE',  ( 0.0000000000000000000, 0.0000000000000000000, 1.000000000000000000 ) ) ;
#190 = DIRECTION ( 'NONE',  ( 1.000000000000000000, 0.0000000000000000000, 0.0000000000000000000 ) ) ;
#191 = DIRECTION ( 'NONE',  ( 0.0000000000000000000, 0.0000000000000000000, 1.000000000000000000 ) ) ;
#192 = DIRECTION ( 'NONE',  ( 1.000000000000000000, 0.0000000000000000000, 0.0000000000000000000 ) ) ;
#193 = CARTESIAN_POINT ( 'NONE',  ( 0.0000000000000000000, 0.0000000000000000000, 0.0000000000000000000 ) ) ;
#194 = DIRECTION ( 'NONE',  ( 0.0000000000000000000, 0.0000000000000000000, 1.000000000000000000 ) ) ;
#195 = DIRECTION ( 'NONE',  ( 1.000000000000000000, 0.0000000000000000000, 0.0000000000000000000 ) ) ;
#196 = CARTESIAN_POINT ( 'NONE',  ( 0.0000000000000000000, 0.0000000000000000000, 62.00000000000000000 ) ) ;
#197 = DIRECTION ( 'NONE',  ( -0.0000000000000000000, -0.0000000000000000000, -1.000000000000000000 ) ) ;
#198 = DIRECTION ( 'NONE',  ( 1.000000000000000000, 0.0000000000000000000, 0.0000000000000000000 ) ) ;
#199 = CARTESIAN_POINT ( 'NONE',  ( 0.0000000000000000000, 0.0000000000000000000, 0.0000000000000000000 ) ) ;
#200 = DIRECTION ( 'NONE',  ( -0.0000000000000000000, -0.0000000000000000000, -1.000000000000000000 ) ) ;
#201 = DIRECTION ( 'NONE',  ( 1.000000000000000000, 0.0000000000000000000, 0.0000000000000000000 ) ) ;
#202 = CARTESIAN_POINT ( 'NONE',  ( 0.0000000000000000000, 0.0000000000000000000, 63.00000000000000000 ) ) ;
#203 = CARTESIAN_POINT ( 'NONE',  ( 5.000000000000000900, 0.0000000000000000000, 62.00000000000000000 ) ) ;
#204 = DIRECTION ( 'NONE',  ( 0.0000000000000000000, 0.0000000000000000000, 1.000000000000000000 ) ) ;
#205 = DIRECTION ( 'NONE',  ( 1.000000000000000000, 0.0000000000000000000, 0.0000000000000000000 ) ) ;
#206 = CARTESIAN_POINT ( 'NONE',  ( 0.0000000000000000000, 0.0000000000000000000, 62.00000000000000000 ) ) ;
#207 = DIRECTION ( 'NONE',  ( 0.0000000000000000000, 0.0000000000000000000, 1.000000000000000000 ) ) ;
#208 = DIRECTION ( 'NONE',  ( 1.000000000000000000, 0.0000000000000000000, 0.0000000000000000000 ) ) ;
#209 = DIRECTION ( 'NONE',  ( 0.0000000000000000000, -1.000000000000000000, 0.0000000000000000000 ) ) ;
#210 = DIRECTION ( 'NONE',  ( 0.0000000000000000000, 0.0000000000000000000, -1.000000000000000000 ) ) ;
#211 = CARTESIAN_POINT ( 'NONE',  ( -5.000000000000000900, 6.123233995736767300E-016, 62.00000000000000000 ) ) ;
#212 = DIRECTION ( 'NONE',  ( 1.224646799147353200E-016, 1.000000000000000000, -0.0000000000000000000 ) ) ;
#213 = DIRECTION ( 'NONE',  ( -1.000000000000000000, 1.224646799147353500E-016, 0.0000000000000000000 ) ) ;
#214 = CARTESIAN_POINT ( 'NONE',  ( 0.0000000000000000000, 0.0000000000000000000, 1.000000000000000900 ) ) ;
#215 = CARTESIAN_POINT ( 'NONE',  ( -5.000000000000000900, 6.123233995736767300E-016, 1.000000000000000900 ) ) ;
#216 = DIRECTION ( 'NONE',  ( 0.0000000000000000000, 0.0000000000000000000, 1.000000000000000000 ) ) ;
#217 = DIRECTION ( 'NONE',  ( 1.000000000000000000, 0.0000000000000000000, 0.0000000000000000000 ) ) ;
#218 =( LENGTH_UNIT ( ) NAMED_UNIT ( * ) SI_UNIT ( .MILLI., .METRE. ) );
#219 = DIRECTION ( 'NONE',  ( -0.0000000000000000000, -0.0000000000000000000, -1.000000000000000000 ) ) ;
#220 = DIRECTION ( 'NONE',  ( 1.000000000000000000, 0.0000000000000000000, 0.0000000000000000000 ) ) ;
#221 = DIRECTION ( 'NONE',  ( 1.224646799147353200E-016, 1.000000000000000000, -0.0000000000000000000 ) ) ;
#222 = DIRECTION ( 'NONE',  ( -1.000000000000000000, 1.224646799147353500E-016, 0.0000000000000000000 ) ) ;
#223 = CARTESIAN_POINT ( 'NONE',  ( 0.0000000000000000000, 0.0000000000000000000, 0.0000000000000000000 ) ) ;
#224 =( NAMED_UNIT ( * ) PLANE_ANGLE_UNIT ( ) SI_UNIT ( $, .RADIAN. ) );
#225 = DIRECTION ( 'NONE',  ( -0.0000000000000000000, -0.0000000000000000000, -1.000000000000000000 ) ) ;
#226 = DIRECTION ( 'NONE',  ( 1.000000000000000000, 0.0000000000000000000, 0.0000000000000000000 ) ) ;
#227 =( NAMED_UNIT ( * ) SI_UNIT ( $, .STERADIAN. ) SOLID_ANGLE_UNIT ( ) );
#228 = CARTESIAN_POINT ( 'NONE',  ( 0.0000000000000000000, 0.0000000000000000000, 0.0000000000000000000 ) ) ;
#229 = DIRECTION ( 'NONE',  ( 0.0000000000000000000, 0.0000000000000000000, 1.000000000000000000 ) ) ;
#230 = DIRECTION ( 'NONE',  ( 1.000000000000000000, 0.0000000000000000000, 0.0000000000000000000 ) ) ;
#231 = APPLICATION_CONTEXT ( 'configuration controlled 3d designs of mechanical parts and assemblies' ) ;
#232 = APPLICATION_PROTOCOL_DEFINITION ( 'international standard', 'config_control_design', 1994, #231 ) ;
#233 = MECHANICAL_CONTEXT ( 'NONE', #231, 'mechanical' ) ;
#234 = PERSON_AND_ORGANIZATION_ROLE ( 'design_owner' ) ;
#235 = APPLICATION_CONTEXT ( 'configuration controlled 3d designs of mechanical parts and assemblies' ) ;
#236 = APPLICATION_PROTOCOL_DEFINITION ( 'international standard', 'config_control_design', 1994, #235 ) ;
#237 = APPROVAL_STATUS ( 'not_yet_approved' ) ;
#238 = APPROVAL_ROLE ( '' ) ;
#239 = PERSON_AND_ORGANIZATION_ROLE ( 'creator' ) ;
#240 = DATE_TIME_ROLE ( 'creation_date' ) ;
#241 = APPROVAL_STATUS ( 'not_yet_approved' ) ;
#242 = APPROVAL_ROLE ( '' ) ;
#243 = PERSON_AND_ORGANIZATION_ROLE ( 'creator' ) ;
#244 = PERSON_AND_ORGANIZATION_ROLE ( 'design_supplier' ) ;
#245 = SECURITY_CLASSIFICATION_LEVEL ( 'unclassified' ) ;
#246 = PERSON_AND_ORGANIZATION_ROLE ( 'classification_officer' ) ;
#247 = DATE_TIME_ROLE ( 'classification_date' ) ;
#248 = APPROVAL_STATUS ( 'not_yet_approved' ) ;
#249 = APPROVAL_ROLE ( '' ) ;
#250 = PRODUCT ( 'Ãèëüçà àëþìèíèåâàÿ GL-25-7 (ÃÀ) EKF', 'Ãèëüçà àëþìèíèåâàÿ GL-25-7 (ÃÀ) EKF', '', ( #233 ) ) ;
#251 = PERSON ( 'UNSPECIFIED', 'UNSPECIFIED', 'UNSPECIFIED', ('UNSPECIFIED'), ('UNSPECIFIED'), ('UNSPECIFIED') ) ;
#252 = ADVANCED_BREP_SHAPE_REPRESENTATION ( 'Ãèëüçà àëþìèíèåâàÿ GL-25-7 (ÃÀ) EKF', ( #1, #280 ), #313 ) ;
#253 = AXIS2_PLACEMENT_3D ( 'NONE', #147, #144, #145 ) ;
#254 = AXIS2_PLACEMENT_3D ( 'NONE', #185, #191, #192 ) ;
#255 = EDGE_CURVE ( 'NONE', #114, #116, #83, .T. ) ;
#256 = EDGE_CURVE ( 'NONE', #113, #116, #82, .T. ) ;
#257 = EDGE_CURVE ( 'NONE', #126, #127, #65, .T. ) ;
#258 = EDGE_CURVE ( 'NONE', #125, #126, #87, .T. ) ;
#259 = EDGE_CURVE ( 'NONE', #125, #128, #85, .T. ) ;
#260 = EDGE_CURVE ( 'NONE', #122, #123, #89, .T. ) ;
#261 = EDGE_CURVE ( 'NONE', #115, #117, #88, .T. ) ;
#262 = EDGE_CURVE ( 'NONE', #117, #116, #90, .T. ) ;
#263 = EDGE_CURVE ( 'NONE', #126, #125, #91, .T. ) ;
#264 = EDGE_CURVE ( 'NONE', #127, #128, #92, .T. ) ;
#265 = EDGE_CURVE ( 'NONE', #113, #115, #93, .T. ) ;
#266 = EDGE_CURVE ( 'NONE', #114, #124, #94, .T. ) ;
#267 = AXIS2_PLACEMENT_3D ( 'NONE', #170, #171, #172 ) ;
#268 = AXIS2_PLACEMENT_3D ( 'NONE', #182, #183, #184 ) ;
#269 = AXIS2_PLACEMENT_3D ( 'NONE', #188, #194, #195 ) ;
#270 = AXIS2_PLACEMENT_3D ( 'NONE', #193, #200, #201 ) ;
#271 = AXIS2_PLACEMENT_3D ( 'NONE', #196, #197, #198 ) ;
#272 = AXIS2_PLACEMENT_3D ( 'NONE', #211, #212, #213 ) ;
#273 = AXIS2_PLACEMENT_3D ( 'NONE', #199, #207, #208 ) ;
#274 = AXIS2_PLACEMENT_3D ( 'NONE', #202, #204, #205 ) ;
#275 = AXIS2_PLACEMENT_3D ( 'NONE', #203, #209, #210 ) ;
#276 = AXIS2_PLACEMENT_3D ( 'NONE', #214, #216, #217 ) ;
#277 = AXIS2_PLACEMENT_3D ( 'NONE', #223, #225, #226 ) ;
#278 = AXIS2_PLACEMENT_3D ( 'NONE', #206, #219, #220 ) ;
#279 = AXIS2_PLACEMENT_3D ( 'NONE', #215, #221, #222 ) ;
#280 = AXIS2_PLACEMENT_3D ( 'NONE', #228, #229, #230 ) ;
#281 = CC_DESIGN_PERSON_AND_ORGANIZATION_ASSIGNMENT ( #316, #234, ( #250 ) ) ;
#282 = PRODUCT_DEFINITION ( 'UNKNOWN', '', #287, #5 ) ;
#283 = APPROVAL ( #237, 'UNSPECIFIED' ) ;
#284 = CC_DESIGN_APPROVAL ( #283, ( #282 ) ) ;
#285 = CC_DESIGN_PERSON_AND_ORGANIZATION_ASSIGNMENT ( #324, #239, ( #282 ) ) ;
#286 = CC_DESIGN_DATE_AND_TIME_ASSIGNMENT ( #328, #240, ( #282 ) ) ;
#287 = PRODUCT_DEFINITION_FORMATION_WITH_SPECIFIED_SOURCE ( 'ANY', '', #250, .NOT_KNOWN. ) ;
#288 = APPROVAL ( #241, 'UNSPECIFIED' ) ;
#289 = CC_DESIGN_APPROVAL ( #288, ( #287 ) ) ;
#290 = CC_DESIGN_PERSON_AND_ORGANIZATION_ASSIGNMENT ( #336, #243, ( #287 ) ) ;
#291 = CC_DESIGN_PERSON_AND_ORGANIZATION_ASSIGNMENT ( #337, #244, ( #287 ) ) ;
#292 = SECURITY_CLASSIFICATION ( '', '', #245 ) ;
#293 = CC_DESIGN_PERSON_AND_ORGANIZATION_ASSIGNMENT ( #338, #246, ( #292 ) ) ;
#294 = CC_DESIGN_DATE_AND_TIME_ASSIGNMENT ( #342, #247, ( #292 ) ) ;
#295 = APPROVAL ( #248, 'UNSPECIFIED' ) ;
#296 = CC_DESIGN_APPROVAL ( #295, ( #292 ) ) ;
#297 = CC_DESIGN_SECURITY_CLASSIFICATION ( #292, ( #287 ) ) ;
#298 = PRODUCT_RELATED_PRODUCT_CATEGORY ( 'detail', '', ( #250 ) ) ;
#299 = AXIS2_PLACEMENT_3D ( 'NONE', #139, #142, #143 ) ;
#300 = AXIS2_PLACEMENT_3D ( 'NONE', #137, #136, #131 ) ;
#301 = AXIS2_PLACEMENT_3D ( 'NONE', #152, #155, #156 ) ;
#302 = EDGE_CURVE ( 'NONE', #123, #122, #95, .T. ) ;
#303 = AXIS2_PLACEMENT_3D ( 'NONE', #120, #129, #133 ) ;
#304 = EDGE_CURVE ( 'NONE', #128, #127, #96, .T. ) ;
#305 = AXIS2_PLACEMENT_3D ( 'NONE', #121, #118, #130 ) ;
#306 = AXIS2_PLACEMENT_3D ( 'NONE', #150, #149, #135 ) ;
#307 = EDGE_CURVE ( 'NONE', #113, #123, #97, .T. ) ;
#308 = EDGE_CURVE ( 'NONE', #115, #122, #98, .T. ) ;
#309 = EDGE_CURVE ( 'NONE', #116, #117, #99, .T. ) ;
#310 = EDGE_CURVE ( 'NONE', #115, #113, #100, .T. ) ;
#311 = EDGE_CURVE ( 'NONE', #124, #117, #101, .T. ) ;
#312 = EDGE_CURVE ( 'NONE', #124, #114, #102, .T. ) ;
#313 =( GEOMETRIC_REPRESENTATION_CONTEXT ( 3 ) GLOBAL_UNCERTAINTY_ASSIGNED_CONTEXT ( ( #2 ) ) GLOBAL_UNIT_ASSIGNED_CONTEXT ( ( #218, #224, #227 ) ) REPRESENTATION_CONTEXT ( 'NONE', 'WORKASPACE' ) );
#314 = SHAPE_DEFINITION_REPRESENTATION ( #4, #252 ) ;
#315 = ORGANIZATION ( 'UNSPECIFIED', 'UNSPECIFIED', '' ) ;
#316 = PERSON_AND_ORGANIZATION ( #251, #315 ) ;
#317 = PERSON_AND_ORGANIZATION ( #251, #315 ) ;
#318 = APPROVAL_PERSON_ORGANIZATION ( #317, #283, #238 ) ;
#319 = COORDINATED_UNIVERSAL_TIME_OFFSET ( 3, 0, .AHEAD. ) ;
#320 = LOCAL_TIME ( 13, 32, 8.000000000000000000, #319 ) ;
#321 = CALENDAR_DATE ( 2016, 30, 12 ) ;
#322 = DATE_AND_TIME ( #321, #320 ) ;
#323 = APPROVAL_DATE_TIME ( #322, #283 ) ;
#324 = PERSON_AND_ORGANIZATION ( #251, #315 ) ;
#325 = COORDINATED_UNIVERSAL_TIME_OFFSET ( 3, 0, .AHEAD. ) ;
#326 = LOCAL_TIME ( 13, 32, 8.000000000000000000, #325 ) ;
#327 = CALENDAR_DATE ( 2016, 30, 12 ) ;
#328 = DATE_AND_TIME ( #327, #326 ) ;
#329 = PERSON_AND_ORGANIZATION ( #251, #315 ) ;
#330 = APPROVAL_PERSON_ORGANIZATION ( #329, #288, #242 ) ;
#331 = COORDINATED_UNIVERSAL_TIME_OFFSET ( 3, 0, .AHEAD. ) ;
#332 = LOCAL_TIME ( 13, 32, 8.000000000000000000, #331 ) ;
#333 = CALENDAR_DATE ( 2016, 30, 12 ) ;
#334 = DATE_AND_TIME ( #333, #332 ) ;
#335 = APPROVAL_DATE_TIME ( #334, #288 ) ;
#336 = PERSON_AND_ORGANIZATION ( #251, #315 ) ;
#337 = PERSON_AND_ORGANIZATION ( #251, #315 ) ;
#338 = PERSON_AND_ORGANIZATION ( #251, #315 ) ;
#339 = COORDINATED_UNIVERSAL_TIME_OFFSET ( 3, 0, .AHEAD. ) ;
#340 = LOCAL_TIME ( 13, 32, 8.000000000000000000, #339 ) ;
#341 = CALENDAR_DATE ( 2016, 30, 12 ) ;
#342 = DATE_AND_TIME ( #341, #340 ) ;
#343 = PERSON_AND_ORGANIZATION ( #251, #315 ) ;
#344 = APPROVAL_PERSON_ORGANIZATION ( #343, #295, #249 ) ;
#345 = COORDINATED_UNIVERSAL_TIME_OFFSET ( 3, 0, .AHEAD. ) ;
#346 = LOCAL_TIME ( 13, 32, 8.000000000000000000, #345 ) ;
#347 = CALENDAR_DATE ( 2016, 30, 12 ) ;
#348 = DATE_AND_TIME ( #347, #346 ) ;
#349 = APPROVAL_DATE_TIME ( #348, #295 ) ;
#350 = AXIS2_PLACEMENT_3D ( 'NONE', #151, #154, #159 ) ;
#351 = AXIS2_PLACEMENT_3D ( 'NONE', #187, #189, #190 ) ;
#352 = AXIS2_PLACEMENT_3D ( 'NONE', #134, #119, #132 ) ;
#353 = AXIS2_PLACEMENT_3D ( 'NONE', #138, #141, #146 ) ;
ENDSEC;
END-ISO-10303-21;
