ISO-10303-21;
HEADER;
FILE_DESCRIPTION (( 'STEP AP203' ),
    '1' );
FILE_NAME ('Ñîåäèíèòåëüíàÿ íàêëàäêà CGB_37358.STEP',
    '2012-11-09T08:54:45',
    ( 'Àñååâ' ),
    ( '' ),
    'SwSTEP 2.0',
    'SolidWorks 2012',
    '' );
FILE_SCHEMA (( 'CONFIG_CONTROL_DESIGN' ));
ENDSEC;

DATA;
#1 = EDGE_LOOP ( 'NONE', ( #208 ) ) ;
#2 = EDGE_LOOP ( 'NONE', ( #198 ) ) ;
#3 = ADVANCED_BREP_SHAPE_REPRESENTATION ( 'Tþõôøýøªõû¹ýð  ýðúûðôúð CGB_37358', ( #4, #32 ), #34 ) ;
#4 = MANIFOLD_SOLID_BREP ( 'Çåðêàëüíîå îòðàæåíèå1', #12 ) ;
#5 = UNCERTAINTY_MEASURE_WITH_UNIT (LENGTH_MEASURE( 1.000000000000000100E-005 ), #90, 'distance_accuracy_value', 'NONE');
#6 = VERTEX_POINT ( 'NONE', #114 ) ;
#7 = VERTEX_POINT ( 'NONE', #113 ) ;
#8 = VERTEX_POINT ( 'NONE', #132 ) ;
#9 = VERTEX_POINT ( 'NONE', #130 ) ;
#10 = VERTEX_POINT ( 'NONE', #107 ) ;
#11 = VERTEX_POINT ( 'NONE', #109 ) ;
#12 = CLOSED_SHELL ( 'NONE', ( #182, #183, #180, #177, #179, #176, #181, #178 ) ) ;
#13 = VERTEX_POINT ( 'NONE', #175 ) ;
#14 = VERTEX_POINT ( 'NONE', #174 ) ;
#15 = CC_DESIGN_APPROVAL ( #22, ( #25 ) ) ;
#16 = PRODUCT_RELATED_PRODUCT_CATEGORY ( 'detail', '', ( #103 ) ) ;
#17 = CC_DESIGN_SECURITY_CLASSIFICATION ( #23, ( #25 ) ) ;
#18 = CC_DESIGN_APPROVAL ( #19, ( #23 ) ) ;
#19 = APPROVAL ( #80, 'UNSPECIFIED' ) ;
#20 = CC_DESIGN_DATE_AND_TIME_ASSIGNMENT ( #296, #93, ( #23 ) ) ;
#21 = CC_DESIGN_PERSON_AND_ORGANIZATION_ASSIGNMENT ( #292, #82, ( #23 ) ) ;
#22 = APPROVAL ( #75, 'UNSPECIFIED' ) ;
#23 = SECURITY_CLASSIFICATION ( '', '', #78 ) ;
#24 = CC_DESIGN_PERSON_AND_ORGANIZATION_ASSIGNMENT ( #291, #79, ( #25 ) ) ;
#25 = PRODUCT_DEFINITION_FORMATION_WITH_SPECIFIED_SOURCE ( 'ANY', '', #103, .NOT_KNOWN. ) ;
#26 = CC_DESIGN_DATE_AND_TIME_ASSIGNMENT ( #282, #76, ( #30 ) ) ;
#27 = CC_DESIGN_PERSON_AND_ORGANIZATION_ASSIGNMENT ( #278, #77, ( #30 ) ) ;
#28 = CC_DESIGN_APPROVAL ( #29, ( #30 ) ) ;
#29 = APPROVAL ( #99, 'UNSPECIFIED' ) ;
#30 = PRODUCT_DEFINITION ( 'UNKNOWN', '', #25, #104 ) ;
#31 = CC_DESIGN_PERSON_AND_ORGANIZATION_ASSIGNMENT ( #270, #95, ( #103 ) ) ;
#32 = AXIS2_PLACEMENT_3D ( 'NONE', #96, #94, #84 ) ;
#33 = AXIS2_PLACEMENT_3D ( 'NONE', #73, #71, #92 ) ;
#34 =( GEOMETRIC_REPRESENTATION_CONTEXT ( 3 ) GLOBAL_UNCERTAINTY_ASSIGNED_CONTEXT ( ( #5 ) ) GLOBAL_UNIT_ASSIGNED_CONTEXT ( ( #90, #89, #88 ) ) REPRESENTATION_CONTEXT ( 'NONE', 'WORKASPACE' ) );
#35 = AXIS2_PLACEMENT_3D ( 'NONE', #108, #110, #152 ) ;
#36 = AXIS2_PLACEMENT_3D ( 'NONE', #111, #116, #120 ) ;
#37 = EDGE_CURVE ( 'NONE', #263, #263, #226, .T. ) ;
#38 = AXIS2_PLACEMENT_3D ( 'NONE', #121, #115, #112 ) ;
#39 = AXIS2_PLACEMENT_3D ( 'NONE', #123, #119, #118 ) ;
#40 = AXIS2_PLACEMENT_3D ( 'NONE', #124, #127, #150 ) ;
#41 = EDGE_CURVE ( 'NONE', #14, #6, #225, .T. ) ;
#42 = AXIS2_PLACEMENT_3D ( 'NONE', #137, #126, #125 ) ;
#43 = AXIS2_PLACEMENT_3D ( 'NONE', #136, #131, #129 ) ;
#44 = AXIS2_PLACEMENT_3D ( 'NONE', #135, #134, #133 ) ;
#45 = AXIS2_PLACEMENT_3D ( 'NONE', #149, #148, #147 ) ;
#46 = AXIS2_PLACEMENT_3D ( 'NONE', #164, #163, #162 ) ;
#47 = AXIS2_PLACEMENT_3D ( 'NONE', #170, #169, #168 ) ;
#48 = EDGE_CURVE ( 'NONE', #265, #265, #223, .T. ) ;
#49 = EDGE_CURVE ( 'NONE', #10, #6, #220, .T. ) ;
#50 = EDGE_CURVE ( 'NONE', #14, #8, #224, .T. ) ;
#51 = EDGE_CURVE ( 'NONE', #6, #7, #221, .T. ) ;
#52 = EDGE_CURVE ( 'NONE', #9, #13, #230, .T. ) ;
#53 = EDGE_CURVE ( 'NONE', #13, #14, #229, .T. ) ;
#54 = EDGE_CURVE ( 'NONE', #11, #10, #234, .T. ) ;
#55 = CC_DESIGN_PERSON_AND_ORGANIZATION_ASSIGNMENT ( #290, #81, ( #25 ) ) ;
#56 = EDGE_CURVE ( 'NONE', #266, #266, #236, .T. ) ;
#57 = EDGE_CURVE ( 'NONE', #9, #11, #239, .T. ) ;
#58 = EDGE_CURVE ( 'NONE', #8, #9, #232, .T. ) ;
#59 = EDGE_CURVE ( 'NONE', #13, #10, #242, .T. ) ;
#60 = EDGE_CURVE ( 'NONE', #8, #7, #243, .T. ) ;
#61 = EDGE_CURVE ( 'NONE', #7, #11, #245, .T. ) ;
#62 = EDGE_CURVE ( 'NONE', #267, #267, #247, .T. ) ;
#63 = EDGE_LOOP ( 'NONE', ( #202 ) ) ;
#64 = EDGE_LOOP ( 'NONE', ( #215, #209, #217, #216 ) ) ;
#65 = EDGE_LOOP ( 'NONE', ( #203 ) ) ;
#66 = EDGE_LOOP ( 'NONE', ( #201 ) ) ;
#67 = APPROVAL_ROLE ( '' ) ;
#68 = CARTESIAN_POINT ( 'NONE',  ( 2.499999999999960900, 0.8000000000000008200, -47.50000000000000000 ) ) ;
#69 = APPLICATION_PROTOCOL_DEFINITION ( 'international standard', 'config_control_design', 1994, #87 ) ;
#70 = CARTESIAN_POINT ( 'NONE',  ( -3.885446988940019600E-014, 0.0000000000000000000, -50.00000000000000000 ) ) ;
#71 = DIRECTION ( 'NONE',  ( 2.555358655689741300E-018, 1.000000000000000000, -0.0000000000000000000 ) ) ;
#72 = PLANE ( 'NONE',  #33 ) ;
#73 = CARTESIAN_POINT ( 'NONE',  ( -297.0000000000000000, 0.8000000000000016000, -65.00000000000000000 ) ) ;
#74 = APPROVAL_ROLE ( '' ) ;
#75 = APPROVAL_STATUS ( 'not_yet_approved' ) ;
#76 = DATE_TIME_ROLE ( 'creation_date' ) ;
#77 = PERSON_AND_ORGANIZATION_ROLE ( 'creator' ) ;
#78 = SECURITY_CLASSIFICATION_LEVEL ( 'unclassified' ) ;
#79 = PERSON_AND_ORGANIZATION_ROLE ( 'design_supplier' ) ;
#80 = APPROVAL_STATUS ( 'not_yet_approved' ) ;
#81 = PERSON_AND_ORGANIZATION_ROLE ( 'creator' ) ;
#82 = PERSON_AND_ORGANIZATION_ROLE ( 'classification_officer' ) ;
#83 = MECHANICAL_CONTEXT ( 'NONE', #91, 'mechanical' ) ;
#84 = DIRECTION ( 'NONE',  ( 1.000000000000000000, 0.0000000000000000000, 0.0000000000000000000 ) ) ;
#85 = CARTESIAN_POINT ( 'NONE',  ( 2.499999999999960900, 0.8000000000000008200, -17.50000000000000000 ) ) ;
#86 = APPLICATION_PROTOCOL_DEFINITION ( 'international standard', 'config_control_design', 1994, #91 ) ;
#87 = APPLICATION_CONTEXT ( 'configuration controlled 3d designs of mechanical parts and assemblies' ) ;
#88 =( NAMED_UNIT ( * ) SI_UNIT ( $, .STERADIAN. ) SOLID_ANGLE_UNIT ( ) );
#89 =( NAMED_UNIT ( * ) PLANE_ANGLE_UNIT ( ) SI_UNIT ( $, .RADIAN. ) );
#90 =( LENGTH_UNIT ( ) NAMED_UNIT ( * ) SI_UNIT ( .MILLI., .METRE. ) );
#91 = APPLICATION_CONTEXT ( 'configuration controlled 3d designs of mechanical parts and assemblies' ) ;
#92 = DIRECTION ( 'NONE',  ( -1.000000000000000000, 2.555358655689741300E-018, 0.0000000000000000000 ) ) ;
#93 = DATE_TIME_ROLE ( 'classification_date' ) ;
#94 = DIRECTION ( 'NONE',  ( 0.0000000000000000000, 0.0000000000000000000, 1.000000000000000000 ) ) ;
#95 = PERSON_AND_ORGANIZATION_ROLE ( 'design_owner' ) ;
#96 = CARTESIAN_POINT ( 'NONE',  ( 0.0000000000000000000, 0.0000000000000000000, 0.0000000000000000000 ) ) ;
#97 = CARTESIAN_POINT ( 'NONE',  ( -3.885446988940019600E-014, 0.0000000000000000000, -20.00000000000000000 ) ) ;
#98 = APPROVAL_ROLE ( '' ) ;
#99 = APPROVAL_STATUS ( 'not_yet_approved' ) ;
#100 = EDGE_LOOP ( 'NONE', ( #213, #214, #212, #211 ) ) ;
#101 = EDGE_LOOP ( 'NONE', ( #207, #206, #200, #199 ) ) ;
#102 = PERSON ( 'UNSPECIFIED', 'UNSPECIFIED', 'UNSPECIFIED', ('UNSPECIFIED'), ('UNSPECIFIED'), ('UNSPECIFIED') ) ;
#103 = PRODUCT ( 'Ñîåäèíèòåëüíàÿ íàêëàäêà CGB_37358', 'Ñîåäèíèòåëüíàÿ íàêëàäêà CGB_37358', '', ( #83 ) ) ;
#104 = DESIGN_CONTEXT ( 'detailed design', #87, 'design' ) ;
#105 = PRODUCT_DEFINITION_SHAPE ( 'NONE', 'NONE',  #30 ) ;
#106 = PLANE ( 'NONE',  #35 ) ;
#107 = CARTESIAN_POINT ( 'NONE',  ( -297.0000000000000000, 0.0000000000000000000, 0.0000000000000000000 ) ) ;
#108 = CARTESIAN_POINT ( 'NONE',  ( -297.0000000000000000, 0.0000000000000000000, -65.00000000000000000 ) ) ;
#109 = CARTESIAN_POINT ( 'NONE',  ( -297.0000000000000000, 0.8000000000000016000, 0.0000000000000000000 ) ) ;
#110 = DIRECTION ( 'NONE',  ( 0.0000000000000000000, -1.000000000000000000, 0.0000000000000000000 ) ) ;
#111 = CARTESIAN_POINT ( 'NONE',  ( -3.890196827029003300E-014, -9.199999999999999300, -17.50000000000000000 ) ) ;
#112 = DIRECTION ( 'NONE',  ( 0.0000000000000000000, 0.0000000000000000000, 1.000000000000000000 ) ) ;
#113 = CARTESIAN_POINT ( 'NONE',  ( 297.0000000000000000, 0.8000000000000000400, 0.0000000000000000000 ) ) ;
#114 = CARTESIAN_POINT ( 'NONE',  ( 297.0000000000000000, 0.0000000000000000000, 0.0000000000000000000 ) ) ;
#115 = DIRECTION ( 'NONE',  ( -1.000000000000000000, 0.0000000000000000000, 0.0000000000000000000 ) ) ;
#116 = DIRECTION ( 'NONE',  ( 5.162867488026211000E-018, 1.000000000000000000, 0.0000000000000000000 ) ) ;
#117 = PLANE ( 'NONE',  #38 ) ;
#118 = DIRECTION ( 'NONE',  ( 1.000000000000000000, 0.0000000000000000000, -0.0000000000000000000 ) ) ;
#119 = DIRECTION ( 'NONE',  ( 0.0000000000000000000, 0.0000000000000000000, 1.000000000000000000 ) ) ;
#120 = DIRECTION ( 'NONE',  ( -1.000000000000000000, 0.0000000000000000000, 0.0000000000000000000 ) ) ;
#121 = CARTESIAN_POINT ( 'NONE',  ( -297.0000000000000000, 0.0000000000000000000, -65.00000000000000000 ) ) ;
#122 = PLANE ( 'NONE',  #39 ) ;
#123 = CARTESIAN_POINT ( 'NONE',  ( 297.0000000000000000, 0.0000000000000000000, -65.00000000000000000 ) ) ;
#124 = CARTESIAN_POINT ( 'NONE',  ( -3.890196827029003300E-014, -9.199999999999999300, -47.50000000000000000 ) ) ;
#125 = DIRECTION ( 'NONE',  ( 0.0000000000000000000, 0.0000000000000000000, -1.000000000000000000 ) ) ;
#126 = DIRECTION ( 'NONE',  ( 1.000000000000000000, 0.0000000000000000000, 0.0000000000000000000 ) ) ;
#127 = DIRECTION ( 'NONE',  ( 5.162867488026211000E-018, 1.000000000000000000, 0.0000000000000000000 ) ) ;
#128 = PLANE ( 'NONE',  #42 ) ;
#129 = DIRECTION ( 'NONE',  ( 1.000000000000000000, 0.0000000000000000000, -0.0000000000000000000 ) ) ;
#130 = CARTESIAN_POINT ( 'NONE',  ( -297.0000000000000000, 0.8000000000000016000, -65.00000000000000000 ) ) ;
#131 = DIRECTION ( 'NONE',  ( 0.0000000000000000000, 0.0000000000000000000, 1.000000000000000000 ) ) ;
#132 = CARTESIAN_POINT ( 'NONE',  ( 297.0000000000000000, 0.8000000000000000400, -65.00000000000000000 ) ) ;
#133 = DIRECTION ( 'NONE',  ( 1.000000000000000000, 0.0000000000000000000, 0.0000000000000000000 ) ) ;
#134 = DIRECTION ( 'NONE',  ( 5.162867488026211000E-018, 1.000000000000000000, 0.0000000000000000000 ) ) ;
#135 = CARTESIAN_POINT ( 'NONE',  ( -3.885033959540977200E-014, 0.8000000000000008200, -47.50000000000000000 ) ) ;
#136 = CARTESIAN_POINT ( 'NONE',  ( 297.0000000000000000, 0.0000000000000000000, 0.0000000000000000000 ) ) ;
#137 = CARTESIAN_POINT ( 'NONE',  ( 297.0000000000000000, 0.0000000000000000000, -65.00000000000000000 ) ) ;
#138 = PLANE ( 'NONE',  #43 ) ;
#139 = DIRECTION ( 'NONE',  ( -1.000000000000000000, 2.555358655689741300E-018, -0.0000000000000000000 ) ) ;
#140 = CARTESIAN_POINT ( 'NONE',  ( -297.0000000000000000, 0.8000000000000016000, 0.0000000000000000000 ) ) ;
#141 = DIRECTION ( 'NONE',  ( 0.0000000000000000000, 0.0000000000000000000, 1.000000000000000000 ) ) ;
#142 = CARTESIAN_POINT ( 'NONE',  ( 297.0000000000000000, 0.8000000000000000400, -65.00000000000000000 ) ) ;
#143 = DIRECTION ( 'NONE',  ( 0.0000000000000000000, 0.0000000000000000000, 1.000000000000000000 ) ) ;
#144 = CARTESIAN_POINT ( 'NONE',  ( -297.0000000000000000, 0.0000000000000000000, -65.00000000000000000 ) ) ;
#145 = CARTESIAN_POINT ( 'NONE',  ( -297.0000000000000000, 0.8000000000000016000, -65.00000000000000000 ) ) ;
#146 = DIRECTION ( 'NONE',  ( 0.0000000000000000000, 0.0000000000000000000, 1.000000000000000000 ) ) ;
#147 = DIRECTION ( 'NONE',  ( 1.000000000000000000, 0.0000000000000000000, 0.0000000000000000000 ) ) ;
#148 = DIRECTION ( 'NONE',  ( -5.162867488026211000E-018, -1.000000000000000000, 0.0000000000000000000 ) ) ;
#149 = CARTESIAN_POINT ( 'NONE',  ( -3.885033959540977200E-014, 0.8000000000000008200, -17.50000000000000000 ) ) ;
#150 = DIRECTION ( 'NONE',  ( -1.000000000000000000, 0.0000000000000000000, 0.0000000000000000000 ) ) ;
#151 = DIRECTION ( 'NONE',  ( -0.0000000000000000000, -1.000000000000000000, -0.0000000000000000000 ) ) ;
#152 = DIRECTION ( 'NONE',  ( 0.0000000000000000000, -0.0000000000000000000, -1.000000000000000000 ) ) ;
#153 = CARTESIAN_POINT ( 'NONE',  ( -297.0000000000000000, 0.0000000000000000000, 0.0000000000000000000 ) ) ;
#154 = DIRECTION ( 'NONE',  ( 1.000000000000000000, 0.0000000000000000000, 0.0000000000000000000 ) ) ;
#155 = DIRECTION ( 'NONE',  ( -0.0000000000000000000, -1.000000000000000000, -0.0000000000000000000 ) ) ;
#156 = DIRECTION ( 'NONE',  ( -1.000000000000000000, 2.555358655689741300E-018, -0.0000000000000000000 ) ) ;
#157 = CARTESIAN_POINT ( 'NONE',  ( -297.0000000000000000, 0.0000000000000000000, -65.00000000000000000 ) ) ;
#158 = DIRECTION ( 'NONE',  ( 0.0000000000000000000, 1.000000000000000000, 0.0000000000000000000 ) ) ;
#159 = CARTESIAN_POINT ( 'NONE',  ( -297.0000000000000000, 0.8000000000000016000, -65.00000000000000000 ) ) ;
#160 = CARTESIAN_POINT ( 'NONE',  ( 297.0000000000000000, 0.0000000000000000000, -65.00000000000000000 ) ) ;
#161 = DIRECTION ( 'NONE',  ( 1.000000000000000000, 0.0000000000000000000, 0.0000000000000000000 ) ) ;
#162 = DIRECTION ( 'NONE',  ( 0.0000000000000000000, 0.0000000000000000000, -1.000000000000000000 ) ) ;
#163 = DIRECTION ( 'NONE',  ( 0.0000000000000000000, -1.000000000000000000, 0.0000000000000000000 ) ) ;
#164 = CARTESIAN_POINT ( 'NONE',  ( -3.885446988940019600E-014, 0.0000000000000000000, -47.50000000000000000 ) ) ;
#165 = CARTESIAN_POINT ( 'NONE',  ( -297.0000000000000000, 0.0000000000000000000, -65.00000000000000000 ) ) ;
#166 = CARTESIAN_POINT ( 'NONE',  ( 297.0000000000000000, 0.0000000000000000000, 0.0000000000000000000 ) ) ;
#167 = DIRECTION ( 'NONE',  ( 0.0000000000000000000, 0.0000000000000000000, 1.000000000000000000 ) ) ;
#168 = DIRECTION ( 'NONE',  ( 0.0000000000000000000, 0.0000000000000000000, -1.000000000000000000 ) ) ;
#169 = DIRECTION ( 'NONE',  ( -0.0000000000000000000, 1.000000000000000000, -0.0000000000000000000 ) ) ;
#170 = CARTESIAN_POINT ( 'NONE',  ( -3.885446988940019600E-014, 0.0000000000000000000, -17.50000000000000000 ) ) ;
#171 = DIRECTION ( 'NONE',  ( 0.0000000000000000000, 1.000000000000000000, 0.0000000000000000000 ) ) ;
#172 = CARTESIAN_POINT ( 'NONE',  ( 297.0000000000000000, 0.0000000000000000000, -65.00000000000000000 ) ) ;
#173 = CARTESIAN_POINT ( 'NONE',  ( -297.0000000000000000, 0.0000000000000000000, 0.0000000000000000000 ) ) ;
#174 = CARTESIAN_POINT ( 'NONE',  ( 297.0000000000000000, 0.0000000000000000000, -65.00000000000000000 ) ) ;
#175 = CARTESIAN_POINT ( 'NONE',  ( -297.0000000000000000, 0.0000000000000000000, -65.00000000000000000 ) ) ;
#176 = ADVANCED_FACE ( 'NONE', ( #238 ), #138, .T. ) ;
#177 = ADVANCED_FACE ( 'NONE', ( #249 ), #128, .T. ) ;
#178 = ADVANCED_FACE ( 'NONE', ( #251, #254 ), #256, .F. ) ;
#179 = ADVANCED_FACE ( 'NONE', ( #250 ), #122, .F. ) ;
#180 = ADVANCED_FACE ( 'NONE', ( #252 ), #117, .T. ) ;
#181 = ADVANCED_FACE ( 'NONE', ( #253, #259 ), #261, .F. ) ;
#182 = ADVANCED_FACE ( 'NONE', ( #255, #262, #257 ), #106, .T. ) ;
#183 = ADVANCED_FACE ( 'NONE', ( #258, #264, #260 ), #72, .T. ) ;
#184 = EDGE_LOOP ( 'NONE', ( #210 ) ) ;
#185 = EDGE_LOOP ( 'NONE', ( #189, #188, #219, #205 ) ) ;
#186 = EDGE_LOOP ( 'NONE', ( #218 ) ) ;
#187 = EDGE_LOOP ( 'NONE', ( #193, #192, #191, #190 ) ) ;
#188 = ORIENTED_EDGE ( 'NONE', *, *, #52, .F. ) ;
#189 = ORIENTED_EDGE ( 'NONE', *, *, #53, .F. ) ;
#190 = ORIENTED_EDGE ( 'NONE', *, *, #60, .T. ) ;
#191 = ORIENTED_EDGE ( 'NONE', *, *, #50, .T. ) ;
#192 = ORIENTED_EDGE ( 'NONE', *, *, #41, .F. ) ;
#193 = ORIENTED_EDGE ( 'NONE', *, *, #51, .F. ) ;
#194 = ORIENTED_EDGE ( 'NONE', *, *, #59, .T. ) ;
#195 = ORIENTED_EDGE ( 'NONE', *, *, #52, .T. ) ;
#196 = ORIENTED_EDGE ( 'NONE', *, *, #57, .F. ) ;
#197 = ORIENTED_EDGE ( 'NONE', *, *, #54, .F. ) ;
#198 = ORIENTED_EDGE ( 'NONE', *, *, #56, .T. ) ;
#199 = ORIENTED_EDGE ( 'NONE', *, *, #57, .T. ) ;
#200 = ORIENTED_EDGE ( 'NONE', *, *, #58, .T. ) ;
#201 = ORIENTED_EDGE ( 'NONE', *, *, #62, .T. ) ;
#202 = ORIENTED_EDGE ( 'NONE', *, *, #48, .T. ) ;
#203 = ORIENTED_EDGE ( 'NONE', *, *, #56, .F. ) ;
#204 = ORIENTED_EDGE ( 'NONE', *, *, #37, .F. ) ;
#205 = ORIENTED_EDGE ( 'NONE', *, *, #50, .F. ) ;
#206 = ORIENTED_EDGE ( 'NONE', *, *, #60, .F. ) ;
#207 = ORIENTED_EDGE ( 'NONE', *, *, #61, .F. ) ;
#208 = ORIENTED_EDGE ( 'NONE', *, *, #62, .F. ) ;
#209 = ORIENTED_EDGE ( 'NONE', *, *, #51, .T. ) ;
#210 = ORIENTED_EDGE ( 'NONE', *, *, #37, .T. ) ;
#211 = ORIENTED_EDGE ( 'NONE', *, *, #41, .T. ) ;
#212 = ORIENTED_EDGE ( 'NONE', *, *, #53, .T. ) ;
#213 = ORIENTED_EDGE ( 'NONE', *, *, #49, .F. ) ;
#214 = ORIENTED_EDGE ( 'NONE', *, *, #59, .F. ) ;
#215 = ORIENTED_EDGE ( 'NONE', *, *, #49, .T. ) ;
#216 = ORIENTED_EDGE ( 'NONE', *, *, #54, .T. ) ;
#217 = ORIENTED_EDGE ( 'NONE', *, *, #61, .T. ) ;
#218 = ORIENTED_EDGE ( 'NONE', *, *, #48, .F. ) ;
#219 = ORIENTED_EDGE ( 'NONE', *, *, #58, .F. ) ;
#220 = LINE ( 'NONE', #173, #228 ) ;
#221 = LINE ( 'NONE', #166, #231 ) ;
#222 = VECTOR ( 'NONE', #167, 1000.000000000000000 ) ;
#223 = CIRCLE ( 'NONE', #46, 2.500000000000002200 ) ;
#224 = LINE ( 'NONE', #160, #227 ) ;
#225 = LINE ( 'NONE', #172, #222 ) ;
#226 = CIRCLE ( 'NONE', #47, 2.499999999999998700 ) ;
#227 = VECTOR ( 'NONE', #171, 1000.000000000000000 ) ;
#228 = VECTOR ( 'NONE', #161, 1000.000000000000000 ) ;
#229 = LINE ( 'NONE', #165, #235 ) ;
#230 = LINE ( 'NONE', #157, #233 ) ;
#231 = VECTOR ( 'NONE', #158, 1000.000000000000000 ) ;
#232 = LINE ( 'NONE', #145, #240 ) ;
#233 = VECTOR ( 'NONE', #155, 1000.000000000000000 ) ;
#234 = LINE ( 'NONE', #153, #237 ) ;
#235 = VECTOR ( 'NONE', #154, 1000.000000000000000 ) ;
#236 = CIRCLE ( 'NONE', #45, 2.500000000000000000 ) ;
#237 = VECTOR ( 'NONE', #151, 1000.000000000000000 ) ;
#238 = FACE_OUTER_BOUND ( 'NONE', #64, .T. ) ;
#239 = LINE ( 'NONE', #159, #241 ) ;
#240 = VECTOR ( 'NONE', #156, 1000.000000000000000 ) ;
#241 = VECTOR ( 'NONE', #146, 1000.000000000000000 ) ;
#242 = LINE ( 'NONE', #144, #244 ) ;
#243 = LINE ( 'NONE', #142, #246 ) ;
#244 = VECTOR ( 'NONE', #143, 1000.000000000000000 ) ;
#245 = LINE ( 'NONE', #140, #248 ) ;
#246 = VECTOR ( 'NONE', #141, 1000.000000000000000 ) ;
#247 = CIRCLE ( 'NONE', #44, 2.500000000000000000 ) ;
#248 = VECTOR ( 'NONE', #139, 1000.000000000000000 ) ;
#249 = FACE_OUTER_BOUND ( 'NONE', #187, .T. ) ;
#250 = FACE_OUTER_BOUND ( 'NONE', #185, .T. ) ;
#251 = FACE_OUTER_BOUND ( 'NONE', #63, .T. ) ;
#252 = FACE_OUTER_BOUND ( 'NONE', #304, .T. ) ;
#253 = FACE_OUTER_BOUND ( 'NONE', #305, .T. ) ;
#254 = FACE_OUTER_BOUND ( 'NONE', #66, .T. ) ;
#255 = FACE_BOUND ( 'NONE', #186, .T. ) ;
#256 = CYLINDRICAL_SURFACE ( 'NONE', #40, 2.500000000000000000 ) ;
#257 = FACE_BOUND ( 'NONE', #184, .T. ) ;
#258 = FACE_BOUND ( 'NONE', #1, .T. ) ;
#259 = FACE_OUTER_BOUND ( 'NONE', #65, .T. ) ;
#260 = FACE_BOUND ( 'NONE', #2, .T. ) ;
#261 = CYLINDRICAL_SURFACE ( 'NONE', #36, 2.500000000000000000 ) ;
#262 = FACE_OUTER_BOUND ( 'NONE', #100, .T. ) ;
#263 = VERTEX_POINT ( 'NONE', #97 ) ;
#264 = FACE_OUTER_BOUND ( 'NONE', #101, .T. ) ;
#265 = VERTEX_POINT ( 'NONE', #70 ) ;
#266 = VERTEX_POINT ( 'NONE', #85 ) ;
#267 = VERTEX_POINT ( 'NONE', #68 ) ;
#268 = SHAPE_DEFINITION_REPRESENTATION ( #105, #3 ) ;
#269 = ORGANIZATION ( 'UNSPECIFIED', 'UNSPECIFIED', '' ) ;
#270 = PERSON_AND_ORGANIZATION ( #102, #269 ) ;
#271 = PERSON_AND_ORGANIZATION ( #102, #269 ) ;
#272 = APPROVAL_PERSON_ORGANIZATION ( #271, #29, #74 ) ;
#273 = COORDINATED_UNIVERSAL_TIME_OFFSET ( 4, 0, .AHEAD. ) ;
#274 = LOCAL_TIME ( 12, 54, 45.00000000000000000, #273 ) ;
#275 = CALENDAR_DATE ( 2012, 9, 11 ) ;
#276 = DATE_AND_TIME ( #275, #274 ) ;
#277 = APPROVAL_DATE_TIME ( #276, #29 ) ;
#278 = PERSON_AND_ORGANIZATION ( #102, #269 ) ;
#279 = COORDINATED_UNIVERSAL_TIME_OFFSET ( 4, 0, .AHEAD. ) ;
#280 = LOCAL_TIME ( 12, 54, 45.00000000000000000, #279 ) ;
#281 = CALENDAR_DATE ( 2012, 9, 11 ) ;
#282 = DATE_AND_TIME ( #281, #280 ) ;
#283 = PERSON_AND_ORGANIZATION ( #102, #269 ) ;
#284 = APPROVAL_PERSON_ORGANIZATION ( #283, #22, #67 ) ;
#285 = COORDINATED_UNIVERSAL_TIME_OFFSET ( 4, 0, .AHEAD. ) ;
#286 = LOCAL_TIME ( 12, 54, 45.00000000000000000, #285 ) ;
#287 = CALENDAR_DATE ( 2012, 9, 11 ) ;
#288 = DATE_AND_TIME ( #287, #286 ) ;
#289 = APPROVAL_DATE_TIME ( #288, #22 ) ;
#290 = PERSON_AND_ORGANIZATION ( #102, #269 ) ;
#291 = PERSON_AND_ORGANIZATION ( #102, #269 ) ;
#292 = PERSON_AND_ORGANIZATION ( #102, #269 ) ;
#293 = COORDINATED_UNIVERSAL_TIME_OFFSET ( 4, 0, .AHEAD. ) ;
#294 = LOCAL_TIME ( 12, 54, 45.00000000000000000, #293 ) ;
#295 = CALENDAR_DATE ( 2012, 9, 11 ) ;
#296 = DATE_AND_TIME ( #295, #294 ) ;
#297 = PERSON_AND_ORGANIZATION ( #102, #269 ) ;
#298 = APPROVAL_PERSON_ORGANIZATION ( #297, #19, #98 ) ;
#299 = COORDINATED_UNIVERSAL_TIME_OFFSET ( 4, 0, .AHEAD. ) ;
#300 = LOCAL_TIME ( 12, 54, 45.00000000000000000, #299 ) ;
#301 = CALENDAR_DATE ( 2012, 9, 11 ) ;
#302 = DATE_AND_TIME ( #301, #300 ) ;
#303 = APPROVAL_DATE_TIME ( #302, #19 ) ;
#304 = EDGE_LOOP ( 'NONE', ( #197, #196, #195, #194 ) ) ;
#305 = EDGE_LOOP ( 'NONE', ( #204 ) ) ;
ENDSEC;
END-ISO-10303-21;
