ISO-10303-21;
HEADER;
FILE_DESCRIPTION (( 'STEP AP203' ),
    '1' );
FILE_NAME ('Êðûøêà íà îòâåòâèòåëü Ò-îáðàçíûé âåðòèêàëüíûé TDSA_38397.STEP',
    '2012-11-09T08:44:24',
    ( 'Àñååâ' ),
    ( '' ),
    'SwSTEP 2.0',
    'SolidWorks 2012',
    '' );
FILE_SCHEMA (( 'CONFIG_CONTROL_DESIGN' ));
ENDSEC;

DATA;
#1 = AXIS2_PLACEMENT_3D ( 'NONE', #140, #128, #127 ) ;
#2 = AXIS2_PLACEMENT_3D ( 'NONE', #138, #132, #131 ) ;
#3 = AXIS2_PLACEMENT_3D ( 'NONE', #141, #84, #137 ) ;
#4 = AXIS2_PLACEMENT_3D ( 'NONE', #103, #144, #142 ) ;
#5 = AXIS2_PLACEMENT_3D ( 'NONE', #115, #147, #146 ) ;
#6 = AXIS2_PLACEMENT_3D ( 'NONE', #121, #101, #100 ) ;
#7 = AXIS2_PLACEMENT_3D ( 'NONE', #116, #113, #105 ) ;
#8 = AXIS2_PLACEMENT_3D ( 'NONE', #367, #366, #365 ) ;
#9 = AXIS2_PLACEMENT_3D ( 'NONE', #425, #424, #380 ) ;
#10 = AXIS2_PLACEMENT_3D ( 'NONE', #418, #423, #422 ) ;
#11 = AXIS2_PLACEMENT_3D ( 'NONE', #373, #372, #370 ) ;
#12 = EDGE_CURVE ( 'NONE', #319, #313, #256, .T. ) ;
#13 = EDGE_CURVE ( 'NONE', #319, #318, #341, .T. ) ;
#14 = EDGE_CURVE ( 'NONE', #318, #308, #257, .T. ) ;
#15 = EDGE_CURVE ( 'NONE', #313, #308, #250, .T. ) ;
#16 = EDGE_CURVE ( 'NONE', #307, #305, #252, .T. ) ;
#17 = EDGE_CURVE ( 'NONE', #307, #306, #248, .T. ) ;
#18 = EDGE_CURVE ( 'NONE', #306, #317, #246, .T. ) ;
#19 = EDGE_CURVE ( 'NONE', #314, #307, #244, .T. ) ;
#20 = EDGE_CURVE ( 'NONE', #311, #304, #240, .T. ) ;
#21 = EDGE_CURVE ( 'NONE', #309, #311, #238, .T. ) ;
#22 = EDGE_CURVE ( 'NONE', #309, #314, #242, .T. ) ;
#23 = EDGE_CURVE ( 'NONE', #310, #311, #236, .T. ) ;
#24 = EDGE_CURVE ( 'NONE', #315, #310, #232, .T. ) ;
#25 = EDGE_CURVE ( 'NONE', #315, #309, #234, .T. ) ;
#26 = EDGE_CURVE ( 'NONE', #310, #316, #228, .T. ) ;
#27 = EDGE_CURVE ( 'NONE', #312, #316, #226, .T. ) ;
#28 = EDGE_CURVE ( 'NONE', #315, #312, #230, .T. ) ;
#29 = EDGE_CURVE ( 'NONE', #191, #191, #222, .T. ) ;
#30 = EDGE_CURVE ( 'NONE', #305, #313, #219, .T. ) ;
#31 = EDGE_CURVE ( 'NONE', #317, #308, #220, .T. ) ;
#32 = EDGE_CURVE ( 'NONE', #305, #317, #264, .T. ) ;
#33 = EDGE_CURVE ( 'NONE', #314, #304, #218, .T. ) ;
#34 = EDGE_CURVE ( 'NONE', #185, #185, #216, .T. ) ;
#35 = EDGE_CURVE ( 'NONE', #184, #184, #212, .T. ) ;
#36 = EDGE_CURVE ( 'NONE', #316, #318, #214, .T. ) ;
#37 = EDGE_CURVE ( 'NONE', #312, #319, #213, .T. ) ;
#38 = EDGE_CURVE ( 'NONE', #183, #183, #209, .T. ) ;
#39 = EDGE_CURVE ( 'NONE', #304, #306, #207, .T. ) ;
#40 = PRODUCT_RELATED_PRODUCT_CATEGORY ( 'detail', '', ( #65 ) ) ;
#41 = CC_DESIGN_SECURITY_CLASSIFICATION ( #46, ( #51 ) ) ;
#42 = CC_DESIGN_APPROVAL ( #43, ( #46 ) ) ;
#43 = APPROVAL ( #68, 'UNSPECIFIED' ) ;
#44 = CC_DESIGN_DATE_AND_TIME_ASSIGNMENT ( #155, #69, ( #46 ) ) ;
#45 = CC_DESIGN_PERSON_AND_ORGANIZATION_ASSIGNMENT ( #159, #70, ( #46 ) ) ;
#46 = SECURITY_CLASSIFICATION ( '', '', #71 ) ;
#47 = CC_DESIGN_PERSON_AND_ORGANIZATION_ASSIGNMENT ( #160, #72, ( #51 ) ) ;
#48 = CC_DESIGN_PERSON_AND_ORGANIZATION_ASSIGNMENT ( #161, #73, ( #51 ) ) ;
#49 = CC_DESIGN_APPROVAL ( #50, ( #51 ) ) ;
#50 = APPROVAL ( #75, 'UNSPECIFIED' ) ;
#51 = PRODUCT_DEFINITION_FORMATION_WITH_SPECIFIED_SOURCE ( 'ANY', '', #65, .NOT_KNOWN. ) ;
#52 = CC_DESIGN_DATE_AND_TIME_ASSIGNMENT ( #169, #76, ( #56 ) ) ;
#53 = CC_DESIGN_PERSON_AND_ORGANIZATION_ASSIGNMENT ( #173, #77, ( #56 ) ) ;
#54 = CC_DESIGN_APPROVAL ( #55, ( #56 ) ) ;
#55 = APPROVAL ( #79, 'UNSPECIFIED' ) ;
#56 = PRODUCT_DEFINITION ( 'UNKNOWN', '', #51, #352 ) ;
#57 = CC_DESIGN_PERSON_AND_ORGANIZATION_ASSIGNMENT ( #181, #83, ( #65 ) ) ;
#58 = AXIS2_PLACEMENT_3D ( 'NONE', #94, #93, #86 ) ;
#59 = AXIS2_PLACEMENT_3D ( 'NONE', #106, #102, #107 ) ;
#60 = AXIS2_PLACEMENT_3D ( 'NONE', #108, #111, #118 ) ;
#61 = AXIS2_PLACEMENT_3D ( 'NONE', #125, #110, #109 ) ;
#62 =( GEOMETRIC_REPRESENTATION_CONTEXT ( 3 ) GLOBAL_UNCERTAINTY_ASSIGNED_CONTEXT ( ( #82 ) ) GLOBAL_UNIT_ASSIGNED_CONTEXT ( ( #92, #91, #90 ) ) REPRESENTATION_CONTEXT ( 'NONE', 'WORKASPACE' ) );
#63 = AXIS2_PLACEMENT_3D ( 'NONE', #122, #117, #114 ) ;
#64 = AXIS2_PLACEMENT_3D ( 'NONE', #126, #135, #120 ) ;
#65 = PRODUCT ( 'Êðûøêà íà îòâåòâèòåëü Ò-îáðàçíûé âåðòèêàëüíûé TDSA_38397', 'Êðûøêà íà îòâåòâèòåëü Ò-îáðàçíûé âåðòèêàëüíûé TDSA_38397', '', ( #85 ) ) ;
#66 = PERSON ( 'UNSPECIFIED', 'UNSPECIFIED', 'UNSPECIFIED', ('UNSPECIFIED'), ('UNSPECIFIED'), ('UNSPECIFIED') ) ;
#67 = APPROVAL_ROLE ( '' ) ;
#68 = APPROVAL_STATUS ( 'not_yet_approved' ) ;
#69 = DATE_TIME_ROLE ( 'classification_date' ) ;
#70 = PERSON_AND_ORGANIZATION_ROLE ( 'classification_officer' ) ;
#71 = SECURITY_CLASSIFICATION_LEVEL ( 'unclassified' ) ;
#72 = PERSON_AND_ORGANIZATION_ROLE ( 'design_supplier' ) ;
#73 = PERSON_AND_ORGANIZATION_ROLE ( 'creator' ) ;
#74 = APPROVAL_ROLE ( '' ) ;
#75 = APPROVAL_STATUS ( 'not_yet_approved' ) ;
#76 = DATE_TIME_ROLE ( 'creation_date' ) ;
#77 = PERSON_AND_ORGANIZATION_ROLE ( 'creator' ) ;
#78 = APPROVAL_ROLE ( '' ) ;
#79 = APPROVAL_STATUS ( 'not_yet_approved' ) ;
#80 = MANIFOLD_SOLID_BREP ( 'Âûðåç-Âûòÿíóòü1', #346 ) ;
#81 = ADVANCED_BREP_SHAPE_REPRESENTATION ( '¦¨v°úð ýð þªòõªòøªõû¹ T-þñ¨ð÷ývù òõ¨ªøúðû¹ývù TDSA_38397', ( #80, #58 ), #62 ) ;
#82 = UNCERTAINTY_MEASURE_WITH_UNIT (LENGTH_MEASURE( 1.000000000000000100E-005 ), #92, 'distance_accuracy_value', 'NONE');
#83 = PERSON_AND_ORGANIZATION_ROLE ( 'design_owner' ) ;
#84 = DIRECTION ( 'NONE',  ( 0.0000000000000000000, 1.000000000000000000, 0.0000000000000000000 ) ) ;
#85 = MECHANICAL_CONTEXT ( 'NONE', #87, 'mechanical' ) ;
#86 = DIRECTION ( 'NONE',  ( 1.000000000000000000, 0.0000000000000000000, 0.0000000000000000000 ) ) ;
#87 = APPLICATION_CONTEXT ( 'configuration controlled 3d designs of mechanical parts and assemblies' ) ;
#88 = APPLICATION_PROTOCOL_DEFINITION ( 'international standard', 'config_control_design', 1994, #87 ) ;
#89 = PLANE ( 'NONE',  #5 ) ;
#90 =( NAMED_UNIT ( * ) SI_UNIT ( $, .STERADIAN. ) SOLID_ANGLE_UNIT ( ) );
#91 =( NAMED_UNIT ( * ) PLANE_ANGLE_UNIT ( ) SI_UNIT ( $, .RADIAN. ) );
#92 =( LENGTH_UNIT ( ) NAMED_UNIT ( * ) SI_UNIT ( .MILLI., .METRE. ) );
#93 = DIRECTION ( 'NONE',  ( 0.0000000000000000000, 0.0000000000000000000, 1.000000000000000000 ) ) ;
#94 = CARTESIAN_POINT ( 'NONE',  ( 0.0000000000000000000, 0.0000000000000000000, 0.0000000000000000000 ) ) ;
#95 = CARTESIAN_POINT ( 'NONE',  ( 1.734723475976807100E-015, 0.0000000000000000000, 17.49999999999999600 ) ) ;
#96 = CARTESIAN_POINT ( 'NONE',  ( 0.0000000000000000000, 0.0000000000000000000, 647.5000000000001100 ) ) ;
#97 = APPLICATION_PROTOCOL_DEFINITION ( 'international standard', 'config_control_design', 1994, #143 ) ;
#98 = CARTESIAN_POINT ( 'NONE',  ( 1.734723475976807100E-015, 0.5999999999999999800, 17.49999999999999600 ) ) ;
#99 = CARTESIAN_POINT ( 'NONE',  ( 0.0000000000000000000, 0.5999999999999999800, 642.5000000000000000 ) ) ;
#100 = DIRECTION ( 'NONE',  ( -0.0000000000000000000, 0.0000000000000000000, -1.000000000000000000 ) ) ;
#101 = DIRECTION ( 'NONE',  ( 1.000000000000000000, 0.0000000000000000000, -0.0000000000000000000 ) ) ;
#102 = DIRECTION ( 'NONE',  ( -0.0000000000000000000, 1.000000000000000000, -0.0000000000000000000 ) ) ;
#103 = CARTESIAN_POINT ( 'NONE',  ( 151.5999999999999900, -14.00000000000000000, 660.0000000000000000 ) ) ;
#104 = PLANE ( 'NONE',  #6 ) ;
#105 = DIRECTION ( 'NONE',  ( -0.0000000000000000000, 0.0000000000000000000, -1.000000000000000000 ) ) ;
#106 = CARTESIAN_POINT ( 'NONE',  ( 0.0000000000000000000, -14.00099999999999900, 645.0000000000000000 ) ) ;
#107 = DIRECTION ( 'NONE',  ( 0.0000000000000000000, 0.0000000000000000000, 1.000000000000000000 ) ) ;
#108 = CARTESIAN_POINT ( 'NONE',  ( 1.734723475976807100E-015, -14.00099999999999900, 14.99999999999999300 ) ) ;
#109 = DIRECTION ( 'NONE',  ( -1.000000000000000000, 0.0000000000000000000, 0.0000000000000000000 ) ) ;
#110 = DIRECTION ( 'NONE',  ( -0.0000000000000000000, 0.0000000000000000000, -1.000000000000000000 ) ) ;
#111 = DIRECTION ( 'NONE',  ( -0.0000000000000000000, 1.000000000000000000, -0.0000000000000000000 ) ) ;
#112 = PLANE ( 'NONE',  #61 ) ;
#113 = DIRECTION ( 'NONE',  ( 1.000000000000000000, 0.0000000000000000000, -0.0000000000000000000 ) ) ;
#114 = DIRECTION ( 'NONE',  ( 0.0000000000000000000, 0.0000000000000000000, 1.000000000000000000 ) ) ;
#115 = CARTESIAN_POINT ( 'NONE',  ( -151.0000000000000000, -14.00000000000000000, 660.0000000000000000 ) ) ;
#116 = CARTESIAN_POINT ( 'NONE',  ( 151.0000000000000000, 0.0000000000000000000, 660.0000000000000000 ) ) ;
#117 = DIRECTION ( 'NONE',  ( -1.000000000000000000, 0.0000000000000000000, 0.0000000000000000000 ) ) ;
#118 = DIRECTION ( 'NONE',  ( 0.0000000000000000000, 0.0000000000000000000, 1.000000000000000000 ) ) ;
#119 = PLANE ( 'NONE',  #63 ) ;
#120 = DIRECTION ( 'NONE',  ( 0.0000000000000000000, -0.0000000000000000000, 1.000000000000000000 ) ) ;
#121 = CARTESIAN_POINT ( 'NONE',  ( 151.5999999999999900, 0.0000000000000000000, 660.0000000000000000 ) ) ;
#122 = CARTESIAN_POINT ( 'NONE',  ( -151.0000000000000000, 0.0000000000000000000, 660.0000000000000000 ) ) ;
#123 = PLANE ( 'NONE',  #64 ) ;
#124 = PLANE ( 'NONE',  #7 ) ;
#125 = CARTESIAN_POINT ( 'NONE',  ( 0.0000000000000000000, 0.0000000000000000000, 660.0000000000000000 ) ) ;
#126 = CARTESIAN_POINT ( 'NONE',  ( -151.0000000000000000, 0.0000000000000000000, 660.0000000000000000 ) ) ;
#127 = DIRECTION ( 'NONE',  ( -1.000000000000000000, 0.0000000000000000000, 0.0000000000000000000 ) ) ;
#128 = DIRECTION ( 'NONE',  ( -0.0000000000000000000, 0.0000000000000000000, -1.000000000000000000 ) ) ;
#129 = CARTESIAN_POINT ( 'NONE',  ( 151.0000000000000000, 0.0000000000000000000, 660.0000000000000000 ) ) ;
#130 = PLANE ( 'NONE',  #1 ) ;
#131 = DIRECTION ( 'NONE',  ( 0.0000000000000000000, 0.0000000000000000000, 1.000000000000000000 ) ) ;
#132 = DIRECTION ( 'NONE',  ( -1.000000000000000000, 0.0000000000000000000, 0.0000000000000000000 ) ) ;
#133 = CARTESIAN_POINT ( 'NONE',  ( 151.0000000000000000, 0.0000000000000000000, 0.0000000000000000000 ) ) ;
#134 = CARTESIAN_POINT ( 'NONE',  ( 151.5999999999999900, -14.00000000000000000, 0.0000000000000000000 ) ) ;
#135 = DIRECTION ( 'NONE',  ( 0.0000000000000000000, 1.000000000000000000, 0.0000000000000000000 ) ) ;
#136 = PLANE ( 'NONE',  #2 ) ;
#137 = DIRECTION ( 'NONE',  ( 0.0000000000000000000, -0.0000000000000000000, 1.000000000000000000 ) ) ;
#138 = CARTESIAN_POINT ( 'NONE',  ( -151.5999999999999900, 0.0000000000000000000, 660.0000000000000000 ) ) ;
#139 = PLANE ( 'NONE',  #3 ) ;
#140 = CARTESIAN_POINT ( 'NONE',  ( 0.0000000000000000000, 0.0000000000000000000, 0.0000000000000000000 ) ) ;
#141 = CARTESIAN_POINT ( 'NONE',  ( -151.0000000000000000, 0.5999999999999999800, 660.0000000000000000 ) ) ;
#142 = DIRECTION ( 'NONE',  ( 0.0000000000000000000, -0.0000000000000000000, -1.000000000000000000 ) ) ;
#143 = APPLICATION_CONTEXT ( 'configuration controlled 3d designs of mechanical parts and assemblies' ) ;
#144 = DIRECTION ( 'NONE',  ( 0.0000000000000000000, -1.000000000000000000, 0.0000000000000000000 ) ) ;
#145 = PLANE ( 'NONE',  #4 ) ;
#146 = DIRECTION ( 'NONE',  ( 0.0000000000000000000, -0.0000000000000000000, -1.000000000000000000 ) ) ;
#147 = DIRECTION ( 'NONE',  ( 0.0000000000000000000, -1.000000000000000000, 0.0000000000000000000 ) ) ;
#148 = APPROVAL_DATE_TIME ( #149, #43 ) ;
#149 = DATE_AND_TIME ( #150, #151 ) ;
#150 = CALENDAR_DATE ( 2012, 9, 11 ) ;
#151 = LOCAL_TIME ( 12, 44, 24.00000000000000000, #152 ) ;
#152 = COORDINATED_UNIVERSAL_TIME_OFFSET ( 4, 0, .AHEAD. ) ;
#153 = APPROVAL_PERSON_ORGANIZATION ( #154, #43, #67 ) ;
#154 = PERSON_AND_ORGANIZATION ( #66, #182 ) ;
#155 = DATE_AND_TIME ( #156, #157 ) ;
#156 = CALENDAR_DATE ( 2012, 9, 11 ) ;
#157 = LOCAL_TIME ( 12, 44, 24.00000000000000000, #158 ) ;
#158 = COORDINATED_UNIVERSAL_TIME_OFFSET ( 4, 0, .AHEAD. ) ;
#159 = PERSON_AND_ORGANIZATION ( #66, #182 ) ;
#160 = PERSON_AND_ORGANIZATION ( #66, #182 ) ;
#161 = PERSON_AND_ORGANIZATION ( #66, #182 ) ;
#162 = APPROVAL_DATE_TIME ( #163, #50 ) ;
#163 = DATE_AND_TIME ( #164, #165 ) ;
#164 = CALENDAR_DATE ( 2012, 9, 11 ) ;
#165 = LOCAL_TIME ( 12, 44, 24.00000000000000000, #166 ) ;
#166 = COORDINATED_UNIVERSAL_TIME_OFFSET ( 4, 0, .AHEAD. ) ;
#167 = APPROVAL_PERSON_ORGANIZATION ( #168, #50, #74 ) ;
#168 = PERSON_AND_ORGANIZATION ( #66, #182 ) ;
#169 = DATE_AND_TIME ( #170, #171 ) ;
#170 = CALENDAR_DATE ( 2012, 9, 11 ) ;
#171 = LOCAL_TIME ( 12, 44, 24.00000000000000000, #172 ) ;
#172 = COORDINATED_UNIVERSAL_TIME_OFFSET ( 4, 0, .AHEAD. ) ;
#173 = PERSON_AND_ORGANIZATION ( #66, #182 ) ;
#174 = APPROVAL_DATE_TIME ( #175, #55 ) ;
#175 = DATE_AND_TIME ( #176, #177 ) ;
#176 = CALENDAR_DATE ( 2012, 9, 11 ) ;
#177 = LOCAL_TIME ( 12, 44, 24.00000000000000000, #178 ) ;
#178 = COORDINATED_UNIVERSAL_TIME_OFFSET ( 4, 0, .AHEAD. ) ;
#179 = APPROVAL_PERSON_ORGANIZATION ( #180, #55, #78 ) ;
#180 = PERSON_AND_ORGANIZATION ( #66, #182 ) ;
#181 = PERSON_AND_ORGANIZATION ( #66, #182 ) ;
#182 = ORGANIZATION ( 'UNSPECIFIED', 'UNSPECIFIED', '' ) ;
#183 = VERTEX_POINT ( 'NONE', #99 ) ;
#184 = VERTEX_POINT ( 'NONE', #95 ) ;
#185 = VERTEX_POINT ( 'NONE', #98 ) ;
#186 = CYLINDRICAL_SURFACE ( 'NONE', #59, 2.500000000000057700 ) ;
#187 = SHAPE_DEFINITION_REPRESENTATION ( #351, #81 ) ;
#188 = FACE_OUTER_BOUND ( 'NONE', #334, .T. ) ;
#189 = CYLINDRICAL_SURFACE ( 'NONE', #60, 2.500000000000002200 ) ;
#190 = FACE_OUTER_BOUND ( 'NONE', #336, .T. ) ;
#191 = VERTEX_POINT ( 'NONE', #96 ) ;
#192 = FACE_OUTER_BOUND ( 'NONE', #335, .T. ) ;
#193 = FACE_OUTER_BOUND ( 'NONE', #331, .T. ) ;
#194 = FACE_BOUND ( 'NONE', #330, .T. ) ;
#195 = FACE_OUTER_BOUND ( 'NONE', #326, .T. ) ;
#196 = FACE_OUTER_BOUND ( 'NONE', #332, .T. ) ;
#197 = FACE_BOUND ( 'NONE', #320, .T. ) ;
#198 = FACE_OUTER_BOUND ( 'NONE', #328, .T. ) ;
#199 = FACE_OUTER_BOUND ( 'NONE', #325, .T. ) ;
#200 = FACE_BOUND ( 'NONE', #321, .T. ) ;
#201 = FACE_OUTER_BOUND ( 'NONE', #324, .T. ) ;
#202 = FACE_OUTER_BOUND ( 'NONE', #337, .T. ) ;
#203 = FACE_OUTER_BOUND ( 'NONE', #323, .T. ) ;
#204 = FACE_BOUND ( 'NONE', #327, .T. ) ;
#205 = VECTOR ( 'NONE', #363, 1000.000000000000000 ) ;
#206 = FACE_OUTER_BOUND ( 'NONE', #329, .T. ) ;
#207 = LINE ( 'NONE', #376, #205 ) ;
#208 = FACE_OUTER_BOUND ( 'NONE', #322, .T. ) ;
#209 = CIRCLE ( 'NONE', #8, 2.500000000000057700 ) ;
#210 = VECTOR ( 'NONE', #378, 1000.000000000000000 ) ;
#211 = VECTOR ( 'NONE', #371, 1000.000000000000000 ) ;
#212 = CIRCLE ( 'NONE', #9, 2.500000000000002200 ) ;
#213 = LINE ( 'NONE', #416, #211 ) ;
#214 = LINE ( 'NONE', #364, #210 ) ;
#215 = VECTOR ( 'NONE', #417, 1000.000000000000000 ) ;
#216 = CIRCLE ( 'NONE', #10, 2.500000000000002200 ) ;
#217 = VECTOR ( 'NONE', #421, 1000.000000000000000 ) ;
#218 = LINE ( 'NONE', #420, #215 ) ;
#219 = LINE ( 'NONE', #392, #254 ) ;
#220 = LINE ( 'NONE', #385, #255 ) ;
#221 = VECTOR ( 'NONE', #383, 1000.000000000000000 ) ;
#222 = CIRCLE ( 'NONE', #11, 2.500000000000057700 ) ;
#223 = VECTOR ( 'NONE', #384, 1000.000000000000000 ) ;
#224 = FACE_OUTER_BOUND ( 'NONE', #333, .T. ) ;
#225 = VECTOR ( 'NONE', #387, 1000.000000000000000 ) ;
#226 = LINE ( 'NONE', #386, #223 ) ;
#227 = VECTOR ( 'NONE', #390, 1000.000000000000000 ) ;
#228 = LINE ( 'NONE', #389, #225 ) ;
#229 = VECTOR ( 'NONE', #391, 1000.000000000000000 ) ;
#230 = LINE ( 'NONE', #395, #221 ) ;
#231 = VECTOR ( 'NONE', #394, 1000.000000000000000 ) ;
#232 = LINE ( 'NONE', #393, #229 ) ;
#233 = VECTOR ( 'NONE', #397, 1000.000000000000000 ) ;
#234 = LINE ( 'NONE', #400, #227 ) ;
#235 = VECTOR ( 'NONE', #398, 1000.000000000000000 ) ;
#236 = LINE ( 'NONE', #405, #231 ) ;
#237 = VECTOR ( 'NONE', #402, 1000.000000000000000 ) ;
#238 = LINE ( 'NONE', #401, #235 ) ;
#239 = VECTOR ( 'NONE', #404, 1000.000000000000000 ) ;
#240 = LINE ( 'NONE', #403, #237 ) ;
#241 = VECTOR ( 'NONE', #406, 1000.000000000000000 ) ;
#242 = LINE ( 'NONE', #407, #233 ) ;
#243 = VECTOR ( 'NONE', #408, 1000.000000000000000 ) ;
#244 = LINE ( 'NONE', #409, #239 ) ;
#245 = VECTOR ( 'NONE', #410, 1000.000000000000000 ) ;
#246 = LINE ( 'NONE', #412, #241 ) ;
#247 = VECTOR ( 'NONE', #411, 1000.000000000000000 ) ;
#248 = LINE ( 'NONE', #388, #243 ) ;
#249 = VECTOR ( 'NONE', #374, 1000.000000000000000 ) ;
#250 = LINE ( 'NONE', #413, #247 ) ;
#251 = VECTOR ( 'NONE', #381, 1000.000000000000000 ) ;
#252 = LINE ( 'NONE', #375, #245 ) ;
#253 = VECTOR ( 'NONE', #399, 1000.000000000000000 ) ;
#254 = VECTOR ( 'NONE', #382, 1000.000000000000000 ) ;
#255 = VECTOR ( 'NONE', #415, 1000.000000000000000 ) ;
#256 = LINE ( 'NONE', #396, #253 ) ;
#257 = LINE ( 'NONE', #377, #249 ) ;
#258 = ORIENTED_EDGE ( 'NONE', *, *, #16, .F. ) ;
#259 = ORIENTED_EDGE ( 'NONE', *, *, #37, .T. ) ;
#260 = ORIENTED_EDGE ( 'NONE', *, *, #17, .T. ) ;
#261 = ORIENTED_EDGE ( 'NONE', *, *, #20, .F. ) ;
#262 = ORIENTED_EDGE ( 'NONE', *, *, #30, .F. ) ;
#263 = ORIENTED_EDGE ( 'NONE', *, *, #12, .T. ) ;
#264 = LINE ( 'NONE', #414, #217 ) ;
#265 = ORIENTED_EDGE ( 'NONE', *, *, #36, .F. ) ;
#266 = ORIENTED_EDGE ( 'NONE', *, *, #26, .F. ) ;
#267 = ORIENTED_EDGE ( 'NONE', *, *, #19, .F. ) ;
#268 = ORIENTED_EDGE ( 'NONE', *, *, #22, .F. ) ;
#269 = ORIENTED_EDGE ( 'NONE', *, *, #28, .T. ) ;
#270 = ORIENTED_EDGE ( 'NONE', *, *, #25, .F. ) ;
#271 = ORIENTED_EDGE ( 'NONE', *, *, #39, .T. ) ;
#272 = ORIENTED_EDGE ( 'NONE', *, *, #32, .T. ) ;
#273 = ORIENTED_EDGE ( 'NONE', *, *, #31, .T. ) ;
#274 = ORIENTED_EDGE ( 'NONE', *, *, #18, .T. ) ;
#275 = ORIENTED_EDGE ( 'NONE', *, *, #35, .T. ) ;
#276 = ORIENTED_EDGE ( 'NONE', *, *, #34, .T. ) ;
#277 = ORIENTED_EDGE ( 'NONE', *, *, #29, .T. ) ;
#278 = ORIENTED_EDGE ( 'NONE', *, *, #38, .T. ) ;
#279 = ORIENTED_EDGE ( 'NONE', *, *, #33, .F. ) ;
#280 = ORIENTED_EDGE ( 'NONE', *, *, #21, .T. ) ;
#281 = ORIENTED_EDGE ( 'NONE', *, *, #20, .T. ) ;
#282 = ORIENTED_EDGE ( 'NONE', *, *, #23, .T. ) ;
#283 = ORIENTED_EDGE ( 'NONE', *, *, #14, .F. ) ;
#284 = ORIENTED_EDGE ( 'NONE', *, *, #21, .F. ) ;
#285 = ORIENTED_EDGE ( 'NONE', *, *, #38, .F. ) ;
#286 = ORIENTED_EDGE ( 'NONE', *, *, #39, .F. ) ;
#287 = ORIENTED_EDGE ( 'NONE', *, *, #34, .F. ) ;
#288 = ORIENTED_EDGE ( 'NONE', *, *, #24, .F. ) ;
#289 = ORIENTED_EDGE ( 'NONE', *, *, #19, .T. ) ;
#290 = ORIENTED_EDGE ( 'NONE', *, *, #33, .T. ) ;
#291 = ORIENTED_EDGE ( 'NONE', *, *, #25, .T. ) ;
#292 = ORIENTED_EDGE ( 'NONE', *, *, #22, .T. ) ;
#293 = ORIENTED_EDGE ( 'NONE', *, *, #23, .F. ) ;
#294 = ORIENTED_EDGE ( 'NONE', *, *, #37, .F. ) ;
#295 = ORIENTED_EDGE ( 'NONE', *, *, #13, .F. ) ;
#296 = ORIENTED_EDGE ( 'NONE', *, *, #35, .F. ) ;
#297 = ORIENTED_EDGE ( 'NONE', *, *, #36, .T. ) ;
#298 = ORIENTED_EDGE ( 'NONE', *, *, #28, .F. ) ;
#299 = ORIENTED_EDGE ( 'NONE', *, *, #24, .T. ) ;
#300 = ORIENTED_EDGE ( 'NONE', *, *, #29, .F. ) ;
#301 = ORIENTED_EDGE ( 'NONE', *, *, #27, .T. ) ;
#302 = ORIENTED_EDGE ( 'NONE', *, *, #27, .F. ) ;
#303 = ORIENTED_EDGE ( 'NONE', *, *, #26, .T. ) ;
#304 = VERTEX_POINT ( 'NONE', #368 ) ;
#305 = VERTEX_POINT ( 'NONE', #361 ) ;
#306 = VERTEX_POINT ( 'NONE', #360 ) ;
#307 = VERTEX_POINT ( 'NONE', #419 ) ;
#308 = VERTEX_POINT ( 'NONE', #359 ) ;
#309 = VERTEX_POINT ( 'NONE', #362 ) ;
#310 = VERTEX_POINT ( 'NONE', #358 ) ;
#311 = VERTEX_POINT ( 'NONE', #369 ) ;
#312 = VERTEX_POINT ( 'NONE', #357 ) ;
#313 = VERTEX_POINT ( 'NONE', #356 ) ;
#314 = VERTEX_POINT ( 'NONE', #355 ) ;
#315 = VERTEX_POINT ( 'NONE', #354 ) ;
#316 = VERTEX_POINT ( 'NONE', #353 ) ;
#317 = VERTEX_POINT ( 'NONE', #134 ) ;
#318 = VERTEX_POINT ( 'NONE', #133 ) ;
#319 = VERTEX_POINT ( 'NONE', #129 ) ;
#320 = EDGE_LOOP ( 'NONE', ( #300 ) ) ;
#321 = EDGE_LOOP ( 'NONE', ( #287 ) ) ;
#322 = EDGE_LOOP ( 'NONE', ( #345, #343, #348, #344 ) ) ;
#323 = EDGE_LOOP ( 'NONE', ( #347, #342, #338, #272 ) ) ;
#324 = EDGE_LOOP ( 'NONE', ( #263, #262, #258, #267, #268, #270, #269, #259 ) ) ;
#325 = EDGE_LOOP ( 'NONE', ( #261, #284, #292, #290 ) ) ;
#326 = EDGE_LOOP ( 'NONE', ( #303, #302, #298, #299 ) ) ;
#327 = EDGE_LOOP ( 'NONE', ( #285 ) ) ;
#328 = EDGE_LOOP ( 'NONE', ( #286, #279, #289, #260 ) ) ;
#329 = EDGE_LOOP ( 'NONE', ( #293, #288, #291, #280 ) ) ;
#330 = EDGE_LOOP ( 'NONE', ( #296 ) ) ;
#331 = EDGE_LOOP ( 'NONE', ( #278 ) ) ;
#332 = EDGE_LOOP ( 'NONE', ( #297, #295, #294, #301 ) ) ;
#333 = EDGE_LOOP ( 'NONE', ( #283, #265, #266, #282, #281, #271, #274, #273 ) ) ;
#334 = EDGE_LOOP ( 'NONE', ( #277 ) ) ;
#335 = EDGE_LOOP ( 'NONE', ( #276 ) ) ;
#336 = EDGE_LOOP ( 'NONE', ( #275 ) ) ;
#337 = EDGE_LOOP ( 'NONE', ( #339, #350, #340, #349 ) ) ;
#338 = ORIENTED_EDGE ( 'NONE', *, *, #16, .T. ) ;
#339 = ORIENTED_EDGE ( 'NONE', *, *, #14, .T. ) ;
#340 = ORIENTED_EDGE ( 'NONE', *, *, #12, .F. ) ;
#341 = LINE ( 'NONE', #379, #251 ) ;
#342 = ORIENTED_EDGE ( 'NONE', *, *, #17, .F. ) ;
#343 = ORIENTED_EDGE ( 'NONE', *, *, #32, .F. ) ;
#344 = ORIENTED_EDGE ( 'NONE', *, *, #15, .T. ) ;
#345 = ORIENTED_EDGE ( 'NONE', *, *, #31, .F. ) ;
#346 = CLOSED_SHELL ( 'NONE', ( #426, #429, #427, #430, #431, #428, #434, #433, #435, #432, #436, #437 ) ) ;
#347 = ORIENTED_EDGE ( 'NONE', *, *, #18, .F. ) ;
#348 = ORIENTED_EDGE ( 'NONE', *, *, #30, .T. ) ;
#349 = ORIENTED_EDGE ( 'NONE', *, *, #13, .T. ) ;
#350 = ORIENTED_EDGE ( 'NONE', *, *, #15, .F. ) ;
#351 = PRODUCT_DEFINITION_SHAPE ( 'NONE', 'NONE',  #56 ) ;
#352 = DESIGN_CONTEXT ( 'detailed design', #143, 'design' ) ;
#353 = CARTESIAN_POINT ( 'NONE',  ( -151.0000000000000000, 0.0000000000000000000, 0.0000000000000000000 ) ) ;
#354 = CARTESIAN_POINT ( 'NONE',  ( -151.0000000000000000, -14.00000000000000000, 660.0000000000000000 ) ) ;
#355 = CARTESIAN_POINT ( 'NONE',  ( -151.5999999999999900, 0.5999999999999999800, 660.0000000000000000 ) ) ;
#356 = CARTESIAN_POINT ( 'NONE',  ( 151.0000000000000000, -14.00000000000000000, 660.0000000000000000 ) ) ;
#357 = CARTESIAN_POINT ( 'NONE',  ( -151.0000000000000000, 0.0000000000000000000, 660.0000000000000000 ) ) ;
#358 = CARTESIAN_POINT ( 'NONE',  ( -151.0000000000000000, -14.00000000000000000, 0.0000000000000000000 ) ) ;
#359 = CARTESIAN_POINT ( 'NONE',  ( 151.0000000000000000, -14.00000000000000000, 0.0000000000000000000 ) ) ;
#360 = CARTESIAN_POINT ( 'NONE',  ( 151.5999999999999900, 0.5999999999999999800, 0.0000000000000000000 ) ) ;
#361 = CARTESIAN_POINT ( 'NONE',  ( 151.5999999999999900, -14.00000000000000000, 660.0000000000000000 ) ) ;
#362 = CARTESIAN_POINT ( 'NONE',  ( -151.5999999999999900, -14.00000000000000000, 660.0000000000000000 ) ) ;
#363 = DIRECTION ( 'NONE',  ( 1.000000000000000000, 0.0000000000000000000, 0.0000000000000000000 ) ) ;
#364 = CARTESIAN_POINT ( 'NONE',  ( -151.0000000000000000, 0.0000000000000000000, 0.0000000000000000000 ) ) ;
#365 = DIRECTION ( 'NONE',  ( 0.0000000000000000000, 0.0000000000000000000, -1.000000000000000000 ) ) ;
#366 = DIRECTION ( 'NONE',  ( -0.0000000000000000000, 1.000000000000000000, -0.0000000000000000000 ) ) ;
#367 = CARTESIAN_POINT ( 'NONE',  ( 0.0000000000000000000, 0.5999999999999999800, 645.0000000000000000 ) ) ;
#368 = CARTESIAN_POINT ( 'NONE',  ( -151.5999999999999900, 0.5999999999999999800, 0.0000000000000000000 ) ) ;
#369 = CARTESIAN_POINT ( 'NONE',  ( -151.5999999999999900, -14.00000000000000000, 0.0000000000000000000 ) ) ;
#370 = DIRECTION ( 'NONE',  ( 0.0000000000000000000, 0.0000000000000000000, 1.000000000000000000 ) ) ;
#371 = DIRECTION ( 'NONE',  ( 1.000000000000000000, 0.0000000000000000000, 0.0000000000000000000 ) ) ;
#372 = DIRECTION ( 'NONE',  ( -0.0000000000000000000, -1.000000000000000000, -0.0000000000000000000 ) ) ;
#373 = CARTESIAN_POINT ( 'NONE',  ( 0.0000000000000000000, 0.0000000000000000000, 645.0000000000000000 ) ) ;
#374 = DIRECTION ( 'NONE',  ( 0.0000000000000000000, -1.000000000000000000, 0.0000000000000000000 ) ) ;
#375 = CARTESIAN_POINT ( 'NONE',  ( 151.5999999999999900, 0.0000000000000000000, 660.0000000000000000 ) ) ;
#376 = CARTESIAN_POINT ( 'NONE',  ( -151.0000000000000000, 0.5999999999999999800, 0.0000000000000000000 ) ) ;
#377 = CARTESIAN_POINT ( 'NONE',  ( 151.0000000000000000, 0.0000000000000000000, 0.0000000000000000000 ) ) ;
#378 = DIRECTION ( 'NONE',  ( 1.000000000000000000, 0.0000000000000000000, 0.0000000000000000000 ) ) ;
#379 = CARTESIAN_POINT ( 'NONE',  ( 151.0000000000000000, 0.0000000000000000000, 660.0000000000000000 ) ) ;
#380 = DIRECTION ( 'NONE',  ( 0.0000000000000000000, 0.0000000000000000000, 1.000000000000000000 ) ) ;
#381 = DIRECTION ( 'NONE',  ( -0.0000000000000000000, -0.0000000000000000000, -1.000000000000000000 ) ) ;
#382 = DIRECTION ( 'NONE',  ( -1.000000000000000000, 0.0000000000000000000, 0.0000000000000000000 ) ) ;
#383 = DIRECTION ( 'NONE',  ( -0.0000000000000000000, 1.000000000000000000, -0.0000000000000000000 ) ) ;
#384 = DIRECTION ( 'NONE',  ( -0.0000000000000000000, -0.0000000000000000000, -1.000000000000000000 ) ) ;
#385 = CARTESIAN_POINT ( 'NONE',  ( 151.5999999999999900, -14.00000000000000000, 0.0000000000000000000 ) ) ;
#386 = CARTESIAN_POINT ( 'NONE',  ( -151.0000000000000000, 0.0000000000000000000, 660.0000000000000000 ) ) ;
#387 = DIRECTION ( 'NONE',  ( -0.0000000000000000000, 1.000000000000000000, -0.0000000000000000000 ) ) ;
#388 = CARTESIAN_POINT ( 'NONE',  ( 151.5999999999999900, 0.5999999999999999800, 660.0000000000000000 ) ) ;
#389 = CARTESIAN_POINT ( 'NONE',  ( -151.0000000000000000, 0.0000000000000000000, 0.0000000000000000000 ) ) ;
#390 = DIRECTION ( 'NONE',  ( -1.000000000000000000, 0.0000000000000000000, 0.0000000000000000000 ) ) ;
#391 = DIRECTION ( 'NONE',  ( -0.0000000000000000000, -0.0000000000000000000, -1.000000000000000000 ) ) ;
#392 = CARTESIAN_POINT ( 'NONE',  ( 151.5999999999999900, -14.00000000000000000, 660.0000000000000000 ) ) ;
#393 = CARTESIAN_POINT ( 'NONE',  ( -151.0000000000000000, -14.00000000000000000, 660.0000000000000000 ) ) ;
#394 = DIRECTION ( 'NONE',  ( -1.000000000000000000, 0.0000000000000000000, 0.0000000000000000000 ) ) ;
#395 = CARTESIAN_POINT ( 'NONE',  ( -151.0000000000000000, 0.0000000000000000000, 660.0000000000000000 ) ) ;
#396 = CARTESIAN_POINT ( 'NONE',  ( 151.0000000000000000, 0.0000000000000000000, 660.0000000000000000 ) ) ;
#397 = DIRECTION ( 'NONE',  ( 0.0000000000000000000, 1.000000000000000000, 0.0000000000000000000 ) ) ;
#398 = DIRECTION ( 'NONE',  ( -0.0000000000000000000, -0.0000000000000000000, -1.000000000000000000 ) ) ;
#399 = DIRECTION ( 'NONE',  ( 0.0000000000000000000, -1.000000000000000000, 0.0000000000000000000 ) ) ;
#400 = CARTESIAN_POINT ( 'NONE',  ( -151.0000000000000000, -14.00000000000000000, 660.0000000000000000 ) ) ;
#401 = CARTESIAN_POINT ( 'NONE',  ( -151.5999999999999900, -14.00000000000000000, 660.0000000000000000 ) ) ;
#402 = DIRECTION ( 'NONE',  ( 0.0000000000000000000, 1.000000000000000000, 0.0000000000000000000 ) ) ;
#403 = CARTESIAN_POINT ( 'NONE',  ( -151.5999999999999900, 0.0000000000000000000, 0.0000000000000000000 ) ) ;
#404 = DIRECTION ( 'NONE',  ( 1.000000000000000000, 0.0000000000000000000, 0.0000000000000000000 ) ) ;
#405 = CARTESIAN_POINT ( 'NONE',  ( -151.0000000000000000, -14.00000000000000000, 0.0000000000000000000 ) ) ;
#406 = DIRECTION ( 'NONE',  ( -0.0000000000000000000, -1.000000000000000000, 0.0000000000000000000 ) ) ;
#407 = CARTESIAN_POINT ( 'NONE',  ( -151.5999999999999900, 0.0000000000000000000, 660.0000000000000000 ) ) ;
#408 = DIRECTION ( 'NONE',  ( -0.0000000000000000000, -0.0000000000000000000, -1.000000000000000000 ) ) ;
#409 = CARTESIAN_POINT ( 'NONE',  ( -151.0000000000000000, 0.5999999999999999800, 660.0000000000000000 ) ) ;
#410 = DIRECTION ( 'NONE',  ( -0.0000000000000000000, -1.000000000000000000, 0.0000000000000000000 ) ) ;
#411 = DIRECTION ( 'NONE',  ( -0.0000000000000000000, -0.0000000000000000000, -1.000000000000000000 ) ) ;
#412 = CARTESIAN_POINT ( 'NONE',  ( 151.5999999999999900, 0.0000000000000000000, 0.0000000000000000000 ) ) ;
#413 = CARTESIAN_POINT ( 'NONE',  ( 151.0000000000000000, -14.00000000000000000, 660.0000000000000000 ) ) ;
#414 = CARTESIAN_POINT ( 'NONE',  ( 151.5999999999999900, -14.00000000000000000, 660.0000000000000000 ) ) ;
#415 = DIRECTION ( 'NONE',  ( -1.000000000000000000, 0.0000000000000000000, 0.0000000000000000000 ) ) ;
#416 = CARTESIAN_POINT ( 'NONE',  ( -151.0000000000000000, 0.0000000000000000000, 660.0000000000000000 ) ) ;
#417 = DIRECTION ( 'NONE',  ( -0.0000000000000000000, -0.0000000000000000000, -1.000000000000000000 ) ) ;
#418 = CARTESIAN_POINT ( 'NONE',  ( 1.734723475976807100E-015, 0.5999999999999999800, 14.99999999999999300 ) ) ;
#419 = CARTESIAN_POINT ( 'NONE',  ( 151.5999999999999900, 0.5999999999999999800, 660.0000000000000000 ) ) ;
#420 = CARTESIAN_POINT ( 'NONE',  ( -151.5999999999999900, 0.5999999999999999800, 660.0000000000000000 ) ) ;
#421 = DIRECTION ( 'NONE',  ( -0.0000000000000000000, -0.0000000000000000000, -1.000000000000000000 ) ) ;
#422 = DIRECTION ( 'NONE',  ( 0.0000000000000000000, 0.0000000000000000000, 1.000000000000000000 ) ) ;
#423 = DIRECTION ( 'NONE',  ( 0.0000000000000000000, 1.000000000000000000, 0.0000000000000000000 ) ) ;
#424 = DIRECTION ( 'NONE',  ( -0.0000000000000000000, -1.000000000000000000, -0.0000000000000000000 ) ) ;
#425 = CARTESIAN_POINT ( 'NONE',  ( 1.734723475976807100E-015, 0.0000000000000000000, 14.99999999999999300 ) ) ;
#426 = ADVANCED_FACE ( 'NONE', ( #202 ), #124, .F. ) ;
#427 = ADVANCED_FACE ( 'NONE', ( #203 ), #104, .T. ) ;
#428 = ADVANCED_FACE ( 'NONE', ( #206 ), #89, .T. ) ;
#429 = ADVANCED_FACE ( 'NONE', ( #208 ), #145, .T. ) ;
#430 = ADVANCED_FACE ( 'NONE', ( #204, #200, #198 ), #139, .T. ) ;
#431 = ADVANCED_FACE ( 'NONE', ( #199 ), #136, .T. ) ;
#432 = ADVANCED_FACE ( 'NONE', ( #224 ), #130, .T. ) ;
#433 = ADVANCED_FACE ( 'NONE', ( #197, #194, #196 ), #123, .F. ) ;
#434 = ADVANCED_FACE ( 'NONE', ( #195 ), #119, .F. ) ;
#435 = ADVANCED_FACE ( 'NONE', ( #201 ), #112, .F. ) ;
#436 = ADVANCED_FACE ( 'NONE', ( #192, #190 ), #189, .F. ) ;
#437 = ADVANCED_FACE ( 'NONE', ( #193, #188 ), #186, .F. ) ;
ENDSEC;
END-ISO-10303-21;
