ISO-10303-21;
HEADER;
FILE_DESCRIPTION (( 'STEP AP203' ),
    '1' );
FILE_NAME ('Ãèëüçà ìåäíàÿ GT-10-5 (ÃÌ) EKF.STEP',
    '2017-01-10T16:26:56',
    ( 'kuryshev' ),
    ( '' ),
    'SwSTEP 2.0',
    'SolidWorks 2010',
    '' );
FILE_SCHEMA (( 'CONFIG_CONTROL_DESIGN' ));
ENDSEC;

DATA;
#1 = AXIS2_PLACEMENT_3D ( 'NONE', #326, #327, #328 ) ;
#2 = AXIS2_PLACEMENT_3D ( 'NONE', #287, #294, #295 ) ;
#3 = AXIS2_PLACEMENT_3D ( 'NONE', #284, #291, #292 ) ;
#4 = AXIS2_PLACEMENT_3D ( 'NONE', #155, #146, #147 ) ;
#5 = AXIS2_PLACEMENT_3D ( 'NONE', #325, #329, #324 ) ;
#6 = EDGE_CURVE ( 'NONE', #143, #142, #213, .T. ) ;
#7 = AXIS2_PLACEMENT_3D ( 'NONE', #290, #298, #299 ) ;
#8 = AXIS2_PLACEMENT_3D ( 'NONE', #148, #342, #343 ) ;
#9 = EDGE_CURVE ( 'NONE', #139, #138, #215, .T. ) ;
#10 = EDGE_CURVE ( 'NONE', #144, #152, #214, .T. ) ;
#11 = EDGE_CURVE ( 'NONE', #156, #152, #218, .T. ) ;
#12 = EDGE_CURVE ( 'NONE', #145, #156, #211, .T. ) ;
#13 = EDGE_CURVE ( 'NONE', #144, #145, #221, .T. ) ;
#14 = EDGE_CURVE ( 'NONE', #136, #138, #220, .T. ) ;
#15 = EDGE_CURVE ( 'NONE', #136, #135, #224, .T. ) ;
#16 = EDGE_CURVE ( 'NONE', #135, #139, #223, .T. ) ;
#17 = EDGE_CURVE ( 'NONE', #152, #139, #222, .T. ) ;
#18 = EDGE_CURVE ( 'NONE', #141, #142, #227, .T. ) ;
#19 = EDGE_CURVE ( 'NONE', #140, #141, #230, .T. ) ;
#20 = EDGE_CURVE ( 'NONE', #140, #143, #226, .T. ) ;
#21 = EDGE_CURVE ( 'NONE', #152, #156, #232, .T. ) ;
#22 = AXIS2_PLACEMENT_3D ( 'NONE', #318, #317, #320 ) ;
#23 = AXIS2_PLACEMENT_3D ( 'NONE', #311, #310, #309 ) ;
#24 = AXIS2_PLACEMENT_3D ( 'NONE', #315, #314, #313 ) ;
#25 = EDGE_CURVE ( 'NONE', #156, #138, #231, .T. ) ;
#26 = EDGE_CURVE ( 'NONE', #138, #139, #234, .T. ) ;
#27 = EDGE_CURVE ( 'NONE', #145, #144, #236, .T. ) ;
#28 = EDGE_CURVE ( 'NONE', #141, #140, #238, .T. ) ;
#29 = EDGE_CURVE ( 'NONE', #135, #136, #240, .T. ) ;
#30 = EDGE_CURVE ( 'NONE', #142, #143, #242, .T. ) ;
#31 = AXIS2_PLACEMENT_3D ( 'NONE', #260, #261, #262 ) ;
#32 = AXIS2_PLACEMENT_3D ( 'NONE', #266, #267, #344 ) ;
#33 = AXIS2_PLACEMENT_3D ( 'NONE', #346, #347, #348 ) ;
#34 = AXIS2_PLACEMENT_3D ( 'NONE', #274, #263, #275 ) ;
#35 = AXIS2_PLACEMENT_3D ( 'NONE', #279, #280, #281 ) ;
#36 = AXIS2_PLACEMENT_3D ( 'NONE', #322, #321, #316 ) ;
#37 = AXIS2_PLACEMENT_3D ( 'NONE', #271, #288, #289 ) ;
#38 = AXIS2_PLACEMENT_3D ( 'NONE', #323, #330, #331 ) ;
#39 = AXIS2_PLACEMENT_3D ( 'NONE', #282, #285, #286 ) ;
#40 = SHAPE_DEFINITION_REPRESENTATION ( #150, #119 ) ;
#41 = AXIS2_PLACEMENT_3D ( 'NONE', #121, #120, #123 ) ;
#42 = AXIS2_PLACEMENT_3D ( 'NONE', #132, #133, #134 ) ;
#43 = AXIS2_PLACEMENT_3D ( 'NONE', #124, #126, #127 ) ;
#44 = AXIS2_PLACEMENT_3D ( 'NONE', #129, #128, #122 ) ;
#45 = CC_DESIGN_PERSON_AND_ORGANIZATION_ASSIGNMENT ( #76, #66, ( #117 ) ) ;
#46 = PRODUCT_DEFINITION ( 'UNKNOWN', '', #51, #149 ) ;
#47 = APPROVAL ( #69, 'UNSPECIFIED' ) ;
#48 = CC_DESIGN_APPROVAL ( #47, ( #46 ) ) ;
#49 = CC_DESIGN_PERSON_AND_ORGANIZATION_ASSIGNMENT ( #84, #71, ( #46 ) ) ;
#50 = CC_DESIGN_DATE_AND_TIME_ASSIGNMENT ( #88, #72, ( #46 ) ) ;
#51 = PRODUCT_DEFINITION_FORMATION_WITH_SPECIFIED_SOURCE ( 'ANY', '', #117, .NOT_KNOWN. ) ;
#52 = APPROVAL ( #73, 'UNSPECIFIED' ) ;
#53 = CC_DESIGN_APPROVAL ( #52, ( #51 ) ) ;
#54 = CC_DESIGN_PERSON_AND_ORGANIZATION_ASSIGNMENT ( #96, #110, ( #51 ) ) ;
#55 = CC_DESIGN_PERSON_AND_ORGANIZATION_ASSIGNMENT ( #97, #111, ( #51 ) ) ;
#56 = SECURITY_CLASSIFICATION ( '', '', #112 ) ;
#57 = CC_DESIGN_PERSON_AND_ORGANIZATION_ASSIGNMENT ( #98, #113, ( #56 ) ) ;
#58 = CC_DESIGN_DATE_AND_TIME_ASSIGNMENT ( #102, #114, ( #56 ) ) ;
#59 = APPROVAL ( #115, 'UNSPECIFIED' ) ;
#60 = CC_DESIGN_APPROVAL ( #59, ( #56 ) ) ;
#61 = CC_DESIGN_SECURITY_CLASSIFICATION ( #56, ( #51 ) ) ;
#62 = PRODUCT_RELATED_PRODUCT_CATEGORY ( 'detail', '', ( #117 ) ) ;
#63 = APPLICATION_CONTEXT ( 'configuration controlled 3d designs of mechanical parts and assemblies' ) ;
#64 = APPLICATION_PROTOCOL_DEFINITION ( 'international standard', 'config_control_design', 1994, #63 ) ;
#65 = MECHANICAL_CONTEXT ( 'NONE', #63, 'mechanical' ) ;
#66 = PERSON_AND_ORGANIZATION_ROLE ( 'design_owner' ) ;
#67 = APPLICATION_CONTEXT ( 'configuration controlled 3d designs of mechanical parts and assemblies' ) ;
#68 = APPLICATION_PROTOCOL_DEFINITION ( 'international standard', 'config_control_design', 1994, #67 ) ;
#69 = APPROVAL_STATUS ( 'not_yet_approved' ) ;
#70 = APPROVAL_ROLE ( '' ) ;
#71 = PERSON_AND_ORGANIZATION_ROLE ( 'creator' ) ;
#72 = DATE_TIME_ROLE ( 'creation_date' ) ;
#73 = APPROVAL_STATUS ( 'not_yet_approved' ) ;
#74 = APPROVAL_ROLE ( '' ) ;
#75 = ORGANIZATION ( 'UNSPECIFIED', 'UNSPECIFIED', '' ) ;
#76 = PERSON_AND_ORGANIZATION ( #151, #75 ) ;
#77 = PERSON_AND_ORGANIZATION ( #151, #75 ) ;
#78 = APPROVAL_PERSON_ORGANIZATION ( #77, #47, #70 ) ;
#79 = COORDINATED_UNIVERSAL_TIME_OFFSET ( 3, 0, .AHEAD. ) ;
#80 = LOCAL_TIME ( 19, 26, 56.00000000000000000, #79 ) ;
#81 = CALENDAR_DATE ( 2017, 10, 1 ) ;
#82 = DATE_AND_TIME ( #81, #80 ) ;
#83 = APPROVAL_DATE_TIME ( #82, #47 ) ;
#84 = PERSON_AND_ORGANIZATION ( #151, #75 ) ;
#85 = COORDINATED_UNIVERSAL_TIME_OFFSET ( 3, 0, .AHEAD. ) ;
#86 = LOCAL_TIME ( 19, 26, 56.00000000000000000, #85 ) ;
#87 = CALENDAR_DATE ( 2017, 10, 1 ) ;
#88 = DATE_AND_TIME ( #87, #86 ) ;
#89 = PERSON_AND_ORGANIZATION ( #151, #75 ) ;
#90 = APPROVAL_PERSON_ORGANIZATION ( #89, #52, #74 ) ;
#91 = COORDINATED_UNIVERSAL_TIME_OFFSET ( 3, 0, .AHEAD. ) ;
#92 = LOCAL_TIME ( 19, 26, 56.00000000000000000, #91 ) ;
#93 = CALENDAR_DATE ( 2017, 10, 1 ) ;
#94 = DATE_AND_TIME ( #93, #92 ) ;
#95 = APPROVAL_DATE_TIME ( #94, #52 ) ;
#96 = PERSON_AND_ORGANIZATION ( #151, #75 ) ;
#97 = PERSON_AND_ORGANIZATION ( #151, #75 ) ;
#98 = PERSON_AND_ORGANIZATION ( #151, #75 ) ;
#99 = COORDINATED_UNIVERSAL_TIME_OFFSET ( 3, 0, .AHEAD. ) ;
#100 = LOCAL_TIME ( 19, 26, 56.00000000000000000, #99 ) ;
#101 = CALENDAR_DATE ( 2017, 10, 1 ) ;
#102 = DATE_AND_TIME ( #101, #100 ) ;
#103 = PERSON_AND_ORGANIZATION ( #151, #75 ) ;
#104 = APPROVAL_PERSON_ORGANIZATION ( #103, #59, #116 ) ;
#105 = COORDINATED_UNIVERSAL_TIME_OFFSET ( 3, 0, .AHEAD. ) ;
#106 = LOCAL_TIME ( 19, 26, 56.00000000000000000, #105 ) ;
#107 = CALENDAR_DATE ( 2017, 10, 1 ) ;
#108 = DATE_AND_TIME ( #107, #106 ) ;
#109 = APPROVAL_DATE_TIME ( #108, #59 ) ;
#110 = PERSON_AND_ORGANIZATION_ROLE ( 'creator' ) ;
#111 = PERSON_AND_ORGANIZATION_ROLE ( 'design_supplier' ) ;
#112 = SECURITY_CLASSIFICATION_LEVEL ( 'unclassified' ) ;
#113 = PERSON_AND_ORGANIZATION_ROLE ( 'classification_officer' ) ;
#114 = DATE_TIME_ROLE ( 'classification_date' ) ;
#115 = APPROVAL_STATUS ( 'not_yet_approved' ) ;
#116 = APPROVAL_ROLE ( '' ) ;
#117 = PRODUCT ( 'Ãèëüçà ìåäíàÿ GT-10-5 (ÃÌ) EKF', 'Ãèëüçà ìåäíàÿ GT-10-5 (ÃÌ) EKF', '', ( #65 ) ) ;
#118 = UNCERTAINTY_MEASURE_WITH_UNIT (LENGTH_MEASURE( 1.000000000000000100E-005 ), #125, 'distance_accuracy_value', 'NONE');
#119 = ADVANCED_BREP_SHAPE_REPRESENTATION ( 'Ãèëüçà ìåäíàÿ GT-10-5 (ÃÌ) EKF', ( #137, #42 ), #258 ) ;
#120 = DIRECTION ( 'NONE',  ( -0.0000000000000000000, -0.0000000000000000000, -1.000000000000000000 ) ) ;
#121 = CARTESIAN_POINT ( 'NONE',  ( 0.0000000000000000000, 0.0000000000000000000, 30.00000000000000000 ) ) ;
#122 = DIRECTION ( 'NONE',  ( -1.000000000000000000, 0.0000000000000000000, 0.0000000000000000000 ) ) ;
#123 = DIRECTION ( 'NONE',  ( -1.000000000000000000, 0.0000000000000000000, 0.0000000000000000000 ) ) ;
#124 = CARTESIAN_POINT ( 'NONE',  ( 0.0000000000000000000, 0.0000000000000000000, 0.5000000000000038900 ) ) ;
#125 =( LENGTH_UNIT ( ) NAMED_UNIT ( * ) SI_UNIT ( .MILLI., .METRE. ) );
#126 = DIRECTION ( 'NONE',  ( -0.0000000000000000000, -0.0000000000000000000, 1.000000000000000000 ) ) ;
#127 = DIRECTION ( 'NONE',  ( 1.000000000000000000, 0.0000000000000000000, 0.0000000000000000000 ) ) ;
#128 = DIRECTION ( 'NONE',  ( 0.0000000000000000000, 0.0000000000000000000, -1.000000000000000000 ) ) ;
#129 = CARTESIAN_POINT ( 'NONE',  ( 0.0000000000000000000, 0.0000000000000000000, 30.00000000000000000 ) ) ;
#130 =( NAMED_UNIT ( * ) PLANE_ANGLE_UNIT ( ) SI_UNIT ( $, .RADIAN. ) );
#131 =( NAMED_UNIT ( * ) SI_UNIT ( $, .STERADIAN. ) SOLID_ANGLE_UNIT ( ) );
#132 = CARTESIAN_POINT ( 'NONE',  ( 0.0000000000000000000, 0.0000000000000000000, 0.0000000000000000000 ) ) ;
#133 = DIRECTION ( 'NONE',  ( 0.0000000000000000000, 0.0000000000000000000, 1.000000000000000000 ) ) ;
#134 = DIRECTION ( 'NONE',  ( 1.000000000000000000, 0.0000000000000000000, 0.0000000000000000000 ) ) ;
#135 = VERTEX_POINT ( 'NONE', #296 ) ;
#136 = VERTEX_POINT ( 'NONE', #297 ) ;
#137 = MANIFOLD_SOLID_BREP ( 'Ôàñêà1', #174 ) ;
#138 = VERTEX_POINT ( 'NONE', #301 ) ;
#139 = VERTEX_POINT ( 'NONE', #302 ) ;
#140 = VERTEX_POINT ( 'NONE', #293 ) ;
#141 = VERTEX_POINT ( 'NONE', #303 ) ;
#142 = VERTEX_POINT ( 'NONE', #304 ) ;
#143 = VERTEX_POINT ( 'NONE', #305 ) ;
#144 = VERTEX_POINT ( 'NONE', #306 ) ;
#145 = VERTEX_POINT ( 'NONE', #307 ) ;
#146 = DIRECTION ( 'NONE',  ( 0.0000000000000000000, 0.0000000000000000000, 1.000000000000000000 ) ) ;
#147 = DIRECTION ( 'NONE',  ( 1.000000000000000000, 0.0000000000000000000, 0.0000000000000000000 ) ) ;
#148 = CARTESIAN_POINT ( 'NONE',  ( 0.0000000000000000000, 0.0000000000000000000, 0.5000000000000038900 ) ) ;
#149 = DESIGN_CONTEXT ( 'detailed design', #67, 'design' ) ;
#150 = PRODUCT_DEFINITION_SHAPE ( 'NONE', 'NONE',  #46 ) ;
#151 = PERSON ( 'UNSPECIFIED', 'UNSPECIFIED', 'UNSPECIFIED', ('UNSPECIFIED'), ('UNSPECIFIED'), ('UNSPECIFIED') ) ;
#152 = VERTEX_POINT ( 'NONE', #300 ) ;
#153 = CARTESIAN_POINT ( 'NONE',  ( 3.499999999999999600, 4.286263797015736100E-016, 30.00000000000000000 ) ) ;
#154 = CARTESIAN_POINT ( 'NONE',  ( -3.499999999999999600, 0.0000000000000000000, 30.00000000000000000 ) ) ;
#155 = CARTESIAN_POINT ( 'NONE',  ( 0.0000000000000000000, 0.0000000000000000000, 0.0000000000000000000 ) ) ;
#156 = VERTEX_POINT ( 'NONE', #308 ) ;
#157 = EDGE_LOOP ( 'NONE', ( #187, #188 ) ) ;
#158 = ORIENTED_EDGE ( 'NONE', *, *, #13, .F. ) ;
#159 = EDGE_LOOP ( 'NONE', ( #158, #160, #165, #162 ) ) ;
#160 = ORIENTED_EDGE ( 'NONE', *, *, #10, .T. ) ;
#161 = EDGE_LOOP ( 'NONE', ( #183, #184, #186, #164 ) ) ;
#162 = ORIENTED_EDGE ( 'NONE', *, *, #12, .F. ) ;
#163 = EDGE_LOOP ( 'NONE', ( #175, #176, #178, #179 ) ) ;
#164 = ORIENTED_EDGE ( 'NONE', *, *, #25, .F. ) ;
#165 = ORIENTED_EDGE ( 'NONE', *, *, #11, .F. ) ;
#166 = EDGE_LOOP ( 'NONE', ( #191, #192 ) ) ;
#167 = ORIENTED_EDGE ( 'NONE', *, *, #16, .T. ) ;
#168 = EDGE_LOOP ( 'NONE', ( #199, #200, #201, #202 ) ) ;
#169 = EDGE_LOOP ( 'NONE', ( #195, #196, #197, #198 ) ) ;
#170 = EDGE_LOOP ( 'NONE', ( #203, #204, #167, #205 ) ) ;
#171 = EDGE_LOOP ( 'NONE', ( #193, #194 ) ) ;
#172 = EDGE_LOOP ( 'NONE', ( #189, #190 ) ) ;
#173 = EDGE_LOOP ( 'NONE', ( #206, #207, #208, #209 ) ) ;
#174 = CLOSED_SHELL ( 'NONE', ( #335, #333, #334, #332, #336, #337, #338, #339, #340, #341 ) ) ;
#175 = ORIENTED_EDGE ( 'NONE', *, *, #15, .F. ) ;
#176 = ORIENTED_EDGE ( 'NONE', *, *, #14, .T. ) ;
#177 = ORIENTED_EDGE ( 'NONE', *, *, #19, .T. ) ;
#178 = ORIENTED_EDGE ( 'NONE', *, *, #9, .F. ) ;
#179 = ORIENTED_EDGE ( 'NONE', *, *, #16, .F. ) ;
#180 = ORIENTED_EDGE ( 'NONE', *, *, #18, .T. ) ;
#181 = ORIENTED_EDGE ( 'NONE', *, *, #6, .F. ) ;
#182 = ORIENTED_EDGE ( 'NONE', *, *, #20, .F. ) ;
#183 = ORIENTED_EDGE ( 'NONE', *, *, #11, .T. ) ;
#184 = ORIENTED_EDGE ( 'NONE', *, *, #17, .T. ) ;
#185 = EDGE_LOOP ( 'NONE', ( #177, #180, #181, #182 ) ) ;
#186 = ORIENTED_EDGE ( 'NONE', *, *, #9, .T. ) ;
#187 = ORIENTED_EDGE ( 'NONE', *, *, #27, .T. ) ;
#188 = ORIENTED_EDGE ( 'NONE', *, *, #13, .T. ) ;
#189 = ORIENTED_EDGE ( 'NONE', *, *, #19, .F. ) ;
#190 = ORIENTED_EDGE ( 'NONE', *, *, #28, .F. ) ;
#191 = ORIENTED_EDGE ( 'NONE', *, *, #29, .T. ) ;
#192 = ORIENTED_EDGE ( 'NONE', *, *, #15, .T. ) ;
#193 = ORIENTED_EDGE ( 'NONE', *, *, #6, .T. ) ;
#194 = ORIENTED_EDGE ( 'NONE', *, *, #30, .T. ) ;
#195 = ORIENTED_EDGE ( 'NONE', *, *, #17, .F. ) ;
#196 = ORIENTED_EDGE ( 'NONE', *, *, #21, .T. ) ;
#197 = ORIENTED_EDGE ( 'NONE', *, *, #25, .T. ) ;
#198 = ORIENTED_EDGE ( 'NONE', *, *, #26, .T. ) ;
#199 = ORIENTED_EDGE ( 'NONE', *, *, #18, .F. ) ;
#200 = ORIENTED_EDGE ( 'NONE', *, *, #28, .T. ) ;
#201 = ORIENTED_EDGE ( 'NONE', *, *, #20, .T. ) ;
#202 = ORIENTED_EDGE ( 'NONE', *, *, #30, .F. ) ;
#203 = ORIENTED_EDGE ( 'NONE', *, *, #14, .F. ) ;
#204 = ORIENTED_EDGE ( 'NONE', *, *, #29, .F. ) ;
#205 = ORIENTED_EDGE ( 'NONE', *, *, #26, .F. ) ;
#206 = ORIENTED_EDGE ( 'NONE', *, *, #10, .F. ) ;
#207 = ORIENTED_EDGE ( 'NONE', *, *, #27, .F. ) ;
#208 = ORIENTED_EDGE ( 'NONE', *, *, #12, .T. ) ;
#209 = ORIENTED_EDGE ( 'NONE', *, *, #21, .F. ) ;
#210 = VECTOR ( 'NONE', #259, 1000.000000000000000 ) ;
#211 = LINE ( 'NONE', #154, #210 ) ;
#212 = VECTOR ( 'NONE', #345, 1000.000000000000000 ) ;
#213 = CIRCLE ( 'NONE', #4, 2.500000000000000000 ) ;
#214 = LINE ( 'NONE', #153, #212 ) ;
#215 = CIRCLE ( 'NONE', #8, 4.000000000000000000 ) ;
#216 = VECTOR ( 'NONE', #265, 1000.000000000000100 ) ;
#217 = VECTOR ( 'NONE', #269, 1000.000000000000100 ) ;
#218 = CIRCLE ( 'NONE', #33, 4.000000000000000000 ) ;
#219 = VECTOR ( 'NONE', #278, 1000.000000000000000 ) ;
#220 = LINE ( 'NONE', #349, #216 ) ;
#221 = CIRCLE ( 'NONE', #31, 3.499999999999999600 ) ;
#222 = LINE ( 'NONE', #268, #225 ) ;
#223 = LINE ( 'NONE', #264, #217 ) ;
#224 = CIRCLE ( 'NONE', #32, 3.499999999999992900 ) ;
#225 = VECTOR ( 'NONE', #270, 1000.000000000000000 ) ;
#226 = LINE ( 'NONE', #277, #219 ) ;
#227 = LINE ( 'NONE', #272, #228 ) ;
#228 = VECTOR ( 'NONE', #273, 1000.000000000000000 ) ;
#229 = VECTOR ( 'NONE', #283, 1000.000000000000000 ) ;
#230 = CIRCLE ( 'NONE', #34, 2.500000000000000000 ) ;
#231 = LINE ( 'NONE', #276, #229 ) ;
#232 = CIRCLE ( 'NONE', #35, 4.000000000000000000 ) ;
#233 = FACE_OUTER_BOUND ( 'NONE', #159, .T. ) ;
#234 = CIRCLE ( 'NONE', #39, 4.000000000000000000 ) ;
#235 = FACE_OUTER_BOUND ( 'NONE', #163, .T. ) ;
#236 = CIRCLE ( 'NONE', #37, 3.499999999999999600 ) ;
#237 = FACE_OUTER_BOUND ( 'NONE', #161, .T. ) ;
#238 = CIRCLE ( 'NONE', #3, 2.500000000000000000 ) ;
#239 = CYLINDRICAL_SURFACE ( 'NONE', #23, 4.000000000000000000 ) ;
#240 = CIRCLE ( 'NONE', #2, 3.499999999999992900 ) ;
#241 = FACE_OUTER_BOUND ( 'NONE', #157, .T. ) ;
#242 = CIRCLE ( 'NONE', #7, 2.500000000000000000 ) ;
#243 = FACE_OUTER_BOUND ( 'NONE', #185, .T. ) ;
#244 = FACE_BOUND ( 'NONE', #171, .T. ) ;
#245 = CONICAL_SURFACE ( 'NONE', #24, 4.000000000000000000, 0.7853981633974517200 ) ;
#246 = FACE_OUTER_BOUND ( 'NONE', #166, .T. ) ;
#247 = CYLINDRICAL_SURFACE ( 'NONE', #22, 2.500000000000000000 ) ;
#248 = FACE_OUTER_BOUND ( 'NONE', #169, .T. ) ;
#249 = CONICAL_SURFACE ( 'NONE', #36, 3.499999999999999600, 0.7853981633974415100 ) ;
#250 = FACE_BOUND ( 'NONE', #172, .T. ) ;
#251 = FACE_OUTER_BOUND ( 'NONE', #170, .T. ) ;
#252 = FACE_OUTER_BOUND ( 'NONE', #168, .T. ) ;
#253 = FACE_OUTER_BOUND ( 'NONE', #173, .T. ) ;
#254 = CYLINDRICAL_SURFACE ( 'NONE', #5, 4.000000000000000000 ) ;
#255 = CYLINDRICAL_SURFACE ( 'NONE', #41, 2.500000000000000000 ) ;
#256 = CONICAL_SURFACE ( 'NONE', #43, 4.000000000000000000, 0.7853981633974517200 ) ;
#257 = CONICAL_SURFACE ( 'NONE', #44, 3.499999999999999600, 0.7853981633974415100 ) ;
#258 =( GEOMETRIC_REPRESENTATION_CONTEXT ( 3 ) GLOBAL_UNCERTAINTY_ASSIGNED_CONTEXT ( ( #118 ) ) GLOBAL_UNIT_ASSIGNED_CONTEXT ( ( #125, #130, #131 ) ) REPRESENTATION_CONTEXT ( 'NONE', 'WORKASPACE' ) );
#259 = DIRECTION ( 'NONE',  ( -0.7071067811865426900, 0.0000000000000000000, -0.7071067811865524600 ) ) ;
#260 = CARTESIAN_POINT ( 'NONE',  ( 0.0000000000000000000, 0.0000000000000000000, 30.00000000000000000 ) ) ;
#261 = DIRECTION ( 'NONE',  ( 0.0000000000000000000, 0.0000000000000000000, 1.000000000000000000 ) ) ;
#262 = DIRECTION ( 'NONE',  ( 1.000000000000000000, 0.0000000000000000000, 0.0000000000000000000 ) ) ;
#263 = DIRECTION ( 'NONE',  ( 0.0000000000000000000, 0.0000000000000000000, 1.000000000000000000 ) ) ;
#264 = CARTESIAN_POINT ( 'NONE',  ( 4.000000000000000000, 0.0000000000000000000, 0.5000000000000038900 ) ) ;
#265 = DIRECTION ( 'NONE',  ( -0.7071067811865500200, 8.659560562354963700E-017, 0.7071067811865451300 ) ) ;
#266 = CARTESIAN_POINT ( 'NONE',  ( 0.0000000000000000000, 0.0000000000000000000, 0.0000000000000000000 ) ) ;
#267 = DIRECTION ( 'NONE',  ( -0.0000000000000000000, -0.0000000000000000000, -1.000000000000000000 ) ) ;
#268 = CARTESIAN_POINT ( 'NONE',  ( 4.000000000000000000, 4.898587196589412800E-016, 30.00000000000000000 ) ) ;
#269 = DIRECTION ( 'NONE',  ( 0.7071067811865500200, 0.0000000000000000000, 0.7071067811865451300 ) ) ;
#270 = DIRECTION ( 'NONE',  ( -0.0000000000000000000, -0.0000000000000000000, -1.000000000000000000 ) ) ;
#271 = CARTESIAN_POINT ( 'NONE',  ( 0.0000000000000000000, 0.0000000000000000000, 30.00000000000000000 ) ) ;
#272 = CARTESIAN_POINT ( 'NONE',  ( 2.500000000000000000, 3.061616997868383100E-016, 30.00000000000000000 ) ) ;
#273 = DIRECTION ( 'NONE',  ( -0.0000000000000000000, -0.0000000000000000000, -1.000000000000000000 ) ) ;
#274 = CARTESIAN_POINT ( 'NONE',  ( 0.0000000000000000000, 0.0000000000000000000, 30.00000000000000000 ) ) ;
#275 = DIRECTION ( 'NONE',  ( 1.000000000000000000, 0.0000000000000000000, 0.0000000000000000000 ) ) ;
#276 = CARTESIAN_POINT ( 'NONE',  ( -4.000000000000000000, 0.0000000000000000000, 30.00000000000000000 ) ) ;
#277 = CARTESIAN_POINT ( 'NONE',  ( -2.500000000000000000, 0.0000000000000000000, 30.00000000000000000 ) ) ;
#278 = DIRECTION ( 'NONE',  ( -0.0000000000000000000, -0.0000000000000000000, -1.000000000000000000 ) ) ;
#279 = CARTESIAN_POINT ( 'NONE',  ( 0.0000000000000000000, 0.0000000000000000000, 29.49999999999999300 ) ) ;
#280 = DIRECTION ( 'NONE',  ( 0.0000000000000000000, 0.0000000000000000000, -1.000000000000000000 ) ) ;
#281 = DIRECTION ( 'NONE',  ( 1.000000000000000000, 0.0000000000000000000, 0.0000000000000000000 ) ) ;
#282 = CARTESIAN_POINT ( 'NONE',  ( 0.0000000000000000000, 0.0000000000000000000, 0.5000000000000038900 ) ) ;
#283 = DIRECTION ( 'NONE',  ( -0.0000000000000000000, -0.0000000000000000000, -1.000000000000000000 ) ) ;
#284 = CARTESIAN_POINT ( 'NONE',  ( 0.0000000000000000000, 0.0000000000000000000, 30.00000000000000000 ) ) ;
#285 = DIRECTION ( 'NONE',  ( -0.0000000000000000000, -0.0000000000000000000, 1.000000000000000000 ) ) ;
#286 = DIRECTION ( 'NONE',  ( 1.000000000000000000, 0.0000000000000000000, 0.0000000000000000000 ) ) ;
#287 = CARTESIAN_POINT ( 'NONE',  ( 0.0000000000000000000, 0.0000000000000000000, 0.0000000000000000000 ) ) ;
#288 = DIRECTION ( 'NONE',  ( 0.0000000000000000000, 0.0000000000000000000, 1.000000000000000000 ) ) ;
#289 = DIRECTION ( 'NONE',  ( 1.000000000000000000, 0.0000000000000000000, 0.0000000000000000000 ) ) ;
#290 = CARTESIAN_POINT ( 'NONE',  ( 0.0000000000000000000, 0.0000000000000000000, 0.0000000000000000000 ) ) ;
#291 = DIRECTION ( 'NONE',  ( 0.0000000000000000000, 0.0000000000000000000, 1.000000000000000000 ) ) ;
#292 = DIRECTION ( 'NONE',  ( 1.000000000000000000, 0.0000000000000000000, 0.0000000000000000000 ) ) ;
#293 = CARTESIAN_POINT ( 'NONE',  ( -2.500000000000000000, 0.0000000000000000000, 30.00000000000000000 ) ) ;
#294 = DIRECTION ( 'NONE',  ( -0.0000000000000000000, -0.0000000000000000000, -1.000000000000000000 ) ) ;
#295 = DIRECTION ( 'NONE',  ( 1.000000000000000000, 0.0000000000000000000, 0.0000000000000000000 ) ) ;
#296 = CARTESIAN_POINT ( 'NONE',  ( 3.499999999999992900, 0.0000000000000000000, 0.0000000000000000000 ) ) ;
#297 = CARTESIAN_POINT ( 'NONE',  ( -3.499999999999992900, 4.592425496802570000E-016, 0.0000000000000000000 ) ) ;
#298 = DIRECTION ( 'NONE',  ( 0.0000000000000000000, 0.0000000000000000000, 1.000000000000000000 ) ) ;
#299 = DIRECTION ( 'NONE',  ( 1.000000000000000000, 0.0000000000000000000, 0.0000000000000000000 ) ) ;
#300 = CARTESIAN_POINT ( 'NONE',  ( 4.000000000000000000, 4.898587196589412800E-016, 29.49999999999999300 ) ) ;
#301 = CARTESIAN_POINT ( 'NONE',  ( -4.000000000000000000, 0.0000000000000000000, 0.5000000000000038900 ) ) ;
#302 = CARTESIAN_POINT ( 'NONE',  ( 4.000000000000000000, 4.898587196589412800E-016, 0.5000000000000038900 ) ) ;
#303 = CARTESIAN_POINT ( 'NONE',  ( 2.500000000000000000, 3.061616997868383100E-016, 30.00000000000000000 ) ) ;
#304 = CARTESIAN_POINT ( 'NONE',  ( 2.500000000000000000, 3.061616997868383100E-016, 0.0000000000000000000 ) ) ;
#305 = CARTESIAN_POINT ( 'NONE',  ( -2.500000000000000000, 0.0000000000000000000, 0.0000000000000000000 ) ) ;
#306 = CARTESIAN_POINT ( 'NONE',  ( 3.499999999999999600, 4.592425496802574000E-016, 30.00000000000000000 ) ) ;
#307 = CARTESIAN_POINT ( 'NONE',  ( -3.499999999999999600, 0.0000000000000000000, 30.00000000000000000 ) ) ;
#308 = CARTESIAN_POINT ( 'NONE',  ( -4.000000000000000000, 0.0000000000000000000, 29.49999999999999300 ) ) ;
#309 = DIRECTION ( 'NONE',  ( -1.000000000000000000, 0.0000000000000000000, 0.0000000000000000000 ) ) ;
#310 = DIRECTION ( 'NONE',  ( -0.0000000000000000000, -0.0000000000000000000, -1.000000000000000000 ) ) ;
#311 = CARTESIAN_POINT ( 'NONE',  ( 0.0000000000000000000, 0.0000000000000000000, 30.00000000000000000 ) ) ;
#312 = PLANE ( 'NONE',  #1 ) ;
#313 = DIRECTION ( 'NONE',  ( 1.000000000000000000, 0.0000000000000000000, 0.0000000000000000000 ) ) ;
#314 = DIRECTION ( 'NONE',  ( -0.0000000000000000000, -0.0000000000000000000, 1.000000000000000000 ) ) ;
#315 = CARTESIAN_POINT ( 'NONE',  ( 0.0000000000000000000, 0.0000000000000000000, 0.5000000000000038900 ) ) ;
#316 = DIRECTION ( 'NONE',  ( -1.000000000000000000, 0.0000000000000000000, 0.0000000000000000000 ) ) ;
#317 = DIRECTION ( 'NONE',  ( -0.0000000000000000000, -0.0000000000000000000, -1.000000000000000000 ) ) ;
#318 = CARTESIAN_POINT ( 'NONE',  ( 0.0000000000000000000, 0.0000000000000000000, 30.00000000000000000 ) ) ;
#319 = PLANE ( 'NONE',  #38 ) ;
#320 = DIRECTION ( 'NONE',  ( -1.000000000000000000, 0.0000000000000000000, 0.0000000000000000000 ) ) ;
#321 = DIRECTION ( 'NONE',  ( 0.0000000000000000000, 0.0000000000000000000, -1.000000000000000000 ) ) ;
#322 = CARTESIAN_POINT ( 'NONE',  ( 0.0000000000000000000, 0.0000000000000000000, 30.00000000000000000 ) ) ;
#323 = CARTESIAN_POINT ( 'NONE',  ( 0.0000000000000000000, 0.0000000000000000000, 0.0000000000000000000 ) ) ;
#324 = DIRECTION ( 'NONE',  ( -1.000000000000000000, 0.0000000000000000000, 0.0000000000000000000 ) ) ;
#325 = CARTESIAN_POINT ( 'NONE',  ( 0.0000000000000000000, 0.0000000000000000000, 30.00000000000000000 ) ) ;
#326 = CARTESIAN_POINT ( 'NONE',  ( 0.0000000000000000000, 0.0000000000000000000, 30.00000000000000000 ) ) ;
#327 = DIRECTION ( 'NONE',  ( 0.0000000000000000000, 0.0000000000000000000, 1.000000000000000000 ) ) ;
#328 = DIRECTION ( 'NONE',  ( 1.000000000000000000, 0.0000000000000000000, -0.0000000000000000000 ) ) ;
#329 = DIRECTION ( 'NONE',  ( -0.0000000000000000000, -0.0000000000000000000, -1.000000000000000000 ) ) ;
#330 = DIRECTION ( 'NONE',  ( 0.0000000000000000000, 0.0000000000000000000, 1.000000000000000000 ) ) ;
#331 = DIRECTION ( 'NONE',  ( 1.000000000000000000, 0.0000000000000000000, -0.0000000000000000000 ) ) ;
#332 = ADVANCED_FACE ( 'NONE', ( #237 ), #239, .T. ) ;
#333 = ADVANCED_FACE ( 'NONE', ( #235 ), #245, .T. ) ;
#334 = ADVANCED_FACE ( 'NONE', ( #243 ), #247, .F. ) ;
#335 = ADVANCED_FACE ( 'NONE', ( #233 ), #249, .T. ) ;
#336 = ADVANCED_FACE ( 'NONE', ( #241, #250 ), #312, .T. ) ;
#337 = ADVANCED_FACE ( 'NONE', ( #246, #244 ), #319, .F. ) ;
#338 = ADVANCED_FACE ( 'NONE', ( #248 ), #254, .T. ) ;
#339 = ADVANCED_FACE ( 'NONE', ( #252 ), #255, .F. ) ;
#340 = ADVANCED_FACE ( 'NONE', ( #251 ), #256, .T. ) ;
#341 = ADVANCED_FACE ( 'NONE', ( #253 ), #257, .T. ) ;
#342 = DIRECTION ( 'NONE',  ( -0.0000000000000000000, -0.0000000000000000000, 1.000000000000000000 ) ) ;
#343 = DIRECTION ( 'NONE',  ( 1.000000000000000000, 0.0000000000000000000, 0.0000000000000000000 ) ) ;
#344 = DIRECTION ( 'NONE',  ( 1.000000000000000000, 0.0000000000000000000, 0.0000000000000000000 ) ) ;
#345 = DIRECTION ( 'NONE',  ( 0.7071067811865426900, 8.659560562354874900E-017, -0.7071067811865524600 ) ) ;
#346 = CARTESIAN_POINT ( 'NONE',  ( 0.0000000000000000000, 0.0000000000000000000, 29.49999999999999300 ) ) ;
#347 = DIRECTION ( 'NONE',  ( 0.0000000000000000000, 0.0000000000000000000, -1.000000000000000000 ) ) ;
#348 = DIRECTION ( 'NONE',  ( 1.000000000000000000, 0.0000000000000000000, 0.0000000000000000000 ) ) ;
#349 = CARTESIAN_POINT ( 'NONE',  ( -4.000000000000000000, 4.898587196589412800E-016, 0.5000000000000038900 ) ) ;
ENDSEC;
END-ISO-10303-21;
