ISO-10303-21;
HEADER;
FILE_DESCRIPTION (( 'STEP AP203' ),
    '1' );
FILE_NAME ('Ñîåäèíèòåëüíûå ïëàñòèíû ê ÂÀ-99Ñ (Compact NS) EKF PROxima  250À) (öåíòðàëüíÿÿ).STEP',
    '2016-11-02T19:26:02',
    ( '' ),
    ( '' ),
    'SwSTEP 2.0',
    'SolidWorks 2014',
    '' );
FILE_SCHEMA (( 'CONFIG_CONTROL_DESIGN' ));
ENDSEC;

DATA;
#1 = ORIENTED_EDGE ( 'NONE', *, *, #379, .T. ) ;
#2 = EDGE_CURVE ( 'NONE', #181, #8, #53, .T. ) ;
#3 = DATE_TIME_ROLE ( 'creation_date' ) ;
#4 = APPROVAL_ROLE ( '' ) ;
#5 = SECURITY_CLASSIFICATION ( '', '', #165 ) ;
#6 = VECTOR ( 'NONE', #102, 1000.000000000000000 ) ;
#7 = DIRECTION ( 'NONE',  ( 1.000000000000000000, 0.0000000000000000000, 0.0000000000000000000 ) ) ;
#8 = VERTEX_POINT ( 'NONE', #133 ) ;
#9 = CARTESIAN_POINT ( 'NONE',  ( 4.000000000000000000, 26.00000000000000000, -9.000000000000001800 ) ) ;
#10 = PERSON_AND_ORGANIZATION ( #298, #286 ) ;
#11 = AXIS2_PLACEMENT_3D ( 'NONE', #56, #285, #346 ) ;
#12 = DIRECTION ( 'NONE',  ( -1.000000000000000000, -0.0000000000000000000, -0.0000000000000000000 ) ) ;
#13 = PLANE ( 'NONE',  #236 ) ;
#14 = DIRECTION ( 'NONE',  ( -0.0000000000000000000, -0.0000000000000000000, -1.000000000000000000 ) ) ;
#15 = LINE ( 'NONE', #290, #234 ) ;
#16 = EDGE_CURVE ( 'NONE', #198, #359, #23, .T. ) ;
#17 = ORIENTED_EDGE ( 'NONE', *, *, #354, .F. ) ;
#18 = CARTESIAN_POINT ( 'NONE',  ( 0.0000000000000000000, -26.00000000000000000, 8.999999999999998200 ) ) ;
#19 = ADVANCED_FACE ( 'NONE', ( #21 ), #200, .F. ) ;
#20 = APPROVAL_DATE_TIME ( #121, #330 ) ;
#21 = FACE_OUTER_BOUND ( 'NONE', #329, .T. ) ;
#22 = EDGE_CURVE ( 'NONE', #89, #287, #231, .T. ) ;
#23 = LINE ( 'NONE', #71, #173 ) ;
#24 = VERTEX_POINT ( 'NONE', #39 ) ;
#25 = AXIS2_PLACEMENT_3D ( 'NONE', #57, #86, #284 ) ;
#26 = EDGE_CURVE ( 'NONE', #89, #33, #313, .T. ) ;
#27 = DIRECTION ( 'NONE',  ( 1.000000000000000000, 0.0000000000000000000, 0.0000000000000000000 ) ) ;
#28 = FACE_OUTER_BOUND ( 'NONE', #202, .T. ) ;
#29 = CARTESIAN_POINT ( 'NONE',  ( 0.0000000000000000000, 14.99999999999999800, -5.000000000000000900 ) ) ;
#30 = PRODUCT_RELATED_PRODUCT_CATEGORY ( 'detail', '', ( #107 ) ) ;
#31 = AXIS2_PLACEMENT_3D ( 'NONE', #172, #252, #215 ) ;
#32 = LINE ( 'NONE', #150, #96 ) ;
#33 = VERTEX_POINT ( 'NONE', #364 ) ;
#34 = EDGE_CURVE ( 'NONE', #181, #136, #269, .T. ) ;
#35 = DATE_AND_TIME ( #180, #209 ) ;
#36 = DIRECTION ( 'NONE',  ( 1.000000000000000000, 0.0000000000000000000, 0.0000000000000000000 ) ) ;
#37 = COORDINATED_UNIVERSAL_TIME_OFFSET ( 3, 0, .AHEAD. ) ;
#38 = LINE ( 'NONE', #259, #127 ) ;
#39 = CARTESIAN_POINT ( 'NONE',  ( 0.0000000000000000000, 26.00000000000000000, -9.000000000000001800 ) ) ;
#40 = DIRECTION ( 'NONE',  ( 0.0000000000000000000, 0.0000000000000000000, -1.000000000000000000 ) ) ;
#41 = PLANE ( 'NONE',  #279 ) ;
#42 = APPROVAL_STATUS ( 'not_yet_approved' ) ;
#43 = FACE_OUTER_BOUND ( 'NONE', #235, .T. ) ;
#44 = DIRECTION ( 'NONE',  ( 0.0000000000000000000, 0.0000000000000000000, -1.000000000000000000 ) ) ;
#45 = ORIENTED_EDGE ( 'NONE', *, *, #186, .T. ) ;
#46 = ADVANCED_FACE ( 'NONE', ( #83, #365, #178 ), #301, .F. ) ;
#47 = DIRECTION ( 'NONE',  ( 0.0000000000000000000, 1.000000000000000000, 0.0000000000000000000 ) ) ;
#48 = CC_DESIGN_PERSON_AND_ORGANIZATION_ASSIGNMENT ( #265, #105, ( #5 ) ) ;
#49 = CARTESIAN_POINT ( 'NONE',  ( 4.000000000000000000, 14.99999999999999800, 1.595642429452132100E-017 ) ) ;
#50 = CIRCLE ( 'NONE', #271, 5.000000000000001800 ) ;
#51 = CIRCLE ( 'NONE', #137, 5.000000000000000900 ) ;
#52 = AXIS2_PLACEMENT_3D ( 'NONE', #169, #247, #368 ) ;
#53 = LINE ( 'NONE', #241, #320 ) ;
#54 = CC_DESIGN_SECURITY_CLASSIFICATION ( #5, ( #382 ) ) ;
#55 = ORIENTED_EDGE ( 'NONE', *, *, #383, .T. ) ;
#56 = CARTESIAN_POINT ( 'NONE',  ( 4.000000000000000000, -15.00000000000000000, -3.214856020766169200E-015 ) ) ;
#57 = CARTESIAN_POINT ( 'NONE',  ( 4.000000000000000000, -15.00000000000000000, -3.214856020766169200E-015 ) ) ;
#58 = CARTESIAN_POINT ( 'NONE',  ( 4.000000000000000000, -26.00000000000000000, -9.000000000000001800 ) ) ;
#59 = PERSON_AND_ORGANIZATION ( #298, #286 ) ;
#60 = VERTEX_POINT ( 'NONE', #239 ) ;
#61 = PLANE ( 'NONE',  #296 ) ;
#62 = DIRECTION ( 'NONE',  ( 0.0000000000000000000, 0.0000000000000000000, 1.000000000000000000 ) ) ;
#63 = EDGE_CURVE ( 'NONE', #164, #181, #115, .T. ) ;
#64 = CYLINDRICAL_SURFACE ( 'NONE', #25, 5.000000000000001800 ) ;
#65 = ORIENTED_EDGE ( 'NONE', *, *, #379, .F. ) ;
#66 = ORIENTED_EDGE ( 'NONE', *, *, #34, .F. ) ;
#67 = APPLICATION_PROTOCOL_DEFINITION ( 'international standard', 'config_control_design', 1994, #162 ) ;
#68 = MANIFOLD_SOLID_BREP ( 'Áîáûøêà-Âûòÿíóòü1', #328 ) ;
#69 = CARTESIAN_POINT ( 'NONE',  ( 0.0000000000000000000, -15.00000000000000000, -3.214856020766169200E-015 ) ) ;
#70 = APPROVAL_STATUS ( 'not_yet_approved' ) ;
#71 = CARTESIAN_POINT ( 'NONE',  ( 4.000000000000000000, -15.00000000000000000, -5.000000000000005300 ) ) ;
#72 = APPROVAL ( #240, 'UNSPECIFIED' ) ;
#73 = VECTOR ( 'NONE', #381, 1000.000000000000000 ) ;
#74 = EDGE_LOOP ( 'NONE', ( #338, #155, #295, #211 ) ) ;
#75 = DIRECTION ( 'NONE',  ( 0.0000000000000000000, 0.0000000000000000000, 1.000000000000000000 ) ) ;
#76 = APPLICATION_CONTEXT ( 'configuration controlled 3d designs of mechanical parts and assemblies' ) ;
#77 = ADVANCED_FACE ( 'NONE', ( #43 ), #292, .F. ) ;
#78 = DIRECTION ( 'NONE',  ( 0.0000000000000000000, 1.000000000000000000, 0.0000000000000000000 ) ) ;
#79 = CARTESIAN_POINT ( 'NONE',  ( 0.0000000000000000000, 14.99999999999999800, 5.000000000000000900 ) ) ;
#80 = ADVANCED_FACE ( 'NONE', ( #191 ), #41, .F. ) ;
#81 = ORIENTED_EDGE ( 'NONE', *, *, #186, .F. ) ;
#82 = AXIS2_PLACEMENT_3D ( 'NONE', #49, #371, #213 ) ;
#83 = FACE_BOUND ( 'NONE', #84, .T. ) ;
#84 = EDGE_LOOP ( 'NONE', ( #249, #1 ) ) ;
#85 = LOCAL_TIME ( 22, 26, 2.000000000000000000, #339 ) ;
#86 = DIRECTION ( 'NONE',  ( -1.000000000000000000, -0.0000000000000000000, -0.0000000000000000000 ) ) ;
#87 = DIRECTION ( 'NONE',  ( -1.000000000000000000, -0.0000000000000000000, -0.0000000000000000000 ) ) ;
#88 = LINE ( 'NONE', #194, #384 ) ;
#89 = VERTEX_POINT ( 'NONE', #184 ) ;
#90 = CARTESIAN_POINT ( 'NONE',  ( 4.000000000000000000, -26.00000000000000000, -9.000000000000001800 ) ) ;
#91 = CARTESIAN_POINT ( 'NONE',  ( 4.000000000000000000, 26.00000000000000000, -9.000000000000001800 ) ) ;
#92 = EDGE_LOOP ( 'NONE', ( #356, #55 ) ) ;
#93 = DIRECTION ( 'NONE',  ( -1.000000000000000000, -0.0000000000000000000, -0.0000000000000000000 ) ) ;
#94 = ORIENTED_EDGE ( 'NONE', *, *, #218, .T. ) ;
#95 = AXIS2_PLACEMENT_3D ( 'NONE', #205, #244, #75 ) ;
#96 = VECTOR ( 'NONE', #223, 1000.000000000000000 ) ;
#97 = ORIENTED_EDGE ( 'NONE', *, *, #2, .T. ) ;
#98 = EDGE_CURVE ( 'NONE', #130, #359, #163, .T. ) ;
#99 = DIRECTION ( 'NONE',  ( 0.0000000000000000000, 0.0000000000000000000, -1.000000000000000000 ) ) ;
#100 = CC_DESIGN_APPROVAL ( #192, ( #5 ) ) ;
#101 = PERSON_AND_ORGANIZATION ( #298, #286 ) ;
#102 = DIRECTION ( 'NONE',  ( -1.000000000000000000, -0.0000000000000000000, -0.0000000000000000000 ) ) ;
#103 = EDGE_LOOP ( 'NONE', ( #158, #193 ) ) ;
#104 = VECTOR ( 'NONE', #113, 1000.000000000000000 ) ;
#105 = PERSON_AND_ORGANIZATION_ROLE ( 'classification_officer' ) ;
#106 = CALENDAR_DATE ( 2016, 2, 11 ) ;
#107 = PRODUCT ( 'Ñîåäèíèòåëüíûå ïëàñòèíû ê ÂÀ-99Ñ (Compact NS) EKF PROxima  250À) (öåíòðàëüíÿÿ)', 'Ñîåäèíèòåëüíûå ïëàñòèíû ê ÂÀ-99Ñ (Compact NS) EKF PROxima  250À) (öåíòðàëüíÿÿ)', '', ( #207 ) ) ;
#108 = DIRECTION ( 'NONE',  ( -1.000000000000000000, -0.0000000000000000000, -0.0000000000000000000 ) ) ;
#109 = CARTESIAN_POINT ( 'NONE',  ( 0.0000000000000000000, 0.0000000000000000000, 0.0000000000000000000 ) ) ;
#110 = ORIENTED_EDGE ( 'NONE', *, *, #266, .T. ) ;
#111 = ORIENTED_EDGE ( 'NONE', *, *, #354, .T. ) ;
#112 = AXIS2_PLACEMENT_3D ( 'NONE', #350, #87, #199 ) ;
#113 = DIRECTION ( 'NONE',  ( -1.000000000000000000, -0.0000000000000000000, -0.0000000000000000000 ) ) ;
#114 = DATE_AND_TIME ( #341, #185 ) ;
#115 = LINE ( 'NONE', #9, #124 ) ;
#116 = PRODUCT_DEFINITION ( 'UNKNOWN', '', #382, #119 ) ;
#117 = LINE ( 'NONE', #120, #154 ) ;
#118 = ORIENTED_EDGE ( 'NONE', *, *, #272, .T. ) ;
#119 = DESIGN_CONTEXT ( 'detailed design', #76, 'design' ) ;
#120 = CARTESIAN_POINT ( 'NONE',  ( 4.000000000000000000, -26.00000000000000000, -9.000000000000001800 ) ) ;
#121 = DATE_AND_TIME ( #214, #267 ) ;
#122 = APPROVAL_PERSON_ORGANIZATION ( #101, #72, #270 ) ;
#123 = AXIS2_PLACEMENT_3D ( 'NONE', #109, #323, #36 ) ;
#124 = VECTOR ( 'NONE', #167, 1000.000000000000000 ) ;
#125 = DIRECTION ( 'NONE',  ( 0.0000000000000000000, 0.0000000000000000000, 1.000000000000000000 ) ) ;
#126 = COORDINATED_UNIVERSAL_TIME_OFFSET ( 3, 0, .AHEAD. ) ;
#127 = VECTOR ( 'NONE', #288, 1000.000000000000000 ) ;
#128 = EDGE_LOOP ( 'NONE', ( #176, #111, #142, #308 ) ) ;
#129 = CC_DESIGN_PERSON_AND_ORGANIZATION_ASSIGNMENT ( #347, #331, ( #382 ) ) ;
#130 = VERTEX_POINT ( 'NONE', #325 ) ;
#131 = EDGE_CURVE ( 'NONE', #8, #60, #282, .T. ) ;
#132 = DIRECTION ( 'NONE',  ( -0.0000000000000000000, -1.000000000000000000, -0.0000000000000000000 ) ) ;
#133 = CARTESIAN_POINT ( 'NONE',  ( 4.000000000000000000, -26.00000000000000000, 8.999999999999998200 ) ) ;
#134 = ORIENTED_EDGE ( 'NONE', *, *, #22, .T. ) ;
#135 = CARTESIAN_POINT ( 'NONE',  ( 0.0000000000000000000, 14.99999999999999800, 1.595642429452132100E-017 ) ) ;
#136 = VERTEX_POINT ( 'NONE', #376 ) ;
#137 = AXIS2_PLACEMENT_3D ( 'NONE', #316, #27, #146 ) ;
#138 = CARTESIAN_POINT ( 'NONE',  ( 0.0000000000000000000, -26.00000000000000000, -9.000000000000001800 ) ) ;
#139 = AXIS2_PLACEMENT_3D ( 'NONE', #305, #302, #40 ) ;
#140 = DIRECTION ( 'NONE',  ( 0.0000000000000000000, -0.0000000000000000000, 1.000000000000000000 ) ) ;
#141 = LINE ( 'NONE', #203, #260 ) ;
#142 = ORIENTED_EDGE ( 'NONE', *, *, #276, .F. ) ;
#143 = CC_DESIGN_PERSON_AND_ORGANIZATION_ASSIGNMENT ( #59, #326, ( #107 ) ) ;
#144 = LINE ( 'NONE', #18, #263 ) ;
#145 = ORIENTED_EDGE ( 'NONE', *, *, #348, .F. ) ;
#146 = DIRECTION ( 'NONE',  ( 0.0000000000000000000, 0.0000000000000000000, -1.000000000000000000 ) ) ;
#147 = CC_DESIGN_DATE_AND_TIME_ASSIGNMENT ( #114, #3, ( #116 ) ) ;
#148 = CIRCLE ( 'NONE', #52, 5.000000000000001800 ) ;
#149 = ORIENTED_EDGE ( 'NONE', *, *, #16, .F. ) ;
#150 = CARTESIAN_POINT ( 'NONE',  ( 0.0000000000000000000, -26.00000000000000000, -9.000000000000001800 ) ) ;
#151 = DIRECTION ( 'NONE',  ( -0.0000000000000000000, -0.0000000000000000000, -1.000000000000000000 ) ) ;
#152 = AXIS2_PLACEMENT_3D ( 'NONE', #190, #108, #299 ) ;
#153 = PLANE ( 'NONE',  #216 ) ;
#154 = VECTOR ( 'NONE', #151, 1000.000000000000000 ) ;
#155 = ORIENTED_EDGE ( 'NONE', *, *, #131, .F. ) ;
#156 = CC_DESIGN_PERSON_AND_ORGANIZATION_ASSIGNMENT ( #10, #360, ( #382 ) ) ;
#157 = AXIS2_PLACEMENT_3D ( 'NONE', #69, #268, #99 ) ;
#158 = ORIENTED_EDGE ( 'NONE', *, *, #357, .F. ) ;
#159 =( LENGTH_UNIT ( ) NAMED_UNIT ( * ) SI_UNIT ( .MILLI., .METRE. ) );
#160 = DIRECTION ( 'NONE',  ( -1.000000000000000000, -0.0000000000000000000, -0.0000000000000000000 ) ) ;
#161 = CARTESIAN_POINT ( 'NONE',  ( 4.000000000000000000, 14.99999999999999800, 5.000000000000000900 ) ) ;
#162 = APPLICATION_CONTEXT ( 'configuration controlled 3d designs of mechanical parts and assemblies' ) ;
#163 = CIRCLE ( 'NONE', #157, 5.000000000000001800 ) ;
#164 = VERTEX_POINT ( 'NONE', #91 ) ;
#165 = SECURITY_CLASSIFICATION_LEVEL ( 'unclassified' ) ;
#166 = LOCAL_TIME ( 22, 26, 2.000000000000000000, #126 ) ;
#167 = DIRECTION ( 'NONE',  ( 0.0000000000000000000, 0.0000000000000000000, 1.000000000000000000 ) ) ;
#168 = CARTESIAN_POINT ( 'NONE',  ( 4.000000000000000000, -26.00000000000000000, -9.000000000000001800 ) ) ;
#169 = CARTESIAN_POINT ( 'NONE',  ( 4.000000000000000000, -15.00000000000000000, -3.214856020766169200E-015 ) ) ;
#170 = VECTOR ( 'NONE', #93, 1000.000000000000000 ) ;
#171 = ORIENTED_EDGE ( 'NONE', *, *, #281, .F. ) ;
#172 = CARTESIAN_POINT ( 'NONE',  ( 4.000000000000000000, 26.00000000000000000, -9.000000000000001800 ) ) ;
#173 = VECTOR ( 'NONE', #12, 1000.000000000000000 ) ;
#174 = APPROVAL_PERSON_ORGANIZATION ( #369, #192, #4 ) ;
#175 = FACE_BOUND ( 'NONE', #103, .T. ) ;
#176 = ORIENTED_EDGE ( 'NONE', *, *, #26, .T. ) ;
#177 = PERSON_AND_ORGANIZATION ( #298, #286 ) ;
#178 = FACE_BOUND ( 'NONE', #92, .T. ) ;
#179 = DIRECTION ( 'NONE',  ( 0.0000000000000000000, 0.0000000000000000000, -1.000000000000000000 ) ) ;
#180 = CALENDAR_DATE ( 2016, 2, 11 ) ;
#181 = VERTEX_POINT ( 'NONE', #352 ) ;
#182 = EDGE_LOOP ( 'NONE', ( #145, #81, #232, #275 ) ) ;
#183 = APPROVAL_DATE_TIME ( #221, #192 ) ;
#184 = CARTESIAN_POINT ( 'NONE',  ( 4.000000000000000000, 14.99999999999999800, 5.000000000000000900 ) ) ;
#185 = LOCAL_TIME ( 22, 26, 2.000000000000000000, #37 ) ;
#186 = EDGE_CURVE ( 'NONE', #24, #136, #15, .T. ) ;
#187 = ORIENTED_EDGE ( 'NONE', *, *, #98, .F. ) ;
#188 =( NAMED_UNIT ( * ) PLANE_ANGLE_UNIT ( ) SI_UNIT ( $, .RADIAN. ) );
#189 = ADVANCED_FACE ( 'NONE', ( #309 ), #153, .F. ) ;
#190 = CARTESIAN_POINT ( 'NONE',  ( 4.000000000000000000, -15.00000000000000000, -3.214856020766169200E-015 ) ) ;
#191 = FACE_OUTER_BOUND ( 'NONE', #74, .T. ) ;
#192 = APPROVAL ( #42, 'UNSPECIFIED' ) ;
#193 = ORIENTED_EDGE ( 'NONE', *, *, #227, .F. ) ;
#194 = CARTESIAN_POINT ( 'NONE',  ( 4.000000000000000000, -26.00000000000000000, -9.000000000000001800 ) ) ;
#195 = CIRCLE ( 'NONE', #11, 5.000000000000001800 ) ;
#196 = LINE ( 'NONE', #90, #73 ) ;
#197 = EDGE_LOOP ( 'NONE', ( #110, #171, #380, #118 ) ) ;
#198 = VERTEX_POINT ( 'NONE', #228 ) ;
#199 = DIRECTION ( 'NONE',  ( 0.0000000000000000000, 0.0000000000000000000, 1.000000000000000000 ) ) ;
#200 = CYLINDRICAL_SURFACE ( 'NONE', #152, 5.000000000000001800 ) ;
#201 = ORIENTED_EDGE ( 'NONE', *, *, #63, .F. ) ;
#202 = EDGE_LOOP ( 'NONE', ( #257, #366, #378, #304 ) ) ;
#203 = CARTESIAN_POINT ( 'NONE',  ( 4.000000000000000000, 14.99999999999999800, -5.000000000000000900 ) ) ;
#204 = ADVANCED_FACE ( 'NONE', ( #355, #318, #175 ), #61, .T. ) ;
#205 = CARTESIAN_POINT ( 'NONE',  ( 4.000000000000000000, 14.99999999999999800, 1.595642429452132100E-017 ) ) ;
#206 =( GEOMETRIC_REPRESENTATION_CONTEXT ( 3 ) GLOBAL_UNCERTAINTY_ASSIGNED_CONTEXT ( ( #351 ) ) GLOBAL_UNIT_ASSIGNED_CONTEXT ( ( #159, #188, #297 ) ) REPRESENTATION_CONTEXT ( 'NONE', 'WORKASPACE' ) );
#207 = MECHANICAL_CONTEXT ( 'NONE', #162, 'mechanical' ) ;
#208 = CARTESIAN_POINT ( 'NONE',  ( 4.000000000000000000, 14.99999999999999800, 1.595642429452132100E-017 ) ) ;
#209 = LOCAL_TIME ( 22, 26, 2.000000000000000000, #274 ) ;
#210 = APPROVAL_ROLE ( '' ) ;
#211 = ORIENTED_EDGE ( 'NONE', *, *, #34, .T. ) ;
#212 = DIRECTION ( 'NONE',  ( 0.0000000000000000000, 0.0000000000000000000, -1.000000000000000000 ) ) ;
#213 = DIRECTION ( 'NONE',  ( 0.0000000000000000000, 0.0000000000000000000, -1.000000000000000000 ) ) ;
#214 = CALENDAR_DATE ( 2016, 2, 11 ) ;
#215 = DIRECTION ( 'NONE',  ( 0.0000000000000000000, -0.0000000000000000000, -1.000000000000000000 ) ) ;
#216 = AXIS2_PLACEMENT_3D ( 'NONE', #319, #125, #317 ) ;
#217 = VERTEX_POINT ( 'NONE', #29 ) ;
#218 = EDGE_CURVE ( 'NONE', #280, #130, #219, .T. ) ;
#219 = LINE ( 'NONE', #230, #170 ) ;
#220 = VERTEX_POINT ( 'NONE', #58 ) ;
#221 = DATE_AND_TIME ( #106, #85 ) ;
#222 = ADVANCED_BREP_SHAPE_REPRESENTATION ( 'Tþõôøýøªõû¹ývõ ÿûð¸ªøýv ú TL-99T (Compact NS) EKF PROxima  250L) (¡õýª¨ðû¹ý  )', ( #68, #123 ), #206 ) ;
#223 = DIRECTION ( 'NONE',  ( 0.0000000000000000000, 1.000000000000000000, 0.0000000000000000000 ) ) ;
#224 = CC_DESIGN_APPROVAL ( #72, ( #382 ) ) ;
#225 = PERSON_AND_ORGANIZATION ( #298, #286 ) ;
#226 = EDGE_LOOP ( 'NONE', ( #149, #314, #94, #345 ) ) ;
#227 = EDGE_CURVE ( 'NONE', #198, #280, #195, .T. ) ;
#228 = CARTESIAN_POINT ( 'NONE',  ( 4.000000000000000000, -15.00000000000000000, -5.000000000000005300 ) ) ;
#229 = CC_DESIGN_PERSON_AND_ORGANIZATION_ASSIGNMENT ( #177, #333, ( #116 ) ) ;
#230 = CARTESIAN_POINT ( 'NONE',  ( 4.000000000000000000, -15.00000000000000000, 4.999999999999998200 ) ) ;
#231 = LINE ( 'NONE', #161, #6 ) ;
#232 = ORIENTED_EDGE ( 'NONE', *, *, #266, .F. ) ;
#233 = EDGE_CURVE ( 'NONE', #8, #220, #117, .T. ) ;
#234 = VECTOR ( 'NONE', #62, 1000.000000000000000 ) ;
#235 = EDGE_LOOP ( 'NONE', ( #17, #264, #134, #65 ) ) ;
#236 = AXIS2_PLACEMENT_3D ( 'NONE', #168, #78, #140 ) ;
#237 = APPLICATION_PROTOCOL_DEFINITION ( 'international standard', 'config_control_design', 1994, #76 ) ;
#238 = ADVANCED_FACE ( 'NONE', ( #342 ), #344, .F. ) ;
#239 = CARTESIAN_POINT ( 'NONE',  ( 0.0000000000000000000, -26.00000000000000000, 8.999999999999998200 ) ) ;
#240 = APPROVAL_STATUS ( 'not_yet_approved' ) ;
#241 = CARTESIAN_POINT ( 'NONE',  ( 4.000000000000000000, -26.00000000000000000, 8.999999999999998200 ) ) ;
#242 = FACE_OUTER_BOUND ( 'NONE', #385, .T. ) ;
#243 = CALENDAR_DATE ( 2016, 2, 11 ) ;
#244 = DIRECTION ( 'NONE',  ( -1.000000000000000000, -0.0000000000000000000, -0.0000000000000000000 ) ) ;
#245 = DIRECTION ( 'NONE',  ( 0.0000000000000000000, 0.0000000000000000000, -1.000000000000000000 ) ) ;
#246 = DIRECTION ( 'NONE',  ( -1.000000000000000000, -0.0000000000000000000, -0.0000000000000000000 ) ) ;
#247 = DIRECTION ( 'NONE',  ( 1.000000000000000000, 0.0000000000000000000, 0.0000000000000000000 ) ) ;
#248 = VECTOR ( 'NONE', #160, 1000.000000000000000 ) ;
#249 = ORIENTED_EDGE ( 'NONE', *, *, #276, .T. ) ;
#250 = DIRECTION ( 'NONE',  ( -0.0000000000000000000, -1.000000000000000000, -0.0000000000000000000 ) ) ;
#251 = ADVANCED_FACE ( 'NONE', ( #255 ), #64, .F. ) ;
#252 = DIRECTION ( 'NONE',  ( 0.0000000000000000000, -1.000000000000000000, 0.0000000000000000000 ) ) ;
#253 = APPROVAL_PERSON_ORGANIZATION ( #225, #330, #210 ) ;
#254 = ORIENTED_EDGE ( 'NONE', *, *, #26, .F. ) ;
#255 = FACE_OUTER_BOUND ( 'NONE', #226, .T. ) ;
#256 = ORIENTED_EDGE ( 'NONE', *, *, #312, .F. ) ;
#257 = ORIENTED_EDGE ( 'NONE', *, *, #374, .T. ) ;
#258 = AXIS2_PLACEMENT_3D ( 'NONE', #135, #337, #44 ) ;
#259 = CARTESIAN_POINT ( 'NONE',  ( 4.000000000000000000, 26.00000000000000000, -9.000000000000001800 ) ) ;
#260 = VECTOR ( 'NONE', #246, 1000.000000000000000 ) ;
#261 = CIRCLE ( 'NONE', #82, 5.000000000000000900 ) ;
#262 = CARTESIAN_POINT ( 'NONE',  ( 4.000000000000000000, 0.0000000000000000000, 0.0000000000000000000 ) ) ;
#263 = VECTOR ( 'NONE', #250, 1000.000000000000000 ) ;
#264 = ORIENTED_EDGE ( 'NONE', *, *, #312, .T. ) ;
#265 = PERSON_AND_ORGANIZATION ( #298, #286 ) ;
#266 = EDGE_CURVE ( 'NONE', #310, #24, #32, .T. ) ;
#267 = LOCAL_TIME ( 22, 26, 2.000000000000000000, #327 ) ;
#268 = DIRECTION ( 'NONE',  ( 1.000000000000000000, 0.0000000000000000000, 0.0000000000000000000 ) ) ;
#269 = LINE ( 'NONE', #362, #248 ) ;
#270 = APPROVAL_ROLE ( '' ) ;
#271 = AXIS2_PLACEMENT_3D ( 'NONE', #363, #7, #245 ) ;
#272 = EDGE_CURVE ( 'NONE', #220, #310, #196, .T. ) ;
#273 = CARTESIAN_POINT ( 'NONE',  ( 4.000000000000000000, -26.00000000000000000, 8.999999999999998200 ) ) ;
#274 = COORDINATED_UNIVERSAL_TIME_OFFSET ( 3, 0, .AHEAD. ) ;
#275 = ORIENTED_EDGE ( 'NONE', *, *, #374, .F. ) ;
#276 = EDGE_CURVE ( 'NONE', #287, #217, #51, .T. ) ;
#277 = PLANE ( 'NONE',  #31 ) ;
#278 = CARTESIAN_POINT ( 'NONE',  ( 0.0000000000000000000, -26.00000000000000000, -9.000000000000001800 ) ) ;
#279 = AXIS2_PLACEMENT_3D ( 'NONE', #273, #335, #306 ) ;
#280 = VERTEX_POINT ( 'NONE', #311 ) ;
#281 = EDGE_CURVE ( 'NONE', #164, #24, #38, .T. ) ;
#282 = LINE ( 'NONE', #367, #104 ) ;
#283 = ORIENTED_EDGE ( 'NONE', *, *, #357, .T. ) ;
#284 = DIRECTION ( 'NONE',  ( 0.0000000000000000000, 0.0000000000000000000, 1.000000000000000000 ) ) ;
#285 = DIRECTION ( 'NONE',  ( 1.000000000000000000, 0.0000000000000000000, 0.0000000000000000000 ) ) ;
#286 = ORGANIZATION ( 'UNSPECIFIED', 'UNSPECIFIED', '' ) ;
#287 = VERTEX_POINT ( 'NONE', #79 ) ;
#288 = DIRECTION ( 'NONE',  ( -1.000000000000000000, -0.0000000000000000000, -0.0000000000000000000 ) ) ;
#289 = DIRECTION ( 'NONE',  ( 1.000000000000000000, 0.0000000000000000000, 0.0000000000000000000 ) ) ;
#290 = CARTESIAN_POINT ( 'NONE',  ( 0.0000000000000000000, 26.00000000000000000, -9.000000000000001800 ) ) ;
#291 = ORIENTED_EDGE ( 'NONE', *, *, #334, .T. ) ;
#292 = CYLINDRICAL_SURFACE ( 'NONE', #95, 5.000000000000000900 ) ;
#293 = ORIENTED_EDGE ( 'NONE', *, *, #281, .T. ) ;
#294 = LINE ( 'NONE', #138, #372 ) ;
#295 = ORIENTED_EDGE ( 'NONE', *, *, #2, .F. ) ;
#296 = AXIS2_PLACEMENT_3D ( 'NONE', #262, #289, #179 ) ;
#297 =( NAMED_UNIT ( * ) SI_UNIT ( $, .STERADIAN. ) SOLID_ANGLE_UNIT ( ) );
#298 = PERSON ( 'UNSPECIFIED', 'UNSPECIFIED', 'UNSPECIFIED', ('UNSPECIFIED'), ('UNSPECIFIED'), ('UNSPECIFIED') ) ;
#299 = DIRECTION ( 'NONE',  ( 0.0000000000000000000, 0.0000000000000000000, 1.000000000000000000 ) ) ;
#300 = AXIS2_PLACEMENT_3D ( 'NONE', #208, #324, #212 ) ;
#301 = PLANE ( 'NONE',  #139 ) ;
#302 = DIRECTION ( 'NONE',  ( 1.000000000000000000, 0.0000000000000000000, 0.0000000000000000000 ) ) ;
#303 = ORIENTED_EDGE ( 'NONE', *, *, #16, .T. ) ;
#304 = ORIENTED_EDGE ( 'NONE', *, *, #131, .T. ) ;
#305 = CARTESIAN_POINT ( 'NONE',  ( 0.0000000000000000000, 0.0000000000000000000, 0.0000000000000000000 ) ) ;
#306 = DIRECTION ( 'NONE',  ( -1.000000000000000000, 0.0000000000000000000, -0.0000000000000000000 ) ) ;
#307 = ADVANCED_FACE ( 'NONE', ( #242 ), #277, .F. ) ;
#308 = ORIENTED_EDGE ( 'NONE', *, *, #22, .F. ) ;
#309 = FACE_OUTER_BOUND ( 'NONE', #197, .T. ) ;
#310 = VERTEX_POINT ( 'NONE', #278 ) ;
#311 = CARTESIAN_POINT ( 'NONE',  ( 4.000000000000000000, -15.00000000000000000, 4.999999999999998200 ) ) ;
#312 = EDGE_CURVE ( 'NONE', #33, #89, #261, .T. ) ;
#313 = CIRCLE ( 'NONE', #300, 5.000000000000000900 ) ;
#314 = ORIENTED_EDGE ( 'NONE', *, *, #227, .T. ) ;
#315 = CC_DESIGN_DATE_AND_TIME_ASSIGNMENT ( #343, #361, ( #5 ) ) ;
#316 = CARTESIAN_POINT ( 'NONE',  ( 0.0000000000000000000, 14.99999999999999800, 1.595642429452132100E-017 ) ) ;
#317 = DIRECTION ( 'NONE',  ( 1.000000000000000000, 0.0000000000000000000, -0.0000000000000000000 ) ) ;
#318 = FACE_OUTER_BOUND ( 'NONE', #377, .T. ) ;
#319 = CARTESIAN_POINT ( 'NONE',  ( 4.000000000000000000, -26.00000000000000000, -9.000000000000001800 ) ) ;
#320 = VECTOR ( 'NONE', #132, 1000.000000000000000 ) ;
#321 = ORIENTED_EDGE ( 'NONE', *, *, #233, .T. ) ;
#322 = PRODUCT_DEFINITION_SHAPE ( 'NONE', 'NONE',  #116 ) ;
#323 = DIRECTION ( 'NONE',  ( 0.0000000000000000000, 0.0000000000000000000, 1.000000000000000000 ) ) ;
#324 = DIRECTION ( 'NONE',  ( 1.000000000000000000, 0.0000000000000000000, 0.0000000000000000000 ) ) ;
#325 = CARTESIAN_POINT ( 'NONE',  ( 0.0000000000000000000, -15.00000000000000000, 4.999999999999998200 ) ) ;
#326 = PERSON_AND_ORGANIZATION_ROLE ( 'design_owner' ) ;
#327 = COORDINATED_UNIVERSAL_TIME_OFFSET ( 3, 0, .AHEAD. ) ;
#328 = CLOSED_SHELL ( 'NONE', ( #19, #238, #204, #46, #80, #340, #189, #307, #77, #251 ) ) ;
#329 = EDGE_LOOP ( 'NONE', ( #283, #303, #187, #373 ) ) ;
#330 = APPROVAL ( #70, 'UNSPECIFIED' ) ;
#331 = PERSON_AND_ORGANIZATION_ROLE ( 'design_supplier' ) ;
#332 = SHAPE_DEFINITION_REPRESENTATION ( #322, #222 ) ;
#333 = PERSON_AND_ORGANIZATION_ROLE ( 'creator' ) ;
#334 = EDGE_CURVE ( 'NONE', #220, #164, #88, .T. ) ;
#335 = DIRECTION ( 'NONE',  ( 0.0000000000000000000, 0.0000000000000000000, -1.000000000000000000 ) ) ;
#336 = EDGE_LOOP ( 'NONE', ( #254, #256 ) ) ;
#337 = DIRECTION ( 'NONE',  ( 1.000000000000000000, 0.0000000000000000000, 0.0000000000000000000 ) ) ;
#338 = ORIENTED_EDGE ( 'NONE', *, *, #348, .T. ) ;
#339 = COORDINATED_UNIVERSAL_TIME_OFFSET ( 3, 0, .AHEAD. ) ;
#340 = ADVANCED_FACE ( 'NONE', ( #28 ), #13, .F. ) ;
#341 = CALENDAR_DATE ( 2016, 2, 11 ) ;
#342 = FACE_OUTER_BOUND ( 'NONE', #128, .T. ) ;
#343 = DATE_AND_TIME ( #243, #166 ) ;
#344 = CYLINDRICAL_SURFACE ( 'NONE', #112, 5.000000000000000900 ) ;
#345 = ORIENTED_EDGE ( 'NONE', *, *, #383, .F. ) ;
#346 = DIRECTION ( 'NONE',  ( 0.0000000000000000000, 0.0000000000000000000, -1.000000000000000000 ) ) ;
#347 = PERSON_AND_ORGANIZATION ( #298, #286 ) ;
#348 = EDGE_CURVE ( 'NONE', #136, #60, #144, .T. ) ;
#349 = ORIENTED_EDGE ( 'NONE', *, *, #63, .T. ) ;
#350 = CARTESIAN_POINT ( 'NONE',  ( 4.000000000000000000, 14.99999999999999800, 1.595642429452132100E-017 ) ) ;
#351 = UNCERTAINTY_MEASURE_WITH_UNIT (LENGTH_MEASURE( 1.000000000000000100E-005 ), #159, 'distance_accuracy_value', 'NONE');
#352 = CARTESIAN_POINT ( 'NONE',  ( 4.000000000000000000, 26.00000000000000000, 8.999999999999998200 ) ) ;
#353 = CC_DESIGN_APPROVAL ( #330, ( #116 ) ) ;
#354 = EDGE_CURVE ( 'NONE', #33, #217, #141, .T. ) ;
#355 = FACE_BOUND ( 'NONE', #336, .T. ) ;
#356 = ORIENTED_EDGE ( 'NONE', *, *, #98, .T. ) ;
#357 = EDGE_CURVE ( 'NONE', #280, #198, #148, .T. ) ;
#358 = CIRCLE ( 'NONE', #258, 5.000000000000000900 ) ;
#359 = VERTEX_POINT ( 'NONE', #370 ) ;
#360 = PERSON_AND_ORGANIZATION_ROLE ( 'creator' ) ;
#361 = DATE_TIME_ROLE ( 'classification_date' ) ;
#362 = CARTESIAN_POINT ( 'NONE',  ( 4.000000000000000000, 26.00000000000000000, 8.999999999999998200 ) ) ;
#363 = CARTESIAN_POINT ( 'NONE',  ( 0.0000000000000000000, -15.00000000000000000, -3.214856020766169200E-015 ) ) ;
#364 = CARTESIAN_POINT ( 'NONE',  ( 4.000000000000000000, 14.99999999999999800, -5.000000000000000900 ) ) ;
#365 = FACE_OUTER_BOUND ( 'NONE', #182, .T. ) ;
#366 = ORIENTED_EDGE ( 'NONE', *, *, #272, .F. ) ;
#367 = CARTESIAN_POINT ( 'NONE',  ( 4.000000000000000000, -26.00000000000000000, 8.999999999999998200 ) ) ;
#368 = DIRECTION ( 'NONE',  ( 0.0000000000000000000, 0.0000000000000000000, -1.000000000000000000 ) ) ;
#369 = PERSON_AND_ORGANIZATION ( #298, #286 ) ;
#370 = CARTESIAN_POINT ( 'NONE',  ( 0.0000000000000000000, -15.00000000000000000, -5.000000000000005300 ) ) ;
#371 = DIRECTION ( 'NONE',  ( 1.000000000000000000, 0.0000000000000000000, 0.0000000000000000000 ) ) ;
#372 = VECTOR ( 'NONE', #14, 1000.000000000000000 ) ;
#373 = ORIENTED_EDGE ( 'NONE', *, *, #218, .F. ) ;
#374 = EDGE_CURVE ( 'NONE', #60, #310, #294, .T. ) ;
#375 = APPROVAL_DATE_TIME ( #35, #72 ) ;
#376 = CARTESIAN_POINT ( 'NONE',  ( 0.0000000000000000000, 26.00000000000000000, 8.999999999999998200 ) ) ;
#377 = EDGE_LOOP ( 'NONE', ( #97, #321, #291, #349 ) ) ;
#378 = ORIENTED_EDGE ( 'NONE', *, *, #233, .F. ) ;
#379 = EDGE_CURVE ( 'NONE', #217, #287, #358, .T. ) ;
#380 = ORIENTED_EDGE ( 'NONE', *, *, #334, .F. ) ;
#381 = DIRECTION ( 'NONE',  ( -1.000000000000000000, -0.0000000000000000000, -0.0000000000000000000 ) ) ;
#382 = PRODUCT_DEFINITION_FORMATION_WITH_SPECIFIED_SOURCE ( 'ANY', '', #107, .NOT_KNOWN. ) ;
#383 = EDGE_CURVE ( 'NONE', #359, #130, #50, .T. ) ;
#384 = VECTOR ( 'NONE', #47, 1000.000000000000000 ) ;
#385 = EDGE_LOOP ( 'NONE', ( #45, #66, #201, #293 ) ) ;
ENDSEC;
END-ISO-10303-21;
