ISO-10303-21;
HEADER;
FILE_DESCRIPTION (( 'STEP AP203' ),
    '1' );
FILE_NAME ('Êðûøêà íà îòâåòâèòåëü Ò-îáðàçíûé âåðòèêàëüíûé TDSA_38392.STEP',
    '2012-11-09T08:44:21',
    ( 'Àñååâ' ),
    ( '' ),
    'SwSTEP 2.0',
    'SolidWorks 2012',
    '' );
FILE_SCHEMA (( 'CONFIG_CONTROL_DESIGN' ));
ENDSEC;

DATA;
#1 = DIRECTION ( 'NONE',  ( 0.0000000000000000000, -1.000000000000000000, 0.0000000000000000000 ) ) ;
#2 = PLANE ( 'NONE',  #137 ) ;
#3 = DIRECTION ( 'NONE',  ( -0.0000000000000000000, 0.0000000000000000000, -1.000000000000000000 ) ) ;
#4 = DIRECTION ( 'NONE',  ( 1.000000000000000000, 0.0000000000000000000, 0.0000000000000000000 ) ) ;
#5 = DIRECTION ( 'NONE',  ( 1.000000000000000000, 0.0000000000000000000, -0.0000000000000000000 ) ) ;
#6 = DIRECTION ( 'NONE',  ( 0.0000000000000000000, -0.0000000000000000000, -1.000000000000000000 ) ) ;
#7 = PLANE ( 'NONE',  #139 ) ;
#8 = DIRECTION ( 'NONE',  ( 0.0000000000000000000, 0.0000000000000000000, 1.000000000000000000 ) ) ;
#9 = DIRECTION ( 'NONE',  ( -1.000000000000000000, 0.0000000000000000000, 0.0000000000000000000 ) ) ;
#10 = DIRECTION ( 'NONE',  ( -0.0000000000000000000, 0.0000000000000000000, -1.000000000000000000 ) ) ;
#11 = CARTESIAN_POINT ( 'NONE',  ( 76.59999999999999400, -14.00000000000000000, 660.0000000000000000 ) ) ;
#12 = PLANE ( 'NONE',  #140 ) ;
#13 = DIRECTION ( 'NONE',  ( 0.0000000000000000000, 1.000000000000000000, 0.0000000000000000000 ) ) ;
#14 = DIRECTION ( 'NONE',  ( -1.000000000000000000, 0.0000000000000000000, 0.0000000000000000000 ) ) ;
#15 = DIRECTION ( 'NONE',  ( -0.0000000000000000000, 0.0000000000000000000, -1.000000000000000000 ) ) ;
#16 = CARTESIAN_POINT ( 'NONE',  ( 76.00000000000000000, 0.0000000000000000000, 660.0000000000000000 ) ) ;
#17 = PLANE ( 'NONE',  #141 ) ;
#18 = DIRECTION ( 'NONE',  ( 0.0000000000000000000, 0.0000000000000000000, 1.000000000000000000 ) ) ;
#19 = CARTESIAN_POINT ( 'NONE',  ( 1.734723475976807100E-015, 0.5999999999999999800, 14.99999999999999300 ) ) ;
#20 = DIRECTION ( 'NONE',  ( -1.000000000000000000, 0.0000000000000000000, 0.0000000000000000000 ) ) ;
#21 = CARTESIAN_POINT ( 'NONE',  ( 0.0000000000000000000, 0.5999999999999999800, 645.0000000000000000 ) ) ;
#22 = CARTESIAN_POINT ( 'NONE',  ( 0.0000000000000000000, 0.0000000000000000000, 660.0000000000000000 ) ) ;
#23 = PLANE ( 'NONE',  #142 ) ;
#24 = CARTESIAN_POINT ( 'NONE',  ( -76.00000000000000000, 0.0000000000000000000, 0.0000000000000000000 ) ) ;
#25 = DIRECTION ( 'NONE',  ( 0.0000000000000000000, -0.0000000000000000000, 1.000000000000000000 ) ) ;
#26 = CARTESIAN_POINT ( 'NONE',  ( -76.00000000000000000, 0.0000000000000000000, 660.0000000000000000 ) ) ;
#27 = PLANE ( 'NONE',  #143 ) ;
#28 = CARTESIAN_POINT ( 'NONE',  ( 0.0000000000000000000, 0.0000000000000000000, 0.0000000000000000000 ) ) ;
#29 = CARTESIAN_POINT ( 'NONE',  ( -76.00000000000000000, 0.0000000000000000000, 660.0000000000000000 ) ) ;
#30 = DIRECTION ( 'NONE',  ( 0.0000000000000000000, 0.0000000000000000000, 1.000000000000000000 ) ) ;
#31 = DIRECTION ( 'NONE',  ( -1.000000000000000000, 0.0000000000000000000, 0.0000000000000000000 ) ) ;
#32 = PLANE ( 'NONE',  #144 ) ;
#33 = DIRECTION ( 'NONE',  ( 0.0000000000000000000, -0.0000000000000000000, -1.000000000000000000 ) ) ;
#34 = DIRECTION ( 'NONE',  ( 0.0000000000000000000, -1.000000000000000000, 0.0000000000000000000 ) ) ;
#35 = DIRECTION ( 'NONE',  ( 0.0000000000000000000, 1.000000000000000000, 0.0000000000000000000 ) ) ;
#36 = PLANE ( 'NONE',  #145 ) ;
#37 = DIRECTION ( 'NONE',  ( -0.0000000000000000000, 0.0000000000000000000, -1.000000000000000000 ) ) ;
#38 = DIRECTION ( 'NONE',  ( -0.0000000000000000000, 1.000000000000000000, -0.0000000000000000000 ) ) ;
#39 = DIRECTION ( 'NONE',  ( 1.000000000000000000, 0.0000000000000000000, -0.0000000000000000000 ) ) ;
#40 = CARTESIAN_POINT ( 'NONE',  ( -76.59999999999999400, 0.0000000000000000000, 660.0000000000000000 ) ) ;
#41 = PLANE ( 'NONE',  #146 ) ;
#42 = DIRECTION ( 'NONE',  ( -0.0000000000000000000, 1.000000000000000000, -0.0000000000000000000 ) ) ;
#43 = CARTESIAN_POINT ( 'NONE',  ( -76.00000000000000000, 0.5999999999999999800, 660.0000000000000000 ) ) ;
#44 = DIRECTION ( 'NONE',  ( 0.0000000000000000000, -0.0000000000000000000, 1.000000000000000000 ) ) ;
#45 = DIRECTION ( 'NONE',  ( 0.0000000000000000000, 1.000000000000000000, 0.0000000000000000000 ) ) ;
#46 = CARTESIAN_POINT ( 'NONE',  ( 76.59999999999999400, 0.0000000000000000000, 660.0000000000000000 ) ) ;
#47 = PLANE ( 'NONE',  #147 ) ;
#48 = CARTESIAN_POINT ( 'NONE',  ( -76.00000000000000000, -14.00000000000000000, 660.0000000000000000 ) ) ;
#49 = CARTESIAN_POINT ( 'NONE',  ( -76.00000000000000000, 0.5999999999999999800, 660.0000000000000000 ) ) ;
#50 = CARTESIAN_POINT ( 'NONE',  ( -76.00000000000000000, 0.0000000000000000000, 660.0000000000000000 ) ) ;
#51 = CARTESIAN_POINT ( 'NONE',  ( -76.00000000000000000, 0.5999999999999999800, 0.0000000000000000000 ) ) ;
#52 = CARTESIAN_POINT ( 'NONE',  ( 76.59999999999999400, 0.5999999999999999800, 0.0000000000000000000 ) ) ;
#53 = CARTESIAN_POINT ( 'NONE',  ( -76.00000000000000000, -14.00000000000000000, 660.0000000000000000 ) ) ;
#54 = CARTESIAN_POINT ( 'NONE',  ( 76.00000000000000000, 0.0000000000000000000, 0.0000000000000000000 ) ) ;
#55 = CARTESIAN_POINT ( 'NONE',  ( 76.00000000000000000, -14.00000000000000000, 660.0000000000000000 ) ) ;
#56 = CARTESIAN_POINT ( 'NONE',  ( -76.59999999999999400, -14.00000000000000000, 660.0000000000000000 ) ) ;
#57 = CARTESIAN_POINT ( 'NONE',  ( -76.59999999999999400, -14.00000000000000000, 0.0000000000000000000 ) ) ;
#58 = CARTESIAN_POINT ( 'NONE',  ( 76.00000000000000000, 0.0000000000000000000, 660.0000000000000000 ) ) ;
#59 = CARTESIAN_POINT ( 'NONE',  ( 76.59999999999999400, 0.5999999999999999800, 660.0000000000000000 ) ) ;
#60 = CARTESIAN_POINT ( 'NONE',  ( -76.59999999999999400, 0.5999999999999999800, 660.0000000000000000 ) ) ;
#61 = CARTESIAN_POINT ( 'NONE',  ( 76.00000000000000000, -14.00000000000000000, 0.0000000000000000000 ) ) ;
#62 = CARTESIAN_POINT ( 'NONE',  ( -76.00000000000000000, -14.00000000000000000, 0.0000000000000000000 ) ) ;
#63 = CARTESIAN_POINT ( 'NONE',  ( 76.59999999999999400, -14.00000000000000000, 660.0000000000000000 ) ) ;
#64 = DIRECTION ( 'NONE',  ( 0.0000000000000000000, 1.000000000000000000, 0.0000000000000000000 ) ) ;
#65 = CARTESIAN_POINT ( 'NONE',  ( 76.59999999999999400, -14.00000000000000000, 0.0000000000000000000 ) ) ;
#66 = CARTESIAN_POINT ( 'NONE',  ( -76.59999999999999400, 0.0000000000000000000, 660.0000000000000000 ) ) ;
#67 = DIRECTION ( 'NONE',  ( 0.0000000000000000000, -1.000000000000000000, 0.0000000000000000000 ) ) ;
#68 = CARTESIAN_POINT ( 'NONE',  ( 76.00000000000000000, 0.0000000000000000000, 660.0000000000000000 ) ) ;
#69 = DIRECTION ( 'NONE',  ( -0.0000000000000000000, -0.0000000000000000000, -1.000000000000000000 ) ) ;
#70 = DIRECTION ( 'NONE',  ( -0.0000000000000000000, -1.000000000000000000, 0.0000000000000000000 ) ) ;
#71 = DIRECTION ( 'NONE',  ( -0.0000000000000000000, -0.0000000000000000000, -1.000000000000000000 ) ) ;
#72 = CARTESIAN_POINT ( 'NONE',  ( -76.00000000000000000, 0.0000000000000000000, 660.0000000000000000 ) ) ;
#73 = DIRECTION ( 'NONE',  ( -0.0000000000000000000, -0.0000000000000000000, -1.000000000000000000 ) ) ;
#74 = CARTESIAN_POINT ( 'NONE',  ( -76.59999999999999400, -14.00000000000000000, 660.0000000000000000 ) ) ;
#75 = CARTESIAN_POINT ( 'NONE',  ( 76.59999999999999400, 0.5999999999999999800, 660.0000000000000000 ) ) ;
#76 = DIRECTION ( 'NONE',  ( -0.0000000000000000000, -1.000000000000000000, 0.0000000000000000000 ) ) ;
#77 = DIRECTION ( 'NONE',  ( -0.0000000000000000000, 1.000000000000000000, -0.0000000000000000000 ) ) ;
#78 = DIRECTION ( 'NONE',  ( -1.000000000000000000, 0.0000000000000000000, 0.0000000000000000000 ) ) ;
#79 = CARTESIAN_POINT ( 'NONE',  ( -76.00000000000000000, 0.0000000000000000000, 0.0000000000000000000 ) ) ;
#80 = CARTESIAN_POINT ( 'NONE',  ( -76.00000000000000000, -14.00000000000000000, 660.0000000000000000 ) ) ;
#81 = CARTESIAN_POINT ( 'NONE',  ( 76.59999999999999400, 0.0000000000000000000, 0.0000000000000000000 ) ) ;
#82 = DIRECTION ( 'NONE',  ( -1.000000000000000000, 0.0000000000000000000, 0.0000000000000000000 ) ) ;
#83 = CARTESIAN_POINT ( 'NONE',  ( -76.59999999999999400, 0.5999999999999999800, 0.0000000000000000000 ) ) ;
#84 = DIRECTION ( 'NONE',  ( -0.0000000000000000000, -0.0000000000000000000, -1.000000000000000000 ) ) ;
#85 = DIRECTION ( 'NONE',  ( -0.0000000000000000000, -0.0000000000000000000, -1.000000000000000000 ) ) ;
#86 = DIRECTION ( 'NONE',  ( -1.000000000000000000, 0.0000000000000000000, 0.0000000000000000000 ) ) ;
#87 = CARTESIAN_POINT ( 'NONE',  ( -76.00000000000000000, 0.0000000000000000000, 660.0000000000000000 ) ) ;
#88 = CARTESIAN_POINT ( 'NONE',  ( -76.00000000000000000, 0.0000000000000000000, 0.0000000000000000000 ) ) ;
#89 = CARTESIAN_POINT ( 'NONE',  ( -76.59999999999999400, 0.5999999999999999800, 660.0000000000000000 ) ) ;
#90 = DIRECTION ( 'NONE',  ( -0.0000000000000000000, -0.0000000000000000000, -1.000000000000000000 ) ) ;
#91 = DIRECTION ( 'NONE',  ( -1.000000000000000000, 0.0000000000000000000, 0.0000000000000000000 ) ) ;
#92 = DIRECTION ( 'NONE',  ( 0.0000000000000000000, 0.0000000000000000000, -1.000000000000000000 ) ) ;
#93 = CARTESIAN_POINT ( 'NONE',  ( 76.59999999999999400, 0.0000000000000000000, 660.0000000000000000 ) ) ;
#94 = CARTESIAN_POINT ( 'NONE',  ( 76.59999999999999400, -14.00000000000000000, 0.0000000000000000000 ) ) ;
#95 = DIRECTION ( 'NONE',  ( -0.0000000000000000000, -0.0000000000000000000, -1.000000000000000000 ) ) ;
#96 = CARTESIAN_POINT ( 'NONE',  ( 76.59999999999999400, -14.00000000000000000, 660.0000000000000000 ) ) ;
#97 = CARTESIAN_POINT ( 'NONE',  ( -76.59999999999999400, 0.0000000000000000000, 0.0000000000000000000 ) ) ;
#98 = DIRECTION ( 'NONE',  ( 1.000000000000000000, 0.0000000000000000000, 0.0000000000000000000 ) ) ;
#99 = DIRECTION ( 'NONE',  ( 0.0000000000000000000, 0.0000000000000000000, 1.000000000000000000 ) ) ;
#100 = DIRECTION ( 'NONE',  ( -0.0000000000000000000, -1.000000000000000000, -0.0000000000000000000 ) ) ;
#101 = CARTESIAN_POINT ( 'NONE',  ( 76.00000000000000000, 0.0000000000000000000, 660.0000000000000000 ) ) ;
#102 = CARTESIAN_POINT ( 'NONE',  ( 76.00000000000000000, -14.00000000000000000, 660.0000000000000000 ) ) ;
#103 = DIRECTION ( 'NONE',  ( -0.0000000000000000000, -0.0000000000000000000, -1.000000000000000000 ) ) ;
#104 = CARTESIAN_POINT ( 'NONE',  ( 1.734723475976807100E-015, 0.0000000000000000000, 14.99999999999999300 ) ) ;
#105 = CARTESIAN_POINT ( 'NONE',  ( -76.00000000000000000, -14.00000000000000000, 0.0000000000000000000 ) ) ;
#106 = CARTESIAN_POINT ( 'NONE',  ( 76.59999999999999400, -14.00000000000000000, 660.0000000000000000 ) ) ;
#107 = DIRECTION ( 'NONE',  ( 0.0000000000000000000, 0.0000000000000000000, 1.000000000000000000 ) ) ;
#108 = DIRECTION ( 'NONE',  ( -0.0000000000000000000, -1.000000000000000000, -0.0000000000000000000 ) ) ;
#109 = CARTESIAN_POINT ( 'NONE',  ( 0.0000000000000000000, 0.0000000000000000000, 645.0000000000000000 ) ) ;
#110 = CARTESIAN_POINT ( 'NONE',  ( -76.00000000000000000, -14.00000000000000000, 660.0000000000000000 ) ) ;
#111 = DIRECTION ( 'NONE',  ( 0.0000000000000000000, 1.000000000000000000, 0.0000000000000000000 ) ) ;
#112 = CARTESIAN_POINT ( 'NONE',  ( 76.00000000000000000, 0.0000000000000000000, 0.0000000000000000000 ) ) ;
#113 = DIRECTION ( 'NONE',  ( 0.0000000000000000000, -1.000000000000000000, 0.0000000000000000000 ) ) ;
#114 = DIRECTION ( 'NONE',  ( 1.000000000000000000, 0.0000000000000000000, 0.0000000000000000000 ) ) ;
#115 = CARTESIAN_POINT ( 'NONE',  ( -76.00000000000000000, 0.0000000000000000000, 660.0000000000000000 ) ) ;
#116 = DIRECTION ( 'NONE',  ( 1.000000000000000000, 0.0000000000000000000, 0.0000000000000000000 ) ) ;
#117 = CC_DESIGN_APPROVAL ( #131, ( #132 ) ) ;
#118 = PRODUCT_RELATED_PRODUCT_CATEGORY ( 'detail', '', ( #181 ) ) ;
#119 = CC_DESIGN_SECURITY_CLASSIFICATION ( #124, ( #129 ) ) ;
#120 = CC_DESIGN_APPROVAL ( #121, ( #124 ) ) ;
#121 = APPROVAL ( #428, 'UNSPECIFIED' ) ;
#122 = CC_DESIGN_DATE_AND_TIME_ASSIGNMENT ( #190, #429, ( #124 ) ) ;
#123 = CC_DESIGN_PERSON_AND_ORGANIZATION_ASSIGNMENT ( #194, #430, ( #124 ) ) ;
#124 = SECURITY_CLASSIFICATION ( '', '', #431 ) ;
#125 = CC_DESIGN_PERSON_AND_ORGANIZATION_ASSIGNMENT ( #195, #432, ( #129 ) ) ;
#126 = CC_DESIGN_PERSON_AND_ORGANIZATION_ASSIGNMENT ( #196, #433, ( #129 ) ) ;
#127 = CC_DESIGN_APPROVAL ( #128, ( #129 ) ) ;
#128 = APPROVAL ( #435, 'UNSPECIFIED' ) ;
#129 = PRODUCT_DEFINITION_FORMATION_WITH_SPECIFIED_SOURCE ( 'ANY', '', #181, .NOT_KNOWN. ) ;
#130 = CC_DESIGN_DATE_AND_TIME_ASSIGNMENT ( #201, #436, ( #132 ) ) ;
#131 = APPROVAL ( #404, 'UNSPECIFIED' ) ;
#132 = PRODUCT_DEFINITION ( 'UNKNOWN', '', #129, #401 ) ;
#133 = CC_DESIGN_PERSON_AND_ORGANIZATION_ASSIGNMENT ( #213, #407, ( #181 ) ) ;
#134 = AXIS2_PLACEMENT_3D ( 'NONE', #416, #415, #409 ) ;
#135 = AXIS2_PLACEMENT_3D ( 'NONE', #422, #421, #426 ) ;
#136 = AXIS2_PLACEMENT_3D ( 'NONE', #424, #425, #423 ) ;
#137 = AXIS2_PLACEMENT_3D ( 'NONE', #11, #1, #6 ) ;
#138 =( GEOMETRIC_REPRESENTATION_CONTEXT ( 3 ) GLOBAL_UNCERTAINTY_ASSIGNED_CONTEXT ( ( #388 ) ) GLOBAL_UNIT_ASSIGNED_CONTEXT ( ( #413, #412, #411 ) ) REPRESENTATION_CONTEXT ( 'NONE', 'WORKASPACE' ) );
#139 = AXIS2_PLACEMENT_3D ( 'NONE', #16, #5, #3 ) ;
#140 = AXIS2_PLACEMENT_3D ( 'NONE', #22, #10, #9 ) ;
#141 = AXIS2_PLACEMENT_3D ( 'NONE', #28, #15, #14 ) ;
#142 = AXIS2_PLACEMENT_3D ( 'NONE', #26, #20, #18 ) ;
#143 = AXIS2_PLACEMENT_3D ( 'NONE', #29, #35, #25 ) ;
#144 = AXIS2_PLACEMENT_3D ( 'NONE', #40, #31, #30 ) ;
#145 = AXIS2_PLACEMENT_3D ( 'NONE', #48, #34, #33 ) ;
#146 = AXIS2_PLACEMENT_3D ( 'NONE', #46, #39, #37 ) ;
#147 = AXIS2_PLACEMENT_3D ( 'NONE', #49, #45, #44 ) ;
#148 = AXIS2_PLACEMENT_3D ( 'NONE', #104, #100, #99 ) ;
#149 = AXIS2_PLACEMENT_3D ( 'NONE', #109, #108, #107 ) ;
#150 = AXIS2_PLACEMENT_3D ( 'NONE', #19, #13, #8 ) ;
#151 = AXIS2_PLACEMENT_3D ( 'NONE', #21, #42, #92 ) ;
#152 = EDGE_CURVE ( 'NONE', #365, #355, #294, .T. ) ;
#153 = EDGE_CURVE ( 'NONE', #364, #355, #377, .T. ) ;
#154 = EDGE_CURVE ( 'NONE', #361, #365, #382, .T. ) ;
#155 = EDGE_CURVE ( 'NONE', #352, #355, #290, .T. ) ;
#156 = EDGE_CURVE ( 'NONE', #356, #352, #292, .T. ) ;
#157 = EDGE_CURVE ( 'NONE', #356, #364, #288, .T. ) ;
#158 = EDGE_CURVE ( 'NONE', #367, #352, #284, .T. ) ;
#159 = EDGE_CURVE ( 'NONE', #359, #367, #282, .T. ) ;
#160 = CC_DESIGN_PERSON_AND_ORGANIZATION_ASSIGNMENT ( #205, #437, ( #132 ) ) ;
#161 = EDGE_CURVE ( 'NONE', #359, #356, #286, .T. ) ;
#162 = EDGE_CURVE ( 'NONE', #226, #226, #278, .T. ) ;
#163 = EDGE_CURVE ( 'NONE', #366, #368, #275, .T. ) ;
#164 = EDGE_CURVE ( 'NONE', #217, #217, #280, .T. ) ;
#165 = EDGE_CURVE ( 'NONE', #358, #367, #274, .T. ) ;
#166 = EDGE_CURVE ( 'NONE', #357, #359, #272, .T. ) ;
#167 = EDGE_CURVE ( 'NONE', #368, #361, #269, .T. ) ;
#168 = EDGE_CURVE ( 'NONE', #216, #216, #268, .T. ) ;
#169 = EDGE_CURVE ( 'NONE', #215, #215, #264, .T. ) ;
#170 = EDGE_CURVE ( 'NONE', #360, #365, #266, .T. ) ;
#171 = EDGE_CURVE ( 'NONE', #362, #358, #276, .T. ) ;
#172 = EDGE_CURVE ( 'NONE', #357, #358, #261, .T. ) ;
#173 = EDGE_CURVE ( 'NONE', #366, #353, #265, .T. ) ;
#174 = EDGE_CURVE ( 'NONE', #353, #362, #260, .T. ) ;
#175 = EDGE_CURVE ( 'NONE', #366, #363, #256, .T. ) ;
#176 = EDGE_CURVE ( 'NONE', #353, #360, #258, .T. ) ;
#177 = EDGE_CURVE ( 'NONE', #363, #362, #252, .T. ) ;
#178 = EDGE_CURVE ( 'NONE', #368, #360, #250, .T. ) ;
#179 = EDGE_CURVE ( 'NONE', #361, #364, #248, .T. ) ;
#180 = EDGE_CURVE ( 'NONE', #363, #357, #246, .T. ) ;
#181 = PRODUCT ( 'Êðûøêà íà îòâåòâèòåëü Ò-îáðàçíûé âåðòèêàëüíûé TDSA_38392', 'Êðûøêà íà îòâåòâèòåëü Ò-îáðàçíûé âåðòèêàëüíûé TDSA_38392', '', ( #408 ) ) ;
#182 = PERSON ( 'UNSPECIFIED', 'UNSPECIFIED', 'UNSPECIFIED', ('UNSPECIFIED'), ('UNSPECIFIED'), ('UNSPECIFIED') ) ;
#183 = APPROVAL_DATE_TIME ( #184, #121 ) ;
#184 = DATE_AND_TIME ( #185, #186 ) ;
#185 = CALENDAR_DATE ( 2012, 9, 11 ) ;
#186 = LOCAL_TIME ( 12, 44, 21.00000000000000000, #187 ) ;
#187 = COORDINATED_UNIVERSAL_TIME_OFFSET ( 4, 0, .AHEAD. ) ;
#188 = APPROVAL_PERSON_ORGANIZATION ( #189, #121, #427 ) ;
#189 = PERSON_AND_ORGANIZATION ( #182, #214 ) ;
#190 = DATE_AND_TIME ( #191, #192 ) ;
#191 = CALENDAR_DATE ( 2012, 9, 11 ) ;
#192 = LOCAL_TIME ( 12, 44, 21.00000000000000000, #193 ) ;
#193 = COORDINATED_UNIVERSAL_TIME_OFFSET ( 4, 0, .AHEAD. ) ;
#194 = PERSON_AND_ORGANIZATION ( #182, #214 ) ;
#195 = PERSON_AND_ORGANIZATION ( #182, #214 ) ;
#196 = PERSON_AND_ORGANIZATION ( #182, #214 ) ;
#197 = APPROVAL_DATE_TIME ( #198, #128 ) ;
#198 = DATE_AND_TIME ( #232, #223 ) ;
#199 = APPROVAL_PERSON_ORGANIZATION ( #200, #128, #434 ) ;
#200 = PERSON_AND_ORGANIZATION ( #182, #214 ) ;
#201 = DATE_AND_TIME ( #202, #203 ) ;
#202 = CALENDAR_DATE ( 2012, 9, 11 ) ;
#203 = LOCAL_TIME ( 12, 44, 21.00000000000000000, #204 ) ;
#204 = COORDINATED_UNIVERSAL_TIME_OFFSET ( 4, 0, .AHEAD. ) ;
#205 = PERSON_AND_ORGANIZATION ( #182, #214 ) ;
#206 = APPROVAL_DATE_TIME ( #207, #131 ) ;
#207 = DATE_AND_TIME ( #208, #209 ) ;
#208 = CALENDAR_DATE ( 2012, 9, 11 ) ;
#209 = LOCAL_TIME ( 12, 44, 21.00000000000000000, #210 ) ;
#210 = COORDINATED_UNIVERSAL_TIME_OFFSET ( 4, 0, .AHEAD. ) ;
#211 = APPROVAL_PERSON_ORGANIZATION ( #212, #131, #403 ) ;
#212 = PERSON_AND_ORGANIZATION ( #182, #214 ) ;
#213 = PERSON_AND_ORGANIZATION ( #182, #214 ) ;
#214 = ORGANIZATION ( 'UNSPECIFIED', 'UNSPECIFIED', '' ) ;
#215 = VERTEX_POINT ( 'NONE', #420 ) ;
#216 = VERTEX_POINT ( 'NONE', #417 ) ;
#217 = VERTEX_POINT ( 'NONE', #419 ) ;
#218 = CYLINDRICAL_SURFACE ( 'NONE', #135, 2.500000000000057700 ) ;
#219 = SHAPE_DEFINITION_REPRESENTATION ( #402, #387 ) ;
#220 = FACE_OUTER_BOUND ( 'NONE', #225, .T. ) ;
#221 = CYLINDRICAL_SURFACE ( 'NONE', #136, 2.500000000000002200 ) ;
#222 = FACE_OUTER_BOUND ( 'NONE', #228, .T. ) ;
#223 = LOCAL_TIME ( 12, 44, 21.00000000000000000, #224 ) ;
#224 = COORDINATED_UNIVERSAL_TIME_OFFSET ( 4, 0, .AHEAD. ) ;
#225 = EDGE_LOOP ( 'NONE', ( #303 ) ) ;
#226 = VERTEX_POINT ( 'NONE', #418 ) ;
#227 = FACE_OUTER_BOUND ( 'NONE', #383, .T. ) ;
#228 = EDGE_LOOP ( 'NONE', ( #301 ) ) ;
#229 = FACE_OUTER_BOUND ( 'NONE', #376, .T. ) ;
#230 = FACE_OUTER_BOUND ( 'NONE', #369, .T. ) ;
#231 = FACE_OUTER_BOUND ( 'NONE', #371, .T. ) ;
#232 = CALENDAR_DATE ( 2012, 9, 11 ) ;
#233 = FACE_OUTER_BOUND ( 'NONE', #378, .T. ) ;
#234 = FACE_BOUND ( 'NONE', #379, .T. ) ;
#235 = FACE_BOUND ( 'NONE', #374, .T. ) ;
#236 = FACE_BOUND ( 'NONE', #373, .T. ) ;
#237 = FACE_OUTER_BOUND ( 'NONE', #380, .T. ) ;
#238 = FACE_OUTER_BOUND ( 'NONE', #372, .T. ) ;
#239 = FACE_OUTER_BOUND ( 'NONE', #375, .T. ) ;
#240 = FACE_OUTER_BOUND ( 'NONE', #381, .T. ) ;
#241 = FACE_OUTER_BOUND ( 'NONE', #384, .T. ) ;
#242 = FACE_BOUND ( 'NONE', #354, .T. ) ;
#243 = VECTOR ( 'NONE', #64, 1000.000000000000000 ) ;
#244 = FACE_OUTER_BOUND ( 'NONE', #370, .T. ) ;
#245 = VECTOR ( 'NONE', #67, 1000.000000000000000 ) ;
#246 = LINE ( 'NONE', #66, #243 ) ;
#247 = VECTOR ( 'NONE', #69, 1000.000000000000000 ) ;
#248 = LINE ( 'NONE', #68, #245 ) ;
#249 = VECTOR ( 'NONE', #73, 1000.000000000000000 ) ;
#250 = LINE ( 'NONE', #72, #247 ) ;
#251 = VECTOR ( 'NONE', #77, 1000.000000000000000 ) ;
#252 = LINE ( 'NONE', #74, #249 ) ;
#253 = VECTOR ( 'NONE', #78, 1000.000000000000000 ) ;
#254 = FACE_OUTER_BOUND ( 'NONE', #385, .T. ) ;
#255 = VECTOR ( 'NONE', #82, 1000.000000000000000 ) ;
#256 = LINE ( 'NONE', #80, #253 ) ;
#257 = VECTOR ( 'NONE', #84, 1000.000000000000000 ) ;
#258 = LINE ( 'NONE', #88, #251 ) ;
#259 = VECTOR ( 'NONE', #85, 1000.000000000000000 ) ;
#260 = LINE ( 'NONE', #105, #255 ) ;
#261 = LINE ( 'NONE', #89, #259 ) ;
#262 = VECTOR ( 'NONE', #98, 1000.000000000000000 ) ;
#263 = VECTOR ( 'NONE', #111, 1000.000000000000000 ) ;
#264 = CIRCLE ( 'NONE', #148, 2.500000000000002200 ) ;
#265 = LINE ( 'NONE', #110, #257 ) ;
#266 = LINE ( 'NONE', #24, #262 ) ;
#267 = VECTOR ( 'NONE', #114, 1000.000000000000000 ) ;
#268 = CIRCLE ( 'NONE', #149, 2.500000000000057700 ) ;
#269 = LINE ( 'NONE', #115, #267 ) ;
#270 = VECTOR ( 'NONE', #4, 1000.000000000000000 ) ;
#271 = VECTOR ( 'NONE', #116, 1000.000000000000000 ) ;
#272 = LINE ( 'NONE', #43, #271 ) ;
#273 = VECTOR ( 'NONE', #38, 1000.000000000000000 ) ;
#274 = LINE ( 'NONE', #51, #270 ) ;
#275 = LINE ( 'NONE', #87, #273 ) ;
#276 = LINE ( 'NONE', #97, #263 ) ;
#277 = VECTOR ( 'NONE', #70, 1000.000000000000000 ) ;
#278 = CIRCLE ( 'NONE', #151, 2.500000000000057700 ) ;
#279 = VECTOR ( 'NONE', #71, 1000.000000000000000 ) ;
#280 = CIRCLE ( 'NONE', #150, 2.500000000000002200 ) ;
#281 = VECTOR ( 'NONE', #76, 1000.000000000000000 ) ;
#282 = LINE ( 'NONE', #75, #279 ) ;
#283 = VECTOR ( 'NONE', #86, 1000.000000000000000 ) ;
#284 = LINE ( 'NONE', #81, #281 ) ;
#285 = VECTOR ( 'NONE', #90, 1000.000000000000000 ) ;
#286 = LINE ( 'NONE', #93, #277 ) ;
#287 = VECTOR ( 'NONE', #91, 1000.000000000000000 ) ;
#288 = LINE ( 'NONE', #106, #283 ) ;
#289 = VECTOR ( 'NONE', #95, 1000.000000000000000 ) ;
#290 = LINE ( 'NONE', #94, #287 ) ;
#291 = VECTOR ( 'NONE', #103, 1000.000000000000000 ) ;
#292 = LINE ( 'NONE', #96, #285 ) ;
#293 = VECTOR ( 'NONE', #113, 1000.000000000000000 ) ;
#294 = LINE ( 'NONE', #112, #293 ) ;
#295 = ORIENTED_EDGE ( 'NONE', *, *, #174, .T. ) ;
#296 = ORIENTED_EDGE ( 'NONE', *, *, #171, .T. ) ;
#297 = ORIENTED_EDGE ( 'NONE', *, *, #165, .T. ) ;
#298 = ORIENTED_EDGE ( 'NONE', *, *, #158, .T. ) ;
#299 = ORIENTED_EDGE ( 'NONE', *, *, #155, .T. ) ;
#300 = ORIENTED_EDGE ( 'NONE', *, *, #164, .T. ) ;
#301 = ORIENTED_EDGE ( 'NONE', *, *, #169, .T. ) ;
#302 = ORIENTED_EDGE ( 'NONE', *, *, #162, .T. ) ;
#303 = ORIENTED_EDGE ( 'NONE', *, *, #168, .T. ) ;
#304 = CLOSED_SHELL ( 'NONE', ( #397, #398, #390, #389, #392, #391, #394, #393, #396, #395, #399, #400 ) ) ;
#305 = ORIENTED_EDGE ( 'NONE', *, *, #170, .F. ) ;
#306 = ORIENTED_EDGE ( 'NONE', *, *, #167, .T. ) ;
#307 = ORIENTED_EDGE ( 'NONE', *, *, #152, .F. ) ;
#308 = ORIENTED_EDGE ( 'NONE', *, *, #176, .F. ) ;
#309 = ORIENTED_EDGE ( 'NONE', *, *, #152, .T. ) ;
#310 = ORIENTED_EDGE ( 'NONE', *, *, #179, .F. ) ;
#311 = ORIENTED_EDGE ( 'NONE', *, *, #153, .F. ) ;
#312 = ORIENTED_EDGE ( 'NONE', *, *, #154, .T. ) ;
#313 = ORIENTED_EDGE ( 'NONE', *, *, #155, .F. ) ;
#314 = ORIENTED_EDGE ( 'NONE', *, *, #156, .F. ) ;
#315 = ORIENTED_EDGE ( 'NONE', *, *, #157, .T. ) ;
#316 = ORIENTED_EDGE ( 'NONE', *, *, #153, .T. ) ;
#317 = ORIENTED_EDGE ( 'NONE', *, *, #158, .F. ) ;
#318 = ORIENTED_EDGE ( 'NONE', *, *, #159, .F. ) ;
#319 = ORIENTED_EDGE ( 'NONE', *, *, #161, .T. ) ;
#320 = ORIENTED_EDGE ( 'NONE', *, *, #156, .T. ) ;
#321 = ORIENTED_EDGE ( 'NONE', *, *, #162, .F. ) ;
#322 = ORIENTED_EDGE ( 'NONE', *, *, #164, .F. ) ;
#323 = ORIENTED_EDGE ( 'NONE', *, *, #165, .F. ) ;
#324 = ORIENTED_EDGE ( 'NONE', *, *, #172, .F. ) ;
#325 = ORIENTED_EDGE ( 'NONE', *, *, #166, .T. ) ;
#326 = ORIENTED_EDGE ( 'NONE', *, *, #159, .T. ) ;
#327 = ORIENTED_EDGE ( 'NONE', *, *, #171, .F. ) ;
#328 = ORIENTED_EDGE ( 'NONE', *, *, #177, .F. ) ;
#329 = ORIENTED_EDGE ( 'NONE', *, *, #180, .T. ) ;
#330 = ORIENTED_EDGE ( 'NONE', *, *, #172, .T. ) ;
#331 = ORIENTED_EDGE ( 'NONE', *, *, #174, .F. ) ;
#332 = ORIENTED_EDGE ( 'NONE', *, *, #173, .F. ) ;
#333 = ORIENTED_EDGE ( 'NONE', *, *, #175, .T. ) ;
#334 = ORIENTED_EDGE ( 'NONE', *, *, #177, .T. ) ;
#335 = ORIENTED_EDGE ( 'NONE', *, *, #176, .T. ) ;
#336 = ORIENTED_EDGE ( 'NONE', *, *, #178, .F. ) ;
#337 = ORIENTED_EDGE ( 'NONE', *, *, #163, .F. ) ;
#338 = ORIENTED_EDGE ( 'NONE', *, *, #173, .T. ) ;
#339 = ORIENTED_EDGE ( 'NONE', *, *, #168, .F. ) ;
#340 = ORIENTED_EDGE ( 'NONE', *, *, #169, .F. ) ;
#341 = ORIENTED_EDGE ( 'NONE', *, *, #170, .T. ) ;
#342 = ORIENTED_EDGE ( 'NONE', *, *, #154, .F. ) ;
#343 = ORIENTED_EDGE ( 'NONE', *, *, #167, .F. ) ;
#344 = ORIENTED_EDGE ( 'NONE', *, *, #178, .T. ) ;
#345 = ORIENTED_EDGE ( 'NONE', *, *, #179, .T. ) ;
#346 = ORIENTED_EDGE ( 'NONE', *, *, #157, .F. ) ;
#347 = ORIENTED_EDGE ( 'NONE', *, *, #161, .F. ) ;
#348 = ORIENTED_EDGE ( 'NONE', *, *, #166, .F. ) ;
#349 = ORIENTED_EDGE ( 'NONE', *, *, #180, .F. ) ;
#350 = ORIENTED_EDGE ( 'NONE', *, *, #175, .F. ) ;
#351 = ORIENTED_EDGE ( 'NONE', *, *, #163, .T. ) ;
#352 = VERTEX_POINT ( 'NONE', #65 ) ;
#353 = VERTEX_POINT ( 'NONE', #62 ) ;
#354 = EDGE_LOOP ( 'NONE', ( #322 ) ) ;
#355 = VERTEX_POINT ( 'NONE', #61 ) ;
#356 = VERTEX_POINT ( 'NONE', #63 ) ;
#357 = VERTEX_POINT ( 'NONE', #60 ) ;
#358 = VERTEX_POINT ( 'NONE', #83 ) ;
#359 = VERTEX_POINT ( 'NONE', #59 ) ;
#360 = VERTEX_POINT ( 'NONE', #79 ) ;
#361 = VERTEX_POINT ( 'NONE', #58 ) ;
#362 = VERTEX_POINT ( 'NONE', #57 ) ;
#363 = VERTEX_POINT ( 'NONE', #56 ) ;
#364 = VERTEX_POINT ( 'NONE', #55 ) ;
#365 = VERTEX_POINT ( 'NONE', #54 ) ;
#366 = VERTEX_POINT ( 'NONE', #53 ) ;
#367 = VERTEX_POINT ( 'NONE', #52 ) ;
#368 = VERTEX_POINT ( 'NONE', #50 ) ;
#369 = EDGE_LOOP ( 'NONE', ( #309, #311, #310, #312 ) ) ;
#370 = EDGE_LOOP ( 'NONE', ( #327, #328, #329, #330 ) ) ;
#371 = EDGE_LOOP ( 'NONE', ( #345, #346, #347, #348, #349, #350, #351, #306 ) ) ;
#372 = EDGE_LOOP ( 'NONE', ( #335, #336, #337, #338 ) ) ;
#373 = EDGE_LOOP ( 'NONE', ( #321 ) ) ;
#374 = EDGE_LOOP ( 'NONE', ( #339 ) ) ;
#375 = EDGE_LOOP ( 'NONE', ( #317, #318, #319, #320 ) ) ;
#376 = EDGE_LOOP ( 'NONE', ( #313, #314, #315, #316 ) ) ;
#377 = LINE ( 'NONE', #102, #291 ) ;
#378 = EDGE_LOOP ( 'NONE', ( #302 ) ) ;
#379 = EDGE_LOOP ( 'NONE', ( #340 ) ) ;
#380 = EDGE_LOOP ( 'NONE', ( #341, #342, #343, #344 ) ) ;
#381 = EDGE_LOOP ( 'NONE', ( #331, #332, #333, #334 ) ) ;
#382 = LINE ( 'NONE', #101, #289 ) ;
#383 = EDGE_LOOP ( 'NONE', ( #300 ) ) ;
#384 = EDGE_LOOP ( 'NONE', ( #307, #305, #308, #295, #296, #297, #298, #299 ) ) ;
#385 = EDGE_LOOP ( 'NONE', ( #323, #324, #325, #326 ) ) ;
#386 = MANIFOLD_SOLID_BREP ( 'Âûðåç-Âûòÿíóòü1', #304 ) ;
#387 = ADVANCED_BREP_SHAPE_REPRESENTATION ( '¦¨v°úð ýð þªòõªòøªõû¹ T-þñ¨ð÷ývù òõ¨ªøúðû¹ývù TDSA_38392', ( #386, #134 ), #138 ) ;
#388 = UNCERTAINTY_MEASURE_WITH_UNIT (LENGTH_MEASURE( 1.000000000000000100E-005 ), #413, 'distance_accuracy_value', 'NONE');
#389 = ADVANCED_FACE ( 'NONE', ( #236, #242, #254 ), #47, .T. ) ;
#390 = ADVANCED_FACE ( 'NONE', ( #239 ), #41, .T. ) ;
#391 = ADVANCED_FACE ( 'NONE', ( #240 ), #36, .T. ) ;
#392 = ADVANCED_FACE ( 'NONE', ( #244 ), #32, .T. ) ;
#393 = ADVANCED_FACE ( 'NONE', ( #235, #234, #237 ), #27, .F. ) ;
#394 = ADVANCED_FACE ( 'NONE', ( #238 ), #23, .F. ) ;
#395 = ADVANCED_FACE ( 'NONE', ( #241 ), #17, .T. ) ;
#396 = ADVANCED_FACE ( 'NONE', ( #231 ), #12, .F. ) ;
#397 = ADVANCED_FACE ( 'NONE', ( #230 ), #7, .F. ) ;
#398 = ADVANCED_FACE ( 'NONE', ( #229 ), #2, .T. ) ;
#399 = ADVANCED_FACE ( 'NONE', ( #227, #222 ), #221, .F. ) ;
#400 = ADVANCED_FACE ( 'NONE', ( #233, #220 ), #218, .F. ) ;
#401 = DESIGN_CONTEXT ( 'detailed design', #406, 'design' ) ;
#402 = PRODUCT_DEFINITION_SHAPE ( 'NONE', 'NONE',  #132 ) ;
#403 = APPROVAL_ROLE ( '' ) ;
#404 = APPROVAL_STATUS ( 'not_yet_approved' ) ;
#405 = APPLICATION_PROTOCOL_DEFINITION ( 'international standard', 'config_control_design', 1994, #406 ) ;
#406 = APPLICATION_CONTEXT ( 'configuration controlled 3d designs of mechanical parts and assemblies' ) ;
#407 = PERSON_AND_ORGANIZATION_ROLE ( 'design_owner' ) ;
#408 = MECHANICAL_CONTEXT ( 'NONE', #414, 'mechanical' ) ;
#409 = DIRECTION ( 'NONE',  ( 1.000000000000000000, 0.0000000000000000000, 0.0000000000000000000 ) ) ;
#410 = APPLICATION_PROTOCOL_DEFINITION ( 'international standard', 'config_control_design', 1994, #414 ) ;
#411 =( NAMED_UNIT ( * ) SI_UNIT ( $, .STERADIAN. ) SOLID_ANGLE_UNIT ( ) );
#412 =( NAMED_UNIT ( * ) PLANE_ANGLE_UNIT ( ) SI_UNIT ( $, .RADIAN. ) );
#413 =( LENGTH_UNIT ( ) NAMED_UNIT ( * ) SI_UNIT ( .MILLI., .METRE. ) );
#414 = APPLICATION_CONTEXT ( 'configuration controlled 3d designs of mechanical parts and assemblies' ) ;
#415 = DIRECTION ( 'NONE',  ( 0.0000000000000000000, 0.0000000000000000000, 1.000000000000000000 ) ) ;
#416 = CARTESIAN_POINT ( 'NONE',  ( 0.0000000000000000000, 0.0000000000000000000, 0.0000000000000000000 ) ) ;
#417 = CARTESIAN_POINT ( 'NONE',  ( 0.0000000000000000000, 0.0000000000000000000, 647.5000000000001100 ) ) ;
#418 = CARTESIAN_POINT ( 'NONE',  ( 0.0000000000000000000, 0.5999999999999999800, 642.5000000000000000 ) ) ;
#419 = CARTESIAN_POINT ( 'NONE',  ( 1.734723475976807100E-015, 0.5999999999999999800, 17.49999999999999600 ) ) ;
#420 = CARTESIAN_POINT ( 'NONE',  ( 1.734723475976807100E-015, 0.0000000000000000000, 17.49999999999999600 ) ) ;
#421 = DIRECTION ( 'NONE',  ( -0.0000000000000000000, 1.000000000000000000, -0.0000000000000000000 ) ) ;
#422 = CARTESIAN_POINT ( 'NONE',  ( 0.0000000000000000000, -14.00099999999999900, 645.0000000000000000 ) ) ;
#423 = DIRECTION ( 'NONE',  ( 0.0000000000000000000, 0.0000000000000000000, 1.000000000000000000 ) ) ;
#424 = CARTESIAN_POINT ( 'NONE',  ( 1.734723475976807100E-015, -14.00099999999999900, 14.99999999999999300 ) ) ;
#425 = DIRECTION ( 'NONE',  ( -0.0000000000000000000, 1.000000000000000000, -0.0000000000000000000 ) ) ;
#426 = DIRECTION ( 'NONE',  ( 0.0000000000000000000, 0.0000000000000000000, 1.000000000000000000 ) ) ;
#427 = APPROVAL_ROLE ( '' ) ;
#428 = APPROVAL_STATUS ( 'not_yet_approved' ) ;
#429 = DATE_TIME_ROLE ( 'classification_date' ) ;
#430 = PERSON_AND_ORGANIZATION_ROLE ( 'classification_officer' ) ;
#431 = SECURITY_CLASSIFICATION_LEVEL ( 'unclassified' ) ;
#432 = PERSON_AND_ORGANIZATION_ROLE ( 'design_supplier' ) ;
#433 = PERSON_AND_ORGANIZATION_ROLE ( 'creator' ) ;
#434 = APPROVAL_ROLE ( '' ) ;
#435 = APPROVAL_STATUS ( 'not_yet_approved' ) ;
#436 = DATE_TIME_ROLE ( 'creation_date' ) ;
#437 = PERSON_AND_ORGANIZATION_ROLE ( 'creator' ) ;
ENDSEC;
END-ISO-10303-21;
