ISO-10303-21;
HEADER;
FILE_DESCRIPTION (( 'STEP AP203' ),
    '1' );
FILE_NAME ('CTR10-016-K41-111I Òðóáà ãëàäêàÿ æåñòêàÿ ÏÂÕ d16 ÈÝÊ ñåðàÿ (111ì),3ì.STEP',
    '2016-04-27T08:15:32',
    ( '' ),
    ( '' ),
    'SwSTEP 2.0',
    'SolidWorks 2014',
    '' );
FILE_SCHEMA (( 'CONFIG_CONTROL_DESIGN' ));
ENDSEC;

DATA;
#1 = DIRECTION ( 'NONE',  ( 0.0000000000000000000, 0.0000000000000000000, -1.000000000000000000 ) ) ;
#2 = EDGE_LOOP ( 'NONE', ( #87 ) ) ;
#3 = PERSON_AND_ORGANIZATION ( #10, #13 ) ;
#4 = EDGE_CURVE ( 'NONE', #83, #83, #129, .T. ) ;
#5 = LOCAL_TIME ( 11, 15, 32.00000000000000000, #37 ) ;
#6 = COORDINATED_UNIVERSAL_TIME_OFFSET ( 3, 0, .AHEAD. ) ;
#7 = COORDINATED_UNIVERSAL_TIME_OFFSET ( 3, 0, .AHEAD. ) ;
#8 = APPROVAL_STATUS ( 'not_yet_approved' ) ;
#9 = APPROVAL_DATE_TIME ( #42, #74 ) ;
#10 = PERSON ( 'UNSPECIFIED', 'UNSPECIFIED', 'UNSPECIFIED', ('UNSPECIFIED'), ('UNSPECIFIED'), ('UNSPECIFIED') ) ;
#11 = CC_DESIGN_PERSON_AND_ORGANIZATION_ASSIGNMENT ( #105, #152, ( #60 ) ) ;
#12 = CARTESIAN_POINT ( 'NONE',  ( 3000.000000000000000, 0.0000000000000000000, 0.0000000000000000000 ) ) ;
#13 = ORGANIZATION ( 'UNSPECIFIED', 'UNSPECIFIED', '' ) ;
#14 = CARTESIAN_POINT ( 'NONE',  ( 0.0000000000000000000, 0.0000000000000000000, 0.0000000000000000000 ) ) ;
#15 = AXIS2_PLACEMENT_3D ( 'NONE', #14, #160, #99 ) ;
#16 = APPROVAL_STATUS ( 'not_yet_approved' ) ;
#17 = CC_DESIGN_PERSON_AND_ORGANIZATION_ASSIGNMENT ( #146, #55, ( #60 ) ) ;
#18 = CARTESIAN_POINT ( 'NONE',  ( 3000.000000000000000, 0.0000000000000000000, -8.000000000000000000 ) ) ;
#19 = DESIGN_CONTEXT ( 'detailed design', #144, 'design' ) ;
#20 = CYLINDRICAL_SURFACE ( 'NONE', #169, 7.250000000000002700 ) ;
#21 = CARTESIAN_POINT ( 'NONE',  ( 0.0000000000000000000, 0.0000000000000000000, 0.0000000000000000000 ) ) ;
#22 = CALENDAR_DATE ( 2016, 27, 4 ) ;
#23 = VERTEX_POINT ( 'NONE', #18 ) ;
#24 = EDGE_LOOP ( 'NONE', ( #29 ) ) ;
#25 = CC_DESIGN_APPROVAL ( #74, ( #60 ) ) ;
#26 = EDGE_LOOP ( 'NONE', ( #127 ) ) ;
#27 = DATE_AND_TIME ( #61, #95 ) ;
#28 = SHAPE_DEFINITION_REPRESENTATION ( #117, #49 ) ;
#29 = ORIENTED_EDGE ( 'NONE', *, *, #73, .T. ) ;
#30 = APPROVAL_DATE_TIME ( #64, #85 ) ;
#31 = PERSON_AND_ORGANIZATION_ROLE ( 'creator' ) ;
#32 = FACE_BOUND ( 'NONE', #2, .T. ) ;
#33 = APPROVAL_DATE_TIME ( #65, #164 ) ;
#34 = MANIFOLD_SOLID_BREP ( 'Áîáûøêà-Âûòÿíóòü1', #157 ) ;
#35 = DIRECTION ( 'NONE',  ( 1.000000000000000000, 0.0000000000000000000, 0.0000000000000000000 ) ) ;
#36 = CARTESIAN_POINT ( 'NONE',  ( 0.0000000000000000000, 0.0000000000000000000, -8.000000000000000000 ) ) ;
#37 = COORDINATED_UNIVERSAL_TIME_OFFSET ( 3, 0, .AHEAD. ) ;
#38 = ADVANCED_FACE ( 'NONE', ( #165, #32 ), #43, .T. ) ;
#39 = APPROVAL_PERSON_ORGANIZATION ( #110, #85, #108 ) ;
#40 = DIRECTION ( 'NONE',  ( 0.0000000000000000000, 0.0000000000000000000, -1.000000000000000000 ) ) ;
#41 = APPROVAL_PERSON_ORGANIZATION ( #69, #164, #91 ) ;
#42 = DATE_AND_TIME ( #22, #56 ) ;
#43 = PLANE ( 'NONE',  #104 ) ;
#44 = APPROVAL_STATUS ( 'not_yet_approved' ) ;
#45 = CC_DESIGN_APPROVAL ( #85, ( #94 ) ) ;
#46 = PERSON_AND_ORGANIZATION_ROLE ( 'design_owner' ) ;
#47 = CARTESIAN_POINT ( 'NONE',  ( 3000.000000000000000, 0.0000000000000000000, -7.250000000000002700 ) ) ;
#48 = EDGE_CURVE ( 'NONE', #23, #23, #96, .T. ) ;
#49 = ADVANCED_BREP_SHAPE_REPRESENTATION ( 'CTR10-016-K41-111I T¨ºñð óûðôúð  öõ¸ªúð  ¦T- d16 L¦¦ ¸õ¨ð  (111ü),3ü', ( #34, #116 ), #77 ) ;
#50 = DIRECTION ( 'NONE',  ( 1.000000000000000000, 0.0000000000000000000, 0.0000000000000000000 ) ) ;
#51 = EDGE_LOOP ( 'NONE', ( #119 ) ) ;
#52 = CARTESIAN_POINT ( 'NONE',  ( 3000.000000000000000, 0.0000000000000000000, 0.0000000000000000000 ) ) ;
#53 = CIRCLE ( 'NONE', #153, 7.250000000000002700 ) ;
#54 = EDGE_LOOP ( 'NONE', ( #92 ) ) ;
#55 = PERSON_AND_ORGANIZATION_ROLE ( 'creator' ) ;
#56 = LOCAL_TIME ( 11, 15, 32.00000000000000000, #89 ) ;
#57 = APPLICATION_PROTOCOL_DEFINITION ( 'international standard', 'config_control_design', 1994, #144 ) ;
#58 = ORIENTED_EDGE ( 'NONE', *, *, #4, .T. ) ;
#59 = ORIENTED_EDGE ( 'NONE', *, *, #48, .F. ) ;
#60 = PRODUCT_DEFINITION_FORMATION_WITH_SPECIFIED_SOURCE ( 'ANY', '', #81, .NOT_KNOWN. ) ;
#61 = CALENDAR_DATE ( 2016, 27, 4 ) ;
#62 = CIRCLE ( 'NONE', #67, 8.000000000000000000 ) ;
#63 = DIRECTION ( 'NONE',  ( 1.000000000000000000, 0.0000000000000000000, 0.0000000000000000000 ) ) ;
#64 = DATE_AND_TIME ( #102, #141 ) ;
#65 = DATE_AND_TIME ( #103, #143 ) ;
#66 = DIRECTION ( 'NONE',  ( 0.0000000000000000000, 0.0000000000000000000, -1.000000000000000000 ) ) ;
#67 = AXIS2_PLACEMENT_3D ( 'NONE', #21, #115, #40 ) ;
#68 = PERSON_AND_ORGANIZATION ( #10, #13 ) ;
#69 = PERSON_AND_ORGANIZATION ( #10, #13 ) ;
#70 = SECURITY_CLASSIFICATION_LEVEL ( 'unclassified' ) ;
#71 = PRODUCT_RELATED_PRODUCT_CATEGORY ( 'detail', '', ( #81 ) ) ;
#72 =( NAMED_UNIT ( * ) PLANE_ANGLE_UNIT ( ) SI_UNIT ( $, .RADIAN. ) );
#73 = EDGE_CURVE ( 'NONE', #162, #162, #62, .T. ) ;
#74 = APPROVAL ( #44, 'UNSPECIFIED' ) ;
#75 = ADVANCED_FACE ( 'NONE', ( #137, #131 ), #161, .T. ) ;
#76 = DIRECTION ( 'NONE',  ( -1.000000000000000000, -0.0000000000000000000, -0.0000000000000000000 ) ) ;
#77 =( GEOMETRIC_REPRESENTATION_CONTEXT ( 3 ) GLOBAL_UNCERTAINTY_ASSIGNED_CONTEXT ( ( #97 ) ) GLOBAL_UNIT_ASSIGNED_CONTEXT ( ( #154, #72, #80 ) ) REPRESENTATION_CONTEXT ( 'NONE', 'WORKASPACE' ) );
#78 = DATE_TIME_ROLE ( 'classification_date' ) ;
#79 = CARTESIAN_POINT ( 'NONE',  ( 0.0000000000000000000, 0.0000000000000000000, 0.0000000000000000000 ) ) ;
#80 =( NAMED_UNIT ( * ) SI_UNIT ( $, .STERADIAN. ) SOLID_ANGLE_UNIT ( ) );
#81 = PRODUCT ( 'CTR10-016-K41-111I Òðóáà ãëàäêàÿ æåñòêàÿ ÏÂÕ d16 ÈÝÊ ñåðàÿ (111ì),3ì', 'CTR10-016-K41-111I Òðóáà ãëàäêàÿ æåñòêàÿ ÏÂÕ d16 ÈÝÊ ñåðàÿ (111ì),3ì', '', ( #122 ) ) ;
#82 = ADVANCED_FACE ( 'NONE', ( #168, #124 ), #20, .F. ) ;
#83 = VERTEX_POINT ( 'NONE', #113 ) ;
#84 = DIRECTION ( 'NONE',  ( 0.0000000000000000000, 0.0000000000000000000, 1.000000000000000000 ) ) ;
#85 = APPROVAL ( #16, 'UNSPECIFIED' ) ;
#86 = FACE_OUTER_BOUND ( 'NONE', #51, .T. ) ;
#87 = ORIENTED_EDGE ( 'NONE', *, *, #112, .F. ) ;
#88 = CARTESIAN_POINT ( 'NONE',  ( 3000.000000000000000, 0.0000000000000000000, 0.0000000000000000000 ) ) ;
#89 = COORDINATED_UNIVERSAL_TIME_OFFSET ( 3, 0, .AHEAD. ) ;
#90 = CC_DESIGN_SECURITY_CLASSIFICATION ( #156, ( #60 ) ) ;
#91 = APPROVAL_ROLE ( '' ) ;
#92 = ORIENTED_EDGE ( 'NONE', *, *, #112, .T. ) ;
#93 = EDGE_LOOP ( 'NONE', ( #133 ) ) ;
#94 = PRODUCT_DEFINITION ( 'UNKNOWN', '', #60, #19 ) ;
#95 = LOCAL_TIME ( 11, 15, 32.00000000000000000, #136 ) ;
#96 = CIRCLE ( 'NONE', #132, 8.000000000000000000 ) ;
#97 = UNCERTAINTY_MEASURE_WITH_UNIT (LENGTH_MEASURE( 1.000000000000000100E-005 ), #154, 'distance_accuracy_value', 'NONE');
#98 = APPLICATION_PROTOCOL_DEFINITION ( 'international standard', 'config_control_design', 1994, #111 ) ;
#99 = DIRECTION ( 'NONE',  ( 0.0000000000000000000, 0.0000000000000000000, -1.000000000000000000 ) ) ;
#100 = CC_DESIGN_PERSON_AND_ORGANIZATION_ASSIGNMENT ( #3, #31, ( #94 ) ) ;
#101 = DIRECTION ( 'NONE',  ( 0.0000000000000000000, 0.0000000000000000000, 1.000000000000000000 ) ) ;
#102 = CALENDAR_DATE ( 2016, 27, 4 ) ;
#103 = CALENDAR_DATE ( 2016, 27, 4 ) ;
#104 = AXIS2_PLACEMENT_3D ( 'NONE', #134, #50, #148 ) ;
#105 = PERSON_AND_ORGANIZATION ( #10, #13 ) ;
#106 = DATE_AND_TIME ( #138, #5 ) ;
#107 = CC_DESIGN_PERSON_AND_ORGANIZATION_ASSIGNMENT ( #151, #46, ( #81 ) ) ;
#108 = APPROVAL_ROLE ( '' ) ;
#109 = DIRECTION ( 'NONE',  ( 1.000000000000000000, 0.0000000000000000000, 0.0000000000000000000 ) ) ;
#110 = PERSON_AND_ORGANIZATION ( #10, #13 ) ;
#111 = APPLICATION_CONTEXT ( 'configuration controlled 3d designs of mechanical parts and assemblies' ) ;
#112 = EDGE_CURVE ( 'NONE', #125, #125, #53, .T. ) ;
#113 = CARTESIAN_POINT ( 'NONE',  ( 0.0000000000000000000, 0.0000000000000000000, -7.250000000000002700 ) ) ;
#114 = CC_DESIGN_APPROVAL ( #164, ( #156 ) ) ;
#115 = DIRECTION ( 'NONE',  ( 1.000000000000000000, 0.0000000000000000000, 0.0000000000000000000 ) ) ;
#116 = AXIS2_PLACEMENT_3D ( 'NONE', #123, #145, #35 ) ;
#117 = PRODUCT_DEFINITION_SHAPE ( 'NONE', 'NONE',  #94 ) ;
#118 = DIRECTION ( 'NONE',  ( 0.0000000000000000000, 0.0000000000000000000, -1.000000000000000000 ) ) ;
#119 = ORIENTED_EDGE ( 'NONE', *, *, #73, .F. ) ;
#120 = PLANE ( 'NONE',  #15 ) ;
#121 = DATE_TIME_ROLE ( 'creation_date' ) ;
#122 = MECHANICAL_CONTEXT ( 'NONE', #111, 'mechanical' ) ;
#123 = CARTESIAN_POINT ( 'NONE',  ( 0.0000000000000000000, 0.0000000000000000000, 0.0000000000000000000 ) ) ;
#124 = FACE_OUTER_BOUND ( 'NONE', #26, .T. ) ;
#125 = VERTEX_POINT ( 'NONE', #47 ) ;
#126 = CC_DESIGN_DATE_AND_TIME_ASSIGNMENT ( #106, #78, ( #156 ) ) ;
#127 = ORIENTED_EDGE ( 'NONE', *, *, #4, .F. ) ;
#128 = CARTESIAN_POINT ( 'NONE',  ( 3000.000000000000000, 0.0000000000000000000, 0.0000000000000000000 ) ) ;
#129 = CIRCLE ( 'NONE', #158, 7.250000000000002700 ) ;
#130 = APPROVAL_PERSON_ORGANIZATION ( #167, #74, #142 ) ;
#131 = FACE_OUTER_BOUND ( 'NONE', #24, .T. ) ;
#132 = AXIS2_PLACEMENT_3D ( 'NONE', #12, #63, #1 ) ;
#133 = ORIENTED_EDGE ( 'NONE', *, *, #48, .T. ) ;
#134 = CARTESIAN_POINT ( 'NONE',  ( 3000.000000000000000, 0.0000000000000000000, 0.0000000000000000000 ) ) ;
#135 = EDGE_LOOP ( 'NONE', ( #59 ) ) ;
#136 = COORDINATED_UNIVERSAL_TIME_OFFSET ( 3, 0, .AHEAD. ) ;
#137 = FACE_OUTER_BOUND ( 'NONE', #135, .T. ) ;
#138 = CALENDAR_DATE ( 2016, 27, 4 ) ;
#139 = AXIS2_PLACEMENT_3D ( 'NONE', #88, #76, #84 ) ;
#140 = CC_DESIGN_DATE_AND_TIME_ASSIGNMENT ( #27, #121, ( #94 ) ) ;
#141 = LOCAL_TIME ( 11, 15, 32.00000000000000000, #6 ) ;
#142 = APPROVAL_ROLE ( '' ) ;
#143 = LOCAL_TIME ( 11, 15, 32.00000000000000000, #7 ) ;
#144 = APPLICATION_CONTEXT ( 'configuration controlled 3d designs of mechanical parts and assemblies' ) ;
#145 = DIRECTION ( 'NONE',  ( 0.0000000000000000000, 0.0000000000000000000, 1.000000000000000000 ) ) ;
#146 = PERSON_AND_ORGANIZATION ( #10, #13 ) ;
#147 = DIRECTION ( 'NONE',  ( -1.000000000000000000, -0.0000000000000000000, -0.0000000000000000000 ) ) ;
#148 = DIRECTION ( 'NONE',  ( 0.0000000000000000000, 0.0000000000000000000, -1.000000000000000000 ) ) ;
#149 = CC_DESIGN_PERSON_AND_ORGANIZATION_ASSIGNMENT ( #68, #166, ( #156 ) ) ;
#150 = DIRECTION ( 'NONE',  ( 1.000000000000000000, 0.0000000000000000000, 0.0000000000000000000 ) ) ;
#151 = PERSON_AND_ORGANIZATION ( #10, #13 ) ;
#152 = PERSON_AND_ORGANIZATION_ROLE ( 'design_supplier' ) ;
#153 = AXIS2_PLACEMENT_3D ( 'NONE', #52, #150, #66 ) ;
#154 =( LENGTH_UNIT ( ) NAMED_UNIT ( * ) SI_UNIT ( .MILLI., .METRE. ) );
#155 = ADVANCED_FACE ( 'NONE', ( #86, #159 ), #120, .F. ) ;
#156 = SECURITY_CLASSIFICATION ( '', '', #70 ) ;
#157 = CLOSED_SHELL ( 'NONE', ( #38, #155, #75, #82 ) ) ;
#158 = AXIS2_PLACEMENT_3D ( 'NONE', #79, #109, #118 ) ;
#159 = FACE_BOUND ( 'NONE', #163, .T. ) ;
#160 = DIRECTION ( 'NONE',  ( 1.000000000000000000, 0.0000000000000000000, 0.0000000000000000000 ) ) ;
#161 = CYLINDRICAL_SURFACE ( 'NONE', #139, 8.000000000000000000 ) ;
#162 = VERTEX_POINT ( 'NONE', #36 ) ;
#163 = EDGE_LOOP ( 'NONE', ( #58 ) ) ;
#164 = APPROVAL ( #8, 'UNSPECIFIED' ) ;
#165 = FACE_OUTER_BOUND ( 'NONE', #93, .T. ) ;
#166 = PERSON_AND_ORGANIZATION_ROLE ( 'classification_officer' ) ;
#167 = PERSON_AND_ORGANIZATION ( #10, #13 ) ;
#168 = FACE_OUTER_BOUND ( 'NONE', #54, .T. ) ;
#169 = AXIS2_PLACEMENT_3D ( 'NONE', #128, #147, #101 ) ;
ENDSEC;
END-ISO-10303-21;
