ISO-10303-21;
HEADER;
FILE_DESCRIPTION (( 'STEP AP203' ),
    '1' );
FILE_NAME ('Êðûøêà íà îòâåòâèòåëü Ò-îáðàçíûé âåðòèêàëüíûé TDSA_38385.STEP',
    '2012-11-09T08:44:19',
    ( 'Àñååâ' ),
    ( '' ),
    'SwSTEP 2.0',
    'SolidWorks 2012',
    '' );
FILE_SCHEMA (( 'CONFIG_CONTROL_DESIGN' ));
ENDSEC;

DATA;
#1 = CARTESIAN_POINT ( 'NONE',  ( 1.734723475976807100E-015, 0.0000000000000000000, 17.49999999999999600 ) ) ;
#2 = CARTESIAN_POINT ( 'NONE',  ( 1.734723475976807100E-015, 0.5999999999999999800, 17.49999999999999600 ) ) ;
#3 = CARTESIAN_POINT ( 'NONE',  ( 0.0000000000000000000, 0.0000000000000000000, 0.0000000000000000000 ) ) ;
#4 = CARTESIAN_POINT ( 'NONE',  ( 51.00000000000000000, -14.00000000000000000, 0.0000000000000000000 ) ) ;
#5 = CARTESIAN_POINT ( 'NONE',  ( 51.00000000000000000, -14.00000000000000000, 410.0000000000000000 ) ) ;
#6 = CARTESIAN_POINT ( 'NONE',  ( -51.00000000000000000, -14.00000000000000000, 410.0000000000000000 ) ) ;
#7 = CARTESIAN_POINT ( 'NONE',  ( 51.00000000000000000, 0.0000000000000000000, 0.0000000000000000000 ) ) ;
#8 = CARTESIAN_POINT ( 'NONE',  ( -51.00000000000000000, -14.00000000000000000, 0.0000000000000000000 ) ) ;
#9 = CARTESIAN_POINT ( 'NONE',  ( -51.60000000000000100, 0.5999999999999999800, 410.0000000000000000 ) ) ;
#10 = CARTESIAN_POINT ( 'NONE',  ( -51.00000000000000000, 0.0000000000000000000, 410.0000000000000000 ) ) ;
#11 = CARTESIAN_POINT ( 'NONE',  ( 51.60000000000000100, -14.00000000000000000, 410.0000000000000000 ) ) ;
#12 = CARTESIAN_POINT ( 'NONE',  ( -51.00000000000000000, 0.0000000000000000000, 0.0000000000000000000 ) ) ;
#13 = CARTESIAN_POINT ( 'NONE',  ( 51.00000000000000000, 0.0000000000000000000, 410.0000000000000000 ) ) ;
#14 = CARTESIAN_POINT ( 'NONE',  ( 51.60000000000000100, 0.5999999999999999800, 0.0000000000000000000 ) ) ;
#15 = CARTESIAN_POINT ( 'NONE',  ( 51.60000000000000100, 0.5999999999999999800, 410.0000000000000000 ) ) ;
#16 = CARTESIAN_POINT ( 'NONE',  ( -51.60000000000000100, 0.5999999999999999800, 0.0000000000000000000 ) ) ;
#17 = DIRECTION ( 'NONE',  ( -0.0000000000000000000, -0.0000000000000000000, -1.000000000000000000 ) ) ;
#18 = CARTESIAN_POINT ( 'NONE',  ( -51.60000000000000100, -14.00000000000000000, 0.0000000000000000000 ) ) ;
#19 = CARTESIAN_POINT ( 'NONE',  ( 51.60000000000000100, -14.00000000000000000, 410.0000000000000000 ) ) ;
#20 = DIRECTION ( 'NONE',  ( -1.000000000000000000, 0.0000000000000000000, 0.0000000000000000000 ) ) ;
#21 = CARTESIAN_POINT ( 'NONE',  ( 51.60000000000000100, -14.00000000000000000, 410.0000000000000000 ) ) ;
#22 = CARTESIAN_POINT ( 'NONE',  ( 1.734723475976807100E-015, -14.00099999999999900, 14.99999999999999300 ) ) ;
#23 = DIRECTION ( 'NONE',  ( -1.000000000000000000, 0.0000000000000000000, 0.0000000000000000000 ) ) ;
#24 = DIRECTION ( 'NONE',  ( -1.000000000000000000, 0.0000000000000000000, 0.0000000000000000000 ) ) ;
#25 = DIRECTION ( 'NONE',  ( -0.0000000000000000000, 0.0000000000000000000, -1.000000000000000000 ) ) ;
#26 = CARTESIAN_POINT ( 'NONE',  ( 51.60000000000000100, -14.00000000000000000, 0.0000000000000000000 ) ) ;
#27 = DIRECTION ( 'NONE',  ( -0.0000000000000000000, -0.0000000000000000000, -1.000000000000000000 ) ) ;
#28 = DIRECTION ( 'NONE',  ( -0.0000000000000000000, 1.000000000000000000, -0.0000000000000000000 ) ) ;
#29 = CARTESIAN_POINT ( 'NONE',  ( 51.00000000000000000, 0.0000000000000000000, 410.0000000000000000 ) ) ;
#30 = DIRECTION ( 'NONE',  ( 0.0000000000000000000, -1.000000000000000000, 0.0000000000000000000 ) ) ;
#31 = PLANE ( 'NONE',  #161 ) ;
#32 = CARTESIAN_POINT ( 'NONE',  ( 51.00000000000000000, 0.0000000000000000000, 410.0000000000000000 ) ) ;
#33 = DIRECTION ( 'NONE',  ( 1.000000000000000000, 0.0000000000000000000, 0.0000000000000000000 ) ) ;
#34 = CARTESIAN_POINT ( 'NONE',  ( 51.60000000000000100, -14.00000000000000000, 0.0000000000000000000 ) ) ;
#35 = DIRECTION ( 'NONE',  ( 1.000000000000000000, 0.0000000000000000000, 0.0000000000000000000 ) ) ;
#36 = DIRECTION ( 'NONE',  ( 0.0000000000000000000, 0.0000000000000000000, 1.000000000000000000 ) ) ;
#37 = DIRECTION ( 'NONE',  ( 0.0000000000000000000, 0.0000000000000000000, 1.000000000000000000 ) ) ;
#38 = DIRECTION ( 'NONE',  ( -0.0000000000000000000, -1.000000000000000000, -0.0000000000000000000 ) ) ;
#39 = DIRECTION ( 'NONE',  ( -1.000000000000000000, 0.0000000000000000000, 0.0000000000000000000 ) ) ;
#40 = CARTESIAN_POINT ( 'NONE',  ( 1.734723475976807100E-015, 0.0000000000000000000, 14.99999999999999300 ) ) ;
#41 = DIRECTION ( 'NONE',  ( 0.0000000000000000000, 0.0000000000000000000, 1.000000000000000000 ) ) ;
#42 = CARTESIAN_POINT ( 'NONE',  ( 0.0000000000000000000, 0.0000000000000000000, 0.0000000000000000000 ) ) ;
#43 = DIRECTION ( 'NONE',  ( 0.0000000000000000000, 0.0000000000000000000, 1.000000000000000000 ) ) ;
#44 = DIRECTION ( 'NONE',  ( -0.0000000000000000000, -1.000000000000000000, -0.0000000000000000000 ) ) ;
#45 = CARTESIAN_POINT ( 'NONE',  ( -8.162383766162930900E-016, 0.0000000000000000000, 395.0000000000000000 ) ) ;
#46 = CARTESIAN_POINT ( 'NONE',  ( -51.60000000000000100, -14.00000000000000000, 410.0000000000000000 ) ) ;
#47 = CARTESIAN_POINT ( 'NONE',  ( -51.00000000000000000, 0.0000000000000000000, 410.0000000000000000 ) ) ;
#48 = PLANE ( 'NONE',  #140 ) ;
#49 = CARTESIAN_POINT ( 'NONE',  ( -51.00000000000000000, 0.0000000000000000000, 0.0000000000000000000 ) ) ;
#50 = DIRECTION ( 'NONE',  ( -0.0000000000000000000, 1.000000000000000000, -0.0000000000000000000 ) ) ;
#51 = DIRECTION ( 'NONE',  ( 0.0000000000000000000, -1.000000000000000000, 0.0000000000000000000 ) ) ;
#52 = DIRECTION ( 'NONE',  ( -0.0000000000000000000, -0.0000000000000000000, -1.000000000000000000 ) ) ;
#53 = CARTESIAN_POINT ( 'NONE',  ( -51.60000000000000100, 0.0000000000000000000, 410.0000000000000000 ) ) ;
#54 = CARTESIAN_POINT ( 'NONE',  ( -8.162383766162930900E-016, -14.00099999999999900, 395.0000000000000000 ) ) ;
#55 = DIRECTION ( 'NONE',  ( -0.0000000000000000000, 0.0000000000000000000, -1.000000000000000000 ) ) ;
#56 = CARTESIAN_POINT ( 'NONE',  ( -51.00000000000000000, 0.0000000000000000000, 410.0000000000000000 ) ) ;
#57 = DIRECTION ( 'NONE',  ( 1.000000000000000000, 0.0000000000000000000, -0.0000000000000000000 ) ) ;
#58 = DIRECTION ( 'NONE',  ( -0.0000000000000000000, 1.000000000000000000, -0.0000000000000000000 ) ) ;
#59 = DIRECTION ( 'NONE',  ( -0.0000000000000000000, 1.000000000000000000, -0.0000000000000000000 ) ) ;
#60 = CARTESIAN_POINT ( 'NONE',  ( -51.00000000000000000, 0.0000000000000000000, 0.0000000000000000000 ) ) ;
#61 = DIRECTION ( 'NONE',  ( -1.000000000000000000, 0.0000000000000000000, 0.0000000000000000000 ) ) ;
#62 = PLANE ( 'NONE',  #139 ) ;
#63 = DIRECTION ( 'NONE',  ( -0.0000000000000000000, -0.0000000000000000000, -1.000000000000000000 ) ) ;
#64 = CARTESIAN_POINT ( 'NONE',  ( -51.00000000000000000, 0.0000000000000000000, 410.0000000000000000 ) ) ;
#65 = DIRECTION ( 'NONE',  ( -0.0000000000000000000, 0.0000000000000000000, -1.000000000000000000 ) ) ;
#66 = CARTESIAN_POINT ( 'NONE',  ( -51.00000000000000000, -14.00000000000000000, 410.0000000000000000 ) ) ;
#67 = DIRECTION ( 'NONE',  ( -1.000000000000000000, 0.0000000000000000000, 0.0000000000000000000 ) ) ;
#68 = DIRECTION ( 'NONE',  ( 1.000000000000000000, 0.0000000000000000000, -0.0000000000000000000 ) ) ;
#69 = CARTESIAN_POINT ( 'NONE',  ( -51.00000000000000000, -14.00000000000000000, 0.0000000000000000000 ) ) ;
#70 = DIRECTION ( 'NONE',  ( 0.0000000000000000000, 1.000000000000000000, 0.0000000000000000000 ) ) ;
#71 = CARTESIAN_POINT ( 'NONE',  ( 51.00000000000000000, 0.0000000000000000000, 0.0000000000000000000 ) ) ;
#72 = DIRECTION ( 'NONE',  ( 0.0000000000000000000, 0.0000000000000000000, 1.000000000000000000 ) ) ;
#73 = DIRECTION ( 'NONE',  ( -0.0000000000000000000, -0.0000000000000000000, -1.000000000000000000 ) ) ;
#74 = PLANE ( 'NONE',  #141 ) ;
#75 = DIRECTION ( 'NONE',  ( -0.0000000000000000000, -0.0000000000000000000, -1.000000000000000000 ) ) ;
#76 = CARTESIAN_POINT ( 'NONE',  ( -51.00000000000000000, -14.00000000000000000, 410.0000000000000000 ) ) ;
#77 = DIRECTION ( 'NONE',  ( 0.0000000000000000000, -0.0000000000000000000, -1.000000000000000000 ) ) ;
#78 = DIRECTION ( 'NONE',  ( 0.0000000000000000000, -1.000000000000000000, 0.0000000000000000000 ) ) ;
#79 = CARTESIAN_POINT ( 'NONE',  ( 51.00000000000000000, -14.00000000000000000, 410.0000000000000000 ) ) ;
#80 = DIRECTION ( 'NONE',  ( 0.0000000000000000000, 1.000000000000000000, 0.0000000000000000000 ) ) ;
#81 = CARTESIAN_POINT ( 'NONE',  ( -51.60000000000000100, 0.0000000000000000000, 0.0000000000000000000 ) ) ;
#82 = DIRECTION ( 'NONE',  ( 1.000000000000000000, 0.0000000000000000000, 0.0000000000000000000 ) ) ;
#83 = CARTESIAN_POINT ( 'NONE',  ( 51.60000000000000100, 0.0000000000000000000, 410.0000000000000000 ) ) ;
#84 = DIRECTION ( 'NONE',  ( -0.0000000000000000000, -0.0000000000000000000, -1.000000000000000000 ) ) ;
#85 = CARTESIAN_POINT ( 'NONE',  ( -51.60000000000000100, 0.0000000000000000000, 410.0000000000000000 ) ) ;
#86 = PLANE ( 'NONE',  #142 ) ;
#87 = CARTESIAN_POINT ( 'NONE',  ( -51.00000000000000000, 0.5999999999999999800, 410.0000000000000000 ) ) ;
#88 = DIRECTION ( 'NONE',  ( 1.000000000000000000, 0.0000000000000000000, 0.0000000000000000000 ) ) ;
#89 = DIRECTION ( 'NONE',  ( 0.0000000000000000000, 0.0000000000000000000, 1.000000000000000000 ) ) ;
#90 = DIRECTION ( 'NONE',  ( 0.0000000000000000000, 0.0000000000000000000, 1.000000000000000000 ) ) ;
#91 = DIRECTION ( 'NONE',  ( 0.0000000000000000000, 1.000000000000000000, 0.0000000000000000000 ) ) ;
#92 = CARTESIAN_POINT ( 'NONE',  ( 1.734723475976807100E-015, 0.5999999999999999800, 14.99999999999999300 ) ) ;
#93 = DIRECTION ( 'NONE',  ( -1.000000000000000000, 0.0000000000000000000, 0.0000000000000000000 ) ) ;
#94 = CARTESIAN_POINT ( 'NONE',  ( 51.00000000000000000, 0.0000000000000000000, 410.0000000000000000 ) ) ;
#95 = DIRECTION ( 'NONE',  ( 0.0000000000000000000, 0.0000000000000000000, -1.000000000000000000 ) ) ;
#96 = DIRECTION ( 'NONE',  ( -0.0000000000000000000, 1.000000000000000000, -0.0000000000000000000 ) ) ;
#97 = CARTESIAN_POINT ( 'NONE',  ( -8.162383766162930900E-016, 0.5999999999999999800, 395.0000000000000000 ) ) ;
#98 = CARTESIAN_POINT ( 'NONE',  ( -51.60000000000000100, -14.00000000000000000, 410.0000000000000000 ) ) ;
#99 = CARTESIAN_POINT ( 'NONE',  ( -51.60000000000000100, 0.5999999999999999800, 410.0000000000000000 ) ) ;
#100 = DIRECTION ( 'NONE',  ( 0.0000000000000000000, -0.0000000000000000000, 1.000000000000000000 ) ) ;
#101 = CARTESIAN_POINT ( 'NONE',  ( -51.00000000000000000, 0.5999999999999999800, 0.0000000000000000000 ) ) ;
#102 = DIRECTION ( 'NONE',  ( -0.0000000000000000000, -1.000000000000000000, 0.0000000000000000000 ) ) ;
#103 = CARTESIAN_POINT ( 'NONE',  ( -51.00000000000000000, 0.0000000000000000000, 410.0000000000000000 ) ) ;
#104 = PLANE ( 'NONE',  #144 ) ;
#105 = DIRECTION ( 'NONE',  ( -0.0000000000000000000, -1.000000000000000000, 0.0000000000000000000 ) ) ;
#106 = DIRECTION ( 'NONE',  ( 0.0000000000000000000, 1.000000000000000000, 0.0000000000000000000 ) ) ;
#107 = CARTESIAN_POINT ( 'NONE',  ( 51.60000000000000100, 0.0000000000000000000, 0.0000000000000000000 ) ) ;
#108 = CARTESIAN_POINT ( 'NONE',  ( 51.60000000000000100, 0.0000000000000000000, 410.0000000000000000 ) ) ;
#109 = PLANE ( 'NONE',  #146 ) ;
#110 = PLANE ( 'NONE',  #143 ) ;
#111 = CARTESIAN_POINT ( 'NONE',  ( 51.60000000000000100, 0.5999999999999999800, 410.0000000000000000 ) ) ;
#112 = DIRECTION ( 'NONE',  ( 0.0000000000000000000, -0.0000000000000000000, 1.000000000000000000 ) ) ;
#113 = DIRECTION ( 'NONE',  ( -0.0000000000000000000, -0.0000000000000000000, -1.000000000000000000 ) ) ;
#114 = CARTESIAN_POINT ( 'NONE',  ( -51.00000000000000000, -14.00000000000000000, 410.0000000000000000 ) ) ;
#115 = PLANE ( 'NONE',  #156 ) ;
#116 = DIRECTION ( 'NONE',  ( 0.0000000000000000000, -1.000000000000000000, 0.0000000000000000000 ) ) ;
#117 = CARTESIAN_POINT ( 'NONE',  ( -51.00000000000000000, 0.0000000000000000000, 410.0000000000000000 ) ) ;
#118 = DIRECTION ( 'NONE',  ( -1.000000000000000000, 0.0000000000000000000, 0.0000000000000000000 ) ) ;
#119 = DIRECTION ( 'NONE',  ( -0.0000000000000000000, 0.0000000000000000000, -1.000000000000000000 ) ) ;
#120 = DIRECTION ( 'NONE',  ( 0.0000000000000000000, 1.000000000000000000, 0.0000000000000000000 ) ) ;
#121 = PLANE ( 'NONE',  #160 ) ;
#122 = CARTESIAN_POINT ( 'NONE',  ( -51.00000000000000000, 0.5999999999999999800, 410.0000000000000000 ) ) ;
#123 = CARTESIAN_POINT ( 'NONE',  ( 51.60000000000000100, -14.00000000000000000, 410.0000000000000000 ) ) ;
#124 = CARTESIAN_POINT ( 'NONE',  ( 0.0000000000000000000, 0.0000000000000000000, 410.0000000000000000 ) ) ;
#125 = DIRECTION ( 'NONE',  ( 0.0000000000000000000, -0.0000000000000000000, -1.000000000000000000 ) ) ;
#126 = ADVANCED_FACE ( 'NONE', ( #395 ), #109, .T. ) ;
#127 = ADVANCED_FACE ( 'NONE', ( #401, #305, #308 ), #104, .T. ) ;
#128 = ADVANCED_FACE ( 'NONE', ( #306 ), #110, .F. ) ;
#129 = ADVANCED_FACE ( 'NONE', ( #307 ), #86, .T. ) ;
#130 = ADVANCED_FACE ( 'NONE', ( #303 ), #74, .F. ) ;
#131 = ADVANCED_FACE ( 'NONE', ( #302 ), #62, .T. ) ;
#132 = ADVANCED_FACE ( 'NONE', ( #301, #298 ), #337, .F. ) ;
#133 = ADVANCED_FACE ( 'NONE', ( #304 ), #48, .T. ) ;
#134 = ADVANCED_FACE ( 'NONE', ( #300 ), #31, .T. ) ;
#135 = ADVANCED_FACE ( 'NONE', ( #299, #297 ), #295, .F. ) ;
#136 = ADVANCED_FACE ( 'NONE', ( #291 ), #121, .F. ) ;
#137 = ADVANCED_FACE ( 'NONE', ( #335, #293, #346 ), #115, .F. ) ;
#138 = AXIS2_PLACEMENT_3D ( 'NONE', #54, #59, #72 ) ;
#139 = AXIS2_PLACEMENT_3D ( 'NONE', #83, #57, #55 ) ;
#140 = AXIS2_PLACEMENT_3D ( 'NONE', #53, #39, #37 ) ;
#141 = AXIS2_PLACEMENT_3D ( 'NONE', #94, #68, #65 ) ;
#142 = AXIS2_PLACEMENT_3D ( 'NONE', #123, #78, #77 ) ;
#143 = AXIS2_PLACEMENT_3D ( 'NONE', #103, #93, #89 ) ;
#144 = AXIS2_PLACEMENT_3D ( 'NONE', #122, #106, #100 ) ;
#145 = AXIS2_PLACEMENT_3D ( 'NONE', #22, #28, #41 ) ;
#146 = AXIS2_PLACEMENT_3D ( 'NONE', #114, #116, #125 ) ;
#147 = EDGE_CURVE ( 'NONE', #312, #316, #290, .T. ) ;
#148 = EDGE_CURVE ( 'NONE', #311, #312, #294, .T. ) ;
#149 = EDGE_CURVE ( 'NONE', #311, #317, #292, .T. ) ;
#150 = EDGE_CURVE ( 'NONE', #239, #239, #289, .T. ) ;
#151 = EDGE_CURVE ( 'NONE', #241, #241, #283, .T. ) ;
#152 = EDGE_CURVE ( 'NONE', #314, #312, #285, .T. ) ;
#153 = EDGE_CURVE ( 'NONE', #319, #314, #284, .T. ) ;
#154 = AXIS2_PLACEMENT_3D ( 'NONE', #40, #38, #36 ) ;
#155 = AXIS2_PLACEMENT_3D ( 'NONE', #45, #44, #43 ) ;
#156 = AXIS2_PLACEMENT_3D ( 'NONE', #117, #120, #112 ) ;
#157 = EDGE_CURVE ( 'NONE', #319, #311, #287, .T. ) ;
#158 = AXIS2_PLACEMENT_3D ( 'NONE', #92, #91, #90 ) ;
#159 = AXIS2_PLACEMENT_3D ( 'NONE', #97, #96, #95 ) ;
#160 = AXIS2_PLACEMENT_3D ( 'NONE', #124, #119, #118 ) ;
#161 = AXIS2_PLACEMENT_3D ( 'NONE', #42, #25, #24 ) ;
#162 = EDGE_CURVE ( 'NONE', #310, #314, #279, .T. ) ;
#163 = EDGE_CURVE ( 'NONE', #323, #324, #277, .T. ) ;
#164 = EDGE_CURVE ( 'NONE', #309, #310, #280, .T. ) ;
#165 = EDGE_CURVE ( 'NONE', #309, #319, #275, .T. ) ;
#166 = EDGE_CURVE ( 'NONE', #320, #310, #271, .T. ) ;
#167 = EDGE_CURVE ( 'NONE', #322, #320, #269, .T. ) ;
#168 = EDGE_CURVE ( 'NONE', #322, #309, #273, .T. ) ;
#169 = EDGE_CURVE ( 'NONE', #320, #315, #265, .T. ) ;
#170 = EDGE_CURVE ( 'NONE', #318, #315, #263, .T. ) ;
#171 = EDGE_CURVE ( 'NONE', #321, #324, #267, .T. ) ;
#172 = EDGE_CURVE ( 'NONE', #322, #318, #261, .T. ) ;
#173 = EDGE_CURVE ( 'NONE', #237, #237, #259, .T. ) ;
#174 = EDGE_CURVE ( 'NONE', #238, #238, #254, .T. ) ;
#175 = EDGE_CURVE ( 'NONE', #315, #321, #256, .T. ) ;
#176 = EDGE_CURVE ( 'NONE', #318, #313, #255, .T. ) ;
#177 = EDGE_CURVE ( 'NONE', #313, #323, #251, .T. ) ;
#178 = EDGE_CURVE ( 'NONE', #313, #321, #250, .T. ) ;
#179 = EDGE_CURVE ( 'NONE', #316, #324, #248, .T. ) ;
#180 = EDGE_CURVE ( 'NONE', #317, #323, #246, .T. ) ;
#181 = EDGE_CURVE ( 'NONE', #317, #316, #244, .T. ) ;
#182 = CC_DESIGN_PERSON_AND_ORGANIZATION_ASSIGNMENT ( #235, #430, ( #405 ) ) ;
#183 = AXIS2_PLACEMENT_3D ( 'NONE', #3, #413, #432 ) ;
#184 = CC_DESIGN_PERSON_AND_ORGANIZATION_ASSIGNMENT ( #213, #418, ( #185 ) ) ;
#185 = SECURITY_CLASSIFICATION ( '', '', #419 ) ;
#186 = CC_DESIGN_APPROVAL ( #200, ( #194 ) ) ;
#187 = CC_DESIGN_SECURITY_CLASSIFICATION ( #185, ( #194 ) ) ;
#188 = APPROVAL ( #416, 'UNSPECIFIED' ) ;
#189 = CC_DESIGN_PERSON_AND_ORGANIZATION_ASSIGNMENT ( #214, #420, ( #194 ) ) ;
#190 = CC_DESIGN_PERSON_AND_ORGANIZATION_ASSIGNMENT ( #215, #421, ( #194 ) ) ;
#191 = PRODUCT_RELATED_PRODUCT_CATEGORY ( 'detail', '', ( #405 ) ) ;
#192 = CC_DESIGN_APPROVAL ( #188, ( #185 ) ) ;
#193 = CC_DESIGN_DATE_AND_TIME_ASSIGNMENT ( #209, #417, ( #185 ) ) ;
#194 = PRODUCT_DEFINITION_FORMATION_WITH_SPECIFIED_SOURCE ( 'ANY', '', #405, .NOT_KNOWN. ) ;
#195 = CC_DESIGN_DATE_AND_TIME_ASSIGNMENT ( #223, #424, ( #197 ) ) ;
#196 = APPROVAL ( #427, 'UNSPECIFIED' ) ;
#197 = PRODUCT_DEFINITION ( 'UNKNOWN', '', #194, #410 ) ;
#198 = CC_DESIGN_APPROVAL ( #196, ( #197 ) ) ;
#199 = CC_DESIGN_PERSON_AND_ORGANIZATION_ASSIGNMENT ( #227, #425, ( #197 ) ) ;
#200 = APPROVAL ( #423, 'UNSPECIFIED' ) ;
#201 =( GEOMETRIC_REPRESENTATION_CONTEXT ( 3 ) GLOBAL_UNCERTAINTY_ASSIGNED_CONTEXT ( ( #408 ) ) GLOBAL_UNIT_ASSIGNED_CONTEXT ( ( #437, #436, #435 ) ) REPRESENTATION_CONTEXT ( 'NONE', 'WORKASPACE' ) );
#202 = APPROVAL_DATE_TIME ( #203, #188 ) ;
#203 = DATE_AND_TIME ( #204, #205 ) ;
#204 = CALENDAR_DATE ( 2012, 9, 11 ) ;
#205 = LOCAL_TIME ( 12, 44, 19.00000000000000000, #206 ) ;
#206 = COORDINATED_UNIVERSAL_TIME_OFFSET ( 4, 0, .AHEAD. ) ;
#207 = APPROVAL_PERSON_ORGANIZATION ( #208, #188, #415 ) ;
#208 = PERSON_AND_ORGANIZATION ( #406, #236 ) ;
#209 = DATE_AND_TIME ( #210, #211 ) ;
#210 = CALENDAR_DATE ( 2012, 9, 11 ) ;
#211 = LOCAL_TIME ( 12, 44, 19.00000000000000000, #212 ) ;
#212 = COORDINATED_UNIVERSAL_TIME_OFFSET ( 4, 0, .AHEAD. ) ;
#213 = PERSON_AND_ORGANIZATION ( #406, #236 ) ;
#214 = PERSON_AND_ORGANIZATION ( #406, #236 ) ;
#215 = PERSON_AND_ORGANIZATION ( #406, #236 ) ;
#216 = APPROVAL_DATE_TIME ( #217, #200 ) ;
#217 = DATE_AND_TIME ( #218, #219 ) ;
#218 = CALENDAR_DATE ( 2012, 9, 11 ) ;
#219 = LOCAL_TIME ( 12, 44, 19.00000000000000000, #220 ) ;
#220 = COORDINATED_UNIVERSAL_TIME_OFFSET ( 4, 0, .AHEAD. ) ;
#221 = APPROVAL_PERSON_ORGANIZATION ( #222, #200, #422 ) ;
#222 = PERSON_AND_ORGANIZATION ( #406, #236 ) ;
#223 = DATE_AND_TIME ( #224, #225 ) ;
#224 = CALENDAR_DATE ( 2012, 9, 11 ) ;
#225 = LOCAL_TIME ( 12, 44, 19.00000000000000000, #226 ) ;
#226 = COORDINATED_UNIVERSAL_TIME_OFFSET ( 4, 0, .AHEAD. ) ;
#227 = PERSON_AND_ORGANIZATION ( #406, #236 ) ;
#228 = APPROVAL_DATE_TIME ( #229, #196 ) ;
#229 = DATE_AND_TIME ( #230, #231 ) ;
#230 = CALENDAR_DATE ( 2012, 9, 11 ) ;
#231 = LOCAL_TIME ( 12, 44, 19.00000000000000000, #232 ) ;
#232 = COORDINATED_UNIVERSAL_TIME_OFFSET ( 4, 0, .AHEAD. ) ;
#233 = APPROVAL_PERSON_ORGANIZATION ( #234, #196, #426 ) ;
#234 = PERSON_AND_ORGANIZATION ( #406, #236 ) ;
#235 = PERSON_AND_ORGANIZATION ( #406, #236 ) ;
#236 = ORGANIZATION ( 'UNSPECIFIED', 'UNSPECIFIED', '' ) ;
#237 = VERTEX_POINT ( 'NONE', #414 ) ;
#238 = VERTEX_POINT ( 'NONE', #1 ) ;
#239 = VERTEX_POINT ( 'NONE', #412 ) ;
#240 = SHAPE_DEFINITION_REPRESENTATION ( #411, #409 ) ;
#241 = VERTEX_POINT ( 'NONE', #2 ) ;
#242 = VECTOR ( 'NONE', #17, 1000.000000000000000 ) ;
#243 = VECTOR ( 'NONE', #20, 1000.000000000000000 ) ;
#244 = LINE ( 'NONE', #19, #242 ) ;
#245 = VECTOR ( 'NONE', #23, 1000.000000000000000 ) ;
#246 = LINE ( 'NONE', #21, #243 ) ;
#247 = VECTOR ( 'NONE', #27, 1000.000000000000000 ) ;
#248 = LINE ( 'NONE', #26, #245 ) ;
#249 = VECTOR ( 'NONE', #30, 1000.000000000000000 ) ;
#250 = LINE ( 'NONE', #29, #247 ) ;
#251 = LINE ( 'NONE', #32, #249 ) ;
#252 = VECTOR ( 'NONE', #35, 1000.000000000000000 ) ;
#253 = VECTOR ( 'NONE', #33, 1000.000000000000000 ) ;
#254 = CIRCLE ( 'NONE', #154, 2.500000000000002200 ) ;
#255 = LINE ( 'NONE', #47, #253 ) ;
#256 = LINE ( 'NONE', #49, #252 ) ;
#257 = VECTOR ( 'NONE', #50, 1000.000000000000000 ) ;
#258 = VECTOR ( 'NONE', #51, 1000.000000000000000 ) ;
#259 = CIRCLE ( 'NONE', #155, 2.500000000000002200 ) ;
#260 = VECTOR ( 'NONE', #52, 1000.000000000000000 ) ;
#261 = LINE ( 'NONE', #64, #257 ) ;
#262 = VECTOR ( 'NONE', #58, 1000.000000000000000 ) ;
#263 = LINE ( 'NONE', #56, #260 ) ;
#264 = VECTOR ( 'NONE', #61, 1000.000000000000000 ) ;
#265 = LINE ( 'NONE', #60, #262 ) ;
#266 = VECTOR ( 'NONE', #63, 1000.000000000000000 ) ;
#267 = LINE ( 'NONE', #71, #258 ) ;
#268 = VECTOR ( 'NONE', #67, 1000.000000000000000 ) ;
#269 = LINE ( 'NONE', #66, #266 ) ;
#270 = VECTOR ( 'NONE', #70, 1000.000000000000000 ) ;
#271 = LINE ( 'NONE', #69, #268 ) ;
#272 = VECTOR ( 'NONE', #73, 1000.000000000000000 ) ;
#273 = LINE ( 'NONE', #76, #264 ) ;
#274 = VECTOR ( 'NONE', #75, 1000.000000000000000 ) ;
#275 = LINE ( 'NONE', #85, #270 ) ;
#276 = VECTOR ( 'NONE', #80, 1000.000000000000000 ) ;
#277 = LINE ( 'NONE', #79, #274 ) ;
#278 = VECTOR ( 'NONE', #82, 1000.000000000000000 ) ;
#279 = LINE ( 'NONE', #81, #276 ) ;
#280 = LINE ( 'NONE', #98, #272 ) ;
#281 = VECTOR ( 'NONE', #88, 1000.000000000000000 ) ;
#282 = VECTOR ( 'NONE', #84, 1000.000000000000000 ) ;
#283 = CIRCLE ( 'NONE', #158, 2.500000000000002200 ) ;
#284 = LINE ( 'NONE', #99, #282 ) ;
#285 = LINE ( 'NONE', #101, #281 ) ;
#286 = VECTOR ( 'NONE', #102, 1000.000000000000000 ) ;
#287 = LINE ( 'NONE', #87, #278 ) ;
#288 = VECTOR ( 'NONE', #113, 1000.000000000000000 ) ;
#289 = CIRCLE ( 'NONE', #159, 2.500000000000002200 ) ;
#290 = LINE ( 'NONE', #107, #296 ) ;
#291 = FACE_OUTER_BOUND ( 'NONE', #393, .T. ) ;
#292 = LINE ( 'NONE', #108, #286 ) ;
#293 = FACE_BOUND ( 'NONE', #397, .T. ) ;
#294 = LINE ( 'NONE', #111, #288 ) ;
#295 = CYLINDRICAL_SURFACE ( 'NONE', #145, 2.500000000000002200 ) ;
#296 = VECTOR ( 'NONE', #105, 1000.000000000000000 ) ;
#297 = FACE_OUTER_BOUND ( 'NONE', #404, .T. ) ;
#298 = FACE_OUTER_BOUND ( 'NONE', #330, .T. ) ;
#299 = FACE_OUTER_BOUND ( 'NONE', #398, .T. ) ;
#300 = FACE_OUTER_BOUND ( 'NONE', #340, .T. ) ;
#301 = FACE_OUTER_BOUND ( 'NONE', #396, .T. ) ;
#302 = FACE_OUTER_BOUND ( 'NONE', #388, .T. ) ;
#303 = FACE_OUTER_BOUND ( 'NONE', #392, .T. ) ;
#304 = FACE_OUTER_BOUND ( 'NONE', #389, .T. ) ;
#305 = FACE_BOUND ( 'NONE', #387, .T. ) ;
#306 = FACE_OUTER_BOUND ( 'NONE', #394, .T. ) ;
#307 = FACE_OUTER_BOUND ( 'NONE', #390, .T. ) ;
#308 = FACE_OUTER_BOUND ( 'NONE', #402, .T. ) ;
#309 = VERTEX_POINT ( 'NONE', #46 ) ;
#310 = VERTEX_POINT ( 'NONE', #18 ) ;
#311 = VERTEX_POINT ( 'NONE', #15 ) ;
#312 = VERTEX_POINT ( 'NONE', #14 ) ;
#313 = VERTEX_POINT ( 'NONE', #13 ) ;
#314 = VERTEX_POINT ( 'NONE', #16 ) ;
#315 = VERTEX_POINT ( 'NONE', #12 ) ;
#316 = VERTEX_POINT ( 'NONE', #34 ) ;
#317 = VERTEX_POINT ( 'NONE', #11 ) ;
#318 = VERTEX_POINT ( 'NONE', #10 ) ;
#319 = VERTEX_POINT ( 'NONE', #9 ) ;
#320 = VERTEX_POINT ( 'NONE', #8 ) ;
#321 = VERTEX_POINT ( 'NONE', #7 ) ;
#322 = VERTEX_POINT ( 'NONE', #6 ) ;
#323 = VERTEX_POINT ( 'NONE', #5 ) ;
#324 = VERTEX_POINT ( 'NONE', #4 ) ;
#325 = ORIENTED_EDGE ( 'NONE', *, *, #174, .T. ) ;
#326 = ORIENTED_EDGE ( 'NONE', *, *, #151, .T. ) ;
#327 = ORIENTED_EDGE ( 'NONE', *, *, #179, .T. ) ;
#328 = ORIENTED_EDGE ( 'NONE', *, *, #147, .T. ) ;
#329 = CLOSED_SHELL ( 'NONE', ( #130, #129, #131, #127, #133, #126, #128, #137, #136, #134, #135, #132 ) ) ;
#330 = EDGE_LOOP ( 'NONE', ( #331 ) ) ;
#331 = ORIENTED_EDGE ( 'NONE', *, *, #173, .T. ) ;
#332 = ORIENTED_EDGE ( 'NONE', *, *, #150, .T. ) ;
#333 = ORIENTED_EDGE ( 'NONE', *, *, #171, .T. ) ;
#334 = ORIENTED_EDGE ( 'NONE', *, *, #177, .F. ) ;
#335 = FACE_BOUND ( 'NONE', #403, .T. ) ;
#336 = ORIENTED_EDGE ( 'NONE', *, *, #163, .F. ) ;
#337 = CYLINDRICAL_SURFACE ( 'NONE', #138, 2.500000000000002200 ) ;
#338 = ORIENTED_EDGE ( 'NONE', *, *, #181, .F. ) ;
#339 = ORIENTED_EDGE ( 'NONE', *, *, #163, .T. ) ;
#340 = EDGE_LOOP ( 'NONE', ( #379, #377, #376, #378, #386, #385, #328, #327 ) ) ;
#341 = ORIENTED_EDGE ( 'NONE', *, *, #180, .T. ) ;
#342 = ORIENTED_EDGE ( 'NONE', *, *, #148, .F. ) ;
#343 = ORIENTED_EDGE ( 'NONE', *, *, #147, .F. ) ;
#344 = ORIENTED_EDGE ( 'NONE', *, *, #181, .T. ) ;
#345 = ORIENTED_EDGE ( 'NONE', *, *, #149, .T. ) ;
#346 = FACE_OUTER_BOUND ( 'NONE', #400, .T. ) ;
#347 = ORIENTED_EDGE ( 'NONE', *, *, #179, .F. ) ;
#348 = ORIENTED_EDGE ( 'NONE', *, *, #178, .T. ) ;
#349 = ORIENTED_EDGE ( 'NONE', *, *, #151, .F. ) ;
#350 = ORIENTED_EDGE ( 'NONE', *, *, #152, .F. ) ;
#351 = ORIENTED_EDGE ( 'NONE', *, *, #157, .T. ) ;
#352 = ORIENTED_EDGE ( 'NONE', *, *, #162, .F. ) ;
#353 = ORIENTED_EDGE ( 'NONE', *, *, #148, .T. ) ;
#354 = ORIENTED_EDGE ( 'NONE', *, *, #150, .F. ) ;
#355 = ORIENTED_EDGE ( 'NONE', *, *, #153, .F. ) ;
#356 = ORIENTED_EDGE ( 'NONE', *, *, #165, .T. ) ;
#357 = ORIENTED_EDGE ( 'NONE', *, *, #153, .T. ) ;
#358 = ORIENTED_EDGE ( 'NONE', *, *, #167, .F. ) ;
#359 = ORIENTED_EDGE ( 'NONE', *, *, #164, .F. ) ;
#360 = ORIENTED_EDGE ( 'NONE', *, *, #166, .F. ) ;
#361 = ORIENTED_EDGE ( 'NONE', *, *, #164, .T. ) ;
#362 = ORIENTED_EDGE ( 'NONE', *, *, #168, .T. ) ;
#363 = ORIENTED_EDGE ( 'NONE', *, *, #169, .T. ) ;
#364 = ORIENTED_EDGE ( 'NONE', *, *, #176, .F. ) ;
#365 = ORIENTED_EDGE ( 'NONE', *, *, #178, .F. ) ;
#366 = ORIENTED_EDGE ( 'NONE', *, *, #170, .T. ) ;
#367 = ORIENTED_EDGE ( 'NONE', *, *, #175, .T. ) ;
#368 = ORIENTED_EDGE ( 'NONE', *, *, #174, .F. ) ;
#369 = ORIENTED_EDGE ( 'NONE', *, *, #173, .F. ) ;
#370 = ORIENTED_EDGE ( 'NONE', *, *, #167, .T. ) ;
#371 = ORIENTED_EDGE ( 'NONE', *, *, #172, .F. ) ;
#372 = ORIENTED_EDGE ( 'NONE', *, *, #170, .F. ) ;
#373 = ORIENTED_EDGE ( 'NONE', *, *, #180, .F. ) ;
#374 = ORIENTED_EDGE ( 'NONE', *, *, #177, .T. ) ;
#375 = ORIENTED_EDGE ( 'NONE', *, *, #149, .F. ) ;
#376 = ORIENTED_EDGE ( 'NONE', *, *, #169, .F. ) ;
#377 = ORIENTED_EDGE ( 'NONE', *, *, #175, .F. ) ;
#378 = ORIENTED_EDGE ( 'NONE', *, *, #166, .T. ) ;
#379 = ORIENTED_EDGE ( 'NONE', *, *, #171, .F. ) ;
#380 = ORIENTED_EDGE ( 'NONE', *, *, #176, .T. ) ;
#381 = ORIENTED_EDGE ( 'NONE', *, *, #172, .T. ) ;
#382 = ORIENTED_EDGE ( 'NONE', *, *, #168, .F. ) ;
#383 = ORIENTED_EDGE ( 'NONE', *, *, #165, .F. ) ;
#384 = ORIENTED_EDGE ( 'NONE', *, *, #157, .F. ) ;
#385 = ORIENTED_EDGE ( 'NONE', *, *, #152, .T. ) ;
#386 = ORIENTED_EDGE ( 'NONE', *, *, #162, .T. ) ;
#387 = EDGE_LOOP ( 'NONE', ( #349 ) ) ;
#388 = EDGE_LOOP ( 'NONE', ( #343, #342, #345, #344 ) ) ;
#389 = EDGE_LOOP ( 'NONE', ( #352, #359, #356, #357 ) ) ;
#390 = EDGE_LOOP ( 'NONE', ( #347, #338, #341, #339 ) ) ;
#391 = EDGE_LOOP ( 'NONE', ( #354 ) ) ;
#392 = EDGE_LOOP ( 'NONE', ( #333, #336, #334, #348 ) ) ;
#393 = EDGE_LOOP ( 'NONE', ( #374, #373, #375, #384, #383, #382, #381, #380 ) ) ;
#394 = EDGE_LOOP ( 'NONE', ( #363, #372, #371, #370 ) ) ;
#395 = FACE_OUTER_BOUND ( 'NONE', #399, .T. ) ;
#396 = EDGE_LOOP ( 'NONE', ( #332 ) ) ;
#397 = EDGE_LOOP ( 'NONE', ( #368 ) ) ;
#398 = EDGE_LOOP ( 'NONE', ( #326 ) ) ;
#399 = EDGE_LOOP ( 'NONE', ( #360, #358, #362, #361 ) ) ;
#400 = EDGE_LOOP ( 'NONE', ( #367, #365, #364, #366 ) ) ;
#401 = FACE_BOUND ( 'NONE', #391, .T. ) ;
#402 = EDGE_LOOP ( 'NONE', ( #350, #355, #351, #353 ) ) ;
#403 = EDGE_LOOP ( 'NONE', ( #369 ) ) ;
#404 = EDGE_LOOP ( 'NONE', ( #325 ) ) ;
#405 = PRODUCT ( 'Êðûøêà íà îòâåòâèòåëü Ò-îáðàçíûé âåðòèêàëüíûé TDSA_38385', 'Êðûøêà íà îòâåòâèòåëü Ò-îáðàçíûé âåðòèêàëüíûé TDSA_38385', '', ( #431 ) ) ;
#406 = PERSON ( 'UNSPECIFIED', 'UNSPECIFIED', 'UNSPECIFIED', ('UNSPECIFIED'), ('UNSPECIFIED'), ('UNSPECIFIED') ) ;
#407 = MANIFOLD_SOLID_BREP ( 'Âûðåç-Âûòÿíóòü1', #329 ) ;
#408 = UNCERTAINTY_MEASURE_WITH_UNIT (LENGTH_MEASURE( 1.000000000000000100E-005 ), #437, 'distance_accuracy_value', 'NONE');
#409 = ADVANCED_BREP_SHAPE_REPRESENTATION ( '¦¨v°úð ýð þªòõªòøªõû¹ T-þñ¨ð÷ývù òõ¨ªøúðû¹ývù TDSA_38385', ( #407, #183 ), #201 ) ;
#410 = DESIGN_CONTEXT ( 'detailed design', #429, 'design' ) ;
#411 = PRODUCT_DEFINITION_SHAPE ( 'NONE', 'NONE',  #197 ) ;
#412 = CARTESIAN_POINT ( 'NONE',  ( -8.162383766162930900E-016, 0.5999999999999999800, 392.5000000000000000 ) ) ;
#413 = DIRECTION ( 'NONE',  ( 0.0000000000000000000, 0.0000000000000000000, 1.000000000000000000 ) ) ;
#414 = CARTESIAN_POINT ( 'NONE',  ( -8.162383766162930900E-016, 0.0000000000000000000, 397.5000000000000000 ) ) ;
#415 = APPROVAL_ROLE ( '' ) ;
#416 = APPROVAL_STATUS ( 'not_yet_approved' ) ;
#417 = DATE_TIME_ROLE ( 'classification_date' ) ;
#418 = PERSON_AND_ORGANIZATION_ROLE ( 'classification_officer' ) ;
#419 = SECURITY_CLASSIFICATION_LEVEL ( 'unclassified' ) ;
#420 = PERSON_AND_ORGANIZATION_ROLE ( 'design_supplier' ) ;
#421 = PERSON_AND_ORGANIZATION_ROLE ( 'creator' ) ;
#422 = APPROVAL_ROLE ( '' ) ;
#423 = APPROVAL_STATUS ( 'not_yet_approved' ) ;
#424 = DATE_TIME_ROLE ( 'creation_date' ) ;
#425 = PERSON_AND_ORGANIZATION_ROLE ( 'creator' ) ;
#426 = APPROVAL_ROLE ( '' ) ;
#427 = APPROVAL_STATUS ( 'not_yet_approved' ) ;
#428 = APPLICATION_PROTOCOL_DEFINITION ( 'international standard', 'config_control_design', 1994, #429 ) ;
#429 = APPLICATION_CONTEXT ( 'configuration controlled 3d designs of mechanical parts and assemblies' ) ;
#430 = PERSON_AND_ORGANIZATION_ROLE ( 'design_owner' ) ;
#431 = MECHANICAL_CONTEXT ( 'NONE', #433, 'mechanical' ) ;
#432 = DIRECTION ( 'NONE',  ( 1.000000000000000000, 0.0000000000000000000, 0.0000000000000000000 ) ) ;
#433 = APPLICATION_CONTEXT ( 'configuration controlled 3d designs of mechanical parts and assemblies' ) ;
#434 = APPLICATION_PROTOCOL_DEFINITION ( 'international standard', 'config_control_design', 1994, #433 ) ;
#435 =( NAMED_UNIT ( * ) SI_UNIT ( $, .STERADIAN. ) SOLID_ANGLE_UNIT ( ) );
#436 =( NAMED_UNIT ( * ) PLANE_ANGLE_UNIT ( ) SI_UNIT ( $, .RADIAN. ) );
#437 =( LENGTH_UNIT ( ) NAMED_UNIT ( * ) SI_UNIT ( .MILLI., .METRE. ) );
ENDSEC;
END-ISO-10303-21;
