ISO-10303-21;
HEADER;
FILE_DESCRIPTION (( 'STEP AP203' ),
    '1' );
FILE_NAME ('Êðûøêà íà óãîë âåðòèêàëüíûé âíåøíèé CDSD 90_38286.STEP',
    '2012-11-09T08:45:06',
    ( 'Àñååâ' ),
    ( '' ),
    'SwSTEP 2.0',
    'SolidWorks 2012',
    '' );
FILE_SCHEMA (( 'CONFIG_CONTROL_DESIGN' ));
ENDSEC;

DATA;
#1 = SECURITY_CLASSIFICATION_LEVEL ( 'unclassified' ) ;
#2 = DATE_TIME_ROLE ( 'classification_date' ) ;
#3 = APPROVAL_ROLE ( '' ) ;
#4 = APPROVAL_STATUS ( 'not_yet_approved' ) ;
#5 = PERSON_AND_ORGANIZATION_ROLE ( 'classification_officer' ) ;
#6 = PERSON_AND_ORGANIZATION_ROLE ( 'design_supplier' ) ;
#7 = PERSON_AND_ORGANIZATION_ROLE ( 'creator' ) ;
#8 = APPROVAL_STATUS ( 'not_yet_approved' ) ;
#9 = DATE_TIME_ROLE ( 'creation_date' ) ;
#10 = PERSON_AND_ORGANIZATION_ROLE ( 'creator' ) ;
#11 = APPROVAL_ROLE ( '' ) ;
#12 =( NAMED_UNIT ( * ) SI_UNIT ( $, .STERADIAN. ) SOLID_ANGLE_UNIT ( ) );
#13 = CARTESIAN_POINT ( 'NONE',  ( 0.0000000000000000000, 0.0000000000000000000, 0.0000000000000000000 ) ) ;
#14 = CARTESIAN_POINT ( 'NONE',  ( 1.734723475976807100E-015, 0.8000000000000000400, 17.49999999999999600 ) ) ;
#15 = CARTESIAN_POINT ( 'NONE',  ( 0.0000000000000000000, 0.8000000000000000400, 513.5000000000000000 ) ) ;
#16 =( LENGTH_UNIT ( ) NAMED_UNIT ( * ) SI_UNIT ( .MILLI., .METRE. ) );
#17 = DIRECTION ( 'NONE',  ( 0.0000000000000000000, 0.0000000000000000000, 1.000000000000000000 ) ) ;
#18 = CARTESIAN_POINT ( 'NONE',  ( 0.0000000000000000000, 0.0000000000000000000, 0.0000000000000000000 ) ) ;
#19 = CARTESIAN_POINT ( 'NONE',  ( 0.0000000000000000000, 0.0000000000000000000, 518.5000000000001100 ) ) ;
#20 =( NAMED_UNIT ( * ) PLANE_ANGLE_UNIT ( ) SI_UNIT ( $, .RADIAN. ) );
#21 = PLANE ( 'NONE',  #318 ) ;
#22 = CARTESIAN_POINT ( 'NONE',  ( 1.734723475976807100E-015, 0.0000000000000000000, 17.49999999999999600 ) ) ;
#23 = DIRECTION ( 'NONE',  ( -0.0000000000000000000, 0.0000000000000000000, -1.000000000000000000 ) ) ;
#24 = DIRECTION ( 'NONE',  ( -1.000000000000000000, 0.0000000000000000000, 0.0000000000000000000 ) ) ;
#25 = APPLICATION_CONTEXT ( 'configuration controlled 3d designs of mechanical parts and assemblies' ) ;
#26 = APPLICATION_PROTOCOL_DEFINITION ( 'international standard', 'config_control_design', 1994, #25 ) ;
#27 = DIRECTION ( 'NONE',  ( 1.000000000000000000, 0.0000000000000000000, 0.0000000000000000000 ) ) ;
#28 = MECHANICAL_CONTEXT ( 'NONE', #25, 'mechanical' ) ;
#29 = PERSON_AND_ORGANIZATION_ROLE ( 'design_owner' ) ;
#30 = APPLICATION_CONTEXT ( 'configuration controlled 3d designs of mechanical parts and assemblies' ) ;
#31 = APPLICATION_PROTOCOL_DEFINITION ( 'international standard', 'config_control_design', 1994, #30 ) ;
#32 = APPROVAL_STATUS ( 'not_yet_approved' ) ;
#33 = APPROVAL_ROLE ( '' ) ;
#34 = PRODUCT ( 'Êðûøêà íà óãîë âåðòèêàëüíûé âíåøíèé CDSD 90_38286', 'Êðûøêà íà óãîë âåðòèêàëüíûé âíåøíèé CDSD 90_38286', '', ( #28 ) ) ;
#35 = PERSON ( 'UNSPECIFIED', 'UNSPECIFIED', 'UNSPECIFIED', ('UNSPECIFIED'), ('UNSPECIFIED'), ('UNSPECIFIED') ) ;
#36 = CALENDAR_DATE ( 2012, 9, 11 ) ;
#37 = LOCAL_TIME ( 12, 45, 6.000000000000000000, #41 ) ;
#38 = LOCAL_TIME ( 12, 45, 6.000000000000000000, #39 ) ;
#39 = COORDINATED_UNIVERSAL_TIME_OFFSET ( 4, 0, .AHEAD. ) ;
#40 = APPROVAL_PERSON_ORGANIZATION ( #44, #346, #33 ) ;
#41 = COORDINATED_UNIVERSAL_TIME_OFFSET ( 4, 0, .AHEAD. ) ;
#42 = PERSON_AND_ORGANIZATION ( #35, #81 ) ;
#43 = APPROVAL_PERSON_ORGANIZATION ( #42, #345, #3 ) ;
#44 = PERSON_AND_ORGANIZATION ( #35, #81 ) ;
#45 = DATE_AND_TIME ( #46, #57 ) ;
#46 = CALENDAR_DATE ( 2012, 9, 11 ) ;
#47 = LINE ( 'NONE', #400, #146 ) ;
#48 = VECTOR ( 'NONE', #398, 1000.000000000000000 ) ;
#49 = LINE ( 'NONE', #397, #188 ) ;
#50 = LINE ( 'NONE', #409, #148 ) ;
#51 = VECTOR ( 'NONE', #402, 1000.000000000000000 ) ;
#52 = VECTOR ( 'NONE', #399, 1000.000000000000000 ) ;
#53 = CIRCLE ( 'NONE', #269, 2.500000000000002200 ) ;
#54 = LINE ( 'NONE', #410, #52 ) ;
#55 = LINE ( 'NONE', #412, #51 ) ;
#56 = VECTOR ( 'NONE', #411, 1000.000000000000000 ) ;
#57 = LOCAL_TIME ( 12, 45, 6.000000000000000000, #58 ) ;
#58 = COORDINATED_UNIVERSAL_TIME_OFFSET ( 4, 0, .AHEAD. ) ;
#59 = PERSON_AND_ORGANIZATION ( #35, #81 ) ;
#60 = CIRCLE ( 'NONE', #271, 2.500000000000057700 ) ;
#61 = APPROVAL_DATE_TIME ( #67, #335 ) ;
#62 = LINE ( 'NONE', #415, #56 ) ;
#63 = VECTOR ( 'NONE', #414, 1000.000000000000000 ) ;
#64 = LINE ( 'NONE', #401, #48 ) ;
#65 = VECTOR ( 'NONE', #413, 1000.000000000000000 ) ;
#66 = VECTOR ( 'NONE', #416, 1000.000000000000000 ) ;
#67 = DATE_AND_TIME ( #70, #74 ) ;
#68 = LINE ( 'NONE', #418, #71 ) ;
#69 = LINE ( 'NONE', #420, #63 ) ;
#70 = CALENDAR_DATE ( 2012, 9, 11 ) ;
#71 = VECTOR ( 'NONE', #417, 1000.000000000000000 ) ;
#72 = LINE ( 'NONE', #419, #65 ) ;
#73 = EDGE_LOOP ( 'NONE', ( #160, #161, #162, #163 ) ) ;
#74 = LOCAL_TIME ( 12, 45, 6.000000000000000000, #75 ) ;
#75 = COORDINATED_UNIVERSAL_TIME_OFFSET ( 4, 0, .AHEAD. ) ;
#76 = APPROVAL_PERSON_ORGANIZATION ( #78, #335, #11 ) ;
#77 = EDGE_LOOP ( 'NONE', ( #164 ) ) ;
#78 = PERSON_AND_ORGANIZATION ( #35, #81 ) ;
#79 = PERSON_AND_ORGANIZATION ( #35, #81 ) ;
#80 = EDGE_LOOP ( 'NONE', ( #189, #190, #191, #192, #193, #194, #195, #196 ) ) ;
#81 = ORGANIZATION ( 'UNSPECIFIED', 'UNSPECIFIED', '' ) ;
#82 = EDGE_LOOP ( 'NONE', ( #156, #157, #158, #159 ) ) ;
#83 = EDGE_LOOP ( 'NONE', ( #165 ) ) ;
#84 = EDGE_LOOP ( 'NONE', ( #178, #179, #180, #181 ) ) ;
#85 = EDGE_LOOP ( 'NONE', ( #182 ) ) ;
#86 = EDGE_LOOP ( 'NONE', ( #166, #167, #168, #169 ) ) ;
#87 = EDGE_LOOP ( 'NONE', ( #174, #175, #176, #177 ) ) ;
#88 = EDGE_LOOP ( 'NONE', ( #183 ) ) ;
#89 = EDGE_LOOP ( 'NONE', ( #207 ) ) ;
#90 = EDGE_LOOP ( 'NONE', ( #184, #185, #186, #187 ) ) ;
#91 = EDGE_LOOP ( 'NONE', ( #197, #198, #199, #200, #201, #202, #203, #204 ) ) ;
#92 = EDGE_LOOP ( 'NONE', ( #208 ) ) ;
#93 = DATE_AND_TIME ( #36, #38 ) ;
#94 = VERTEX_POINT ( 'NONE', #22 ) ;
#95 = EDGE_LOOP ( 'NONE', ( #205 ) ) ;
#96 = VERTEX_POINT ( 'NONE', #19 ) ;
#97 = VERTEX_POINT ( 'NONE', #14 ) ;
#98 = CYLINDRICAL_SURFACE ( 'NONE', #270, 2.500000000000002200 ) ;
#99 = SHAPE_DEFINITION_REPRESENTATION ( #364, #240 ) ;
#100 = FACE_OUTER_BOUND ( 'NONE', #150, .T. ) ;
#101 = VERTEX_POINT ( 'NONE', #15 ) ;
#102 = FACE_OUTER_BOUND ( 'NONE', #95, .T. ) ;
#103 = CYLINDRICAL_SURFACE ( 'NONE', #338, 2.500000000000057700 ) ;
#104 = FACE_OUTER_BOUND ( 'NONE', #91, .T. ) ;
#105 = FACE_OUTER_BOUND ( 'NONE', #92, .T. ) ;
#106 = FACE_OUTER_BOUND ( 'NONE', #151, .T. ) ;
#107 = FACE_OUTER_BOUND ( 'NONE', #80, .T. ) ;
#108 = FACE_OUTER_BOUND ( 'NONE', #82, .T. ) ;
#109 = FACE_BOUND ( 'NONE', #83, .T. ) ;
#110 = FACE_OUTER_BOUND ( 'NONE', #73, .T. ) ;
#111 = FACE_OUTER_BOUND ( 'NONE', #86, .T. ) ;
#112 = FACE_BOUND ( 'NONE', #77, .T. ) ;
#113 = FACE_OUTER_BOUND ( 'NONE', #219, .T. ) ;
#114 = FACE_OUTER_BOUND ( 'NONE', #89, .T. ) ;
#115 = FACE_OUTER_BOUND ( 'NONE', #87, .T. ) ;
#116 = FACE_BOUND ( 'NONE', #85, .T. ) ;
#117 = FACE_OUTER_BOUND ( 'NONE', #84, .T. ) ;
#118 = VECTOR ( 'NONE', #264, 1000.000000000000000 ) ;
#119 = FACE_OUTER_BOUND ( 'NONE', #90, .T. ) ;
#120 = VECTOR ( 'NONE', #267, 1000.000000000000000 ) ;
#121 = LINE ( 'NONE', #266, #118 ) ;
#122 = VECTOR ( 'NONE', #268, 1000.000000000000000 ) ;
#123 = LINE ( 'NONE', #282, #120 ) ;
#124 = LINE ( 'NONE', #366, #122 ) ;
#125 = VECTOR ( 'NONE', #368, 1000.000000000000000 ) ;
#126 = VECTOR ( 'NONE', #367, 1000.000000000000000 ) ;
#127 = CIRCLE ( 'NONE', #250, 2.500000000000002200 ) ;
#128 = LINE ( 'NONE', #376, #126 ) ;
#129 = LINE ( 'NONE', #379, #125 ) ;
#130 = VECTOR ( 'NONE', #377, 1000.000000000000000 ) ;
#131 = CIRCLE ( 'NONE', #252, 2.500000000000057700 ) ;
#132 = VECTOR ( 'NONE', #378, 1000.000000000000000 ) ;
#133 = FACE_BOUND ( 'NONE', #88, .T. ) ;
#134 = VECTOR ( 'NONE', #381, 1000.000000000000000 ) ;
#135 = LINE ( 'NONE', #380, #132 ) ;
#136 = VECTOR ( 'NONE', #383, 1000.000000000000000 ) ;
#137 = LINE ( 'NONE', #382, #134 ) ;
#138 = VECTOR ( 'NONE', #384, 1000.000000000000000 ) ;
#139 = LINE ( 'NONE', #390, #130 ) ;
#140 = VECTOR ( 'NONE', #386, 1000.000000000000000 ) ;
#141 = LINE ( 'NONE', #385, #138 ) ;
#142 = VECTOR ( 'NONE', #388, 1000.000000000000000 ) ;
#143 = LINE ( 'NONE', #387, #140 ) ;
#144 = VECTOR ( 'NONE', #389, 1000.000000000000000 ) ;
#145 = LINE ( 'NONE', #393, #136 ) ;
#146 = VECTOR ( 'NONE', #392, 1000.000000000000000 ) ;
#147 = LINE ( 'NONE', #391, #144 ) ;
#148 = VECTOR ( 'NONE', #394, 1000.000000000000000 ) ;
#149 = LINE ( 'NONE', #396, #142 ) ;
#150 = EDGE_LOOP ( 'NONE', ( #206 ) ) ;
#151 = EDGE_LOOP ( 'NONE', ( #152, #154, #153, #155 ) ) ;
#152 = ORIENTED_EDGE ( 'NONE', *, *, #313, .T. ) ;
#153 = ORIENTED_EDGE ( 'NONE', *, *, #314, .F. ) ;
#154 = ORIENTED_EDGE ( 'NONE', *, *, #331, .F. ) ;
#155 = ORIENTED_EDGE ( 'NONE', *, *, #330, .T. ) ;
#156 = ORIENTED_EDGE ( 'NONE', *, *, #329, .F. ) ;
#157 = ORIENTED_EDGE ( 'NONE', *, *, #272, .F. ) ;
#158 = ORIENTED_EDGE ( 'NONE', *, *, #302, .T. ) ;
#159 = ORIENTED_EDGE ( 'NONE', *, *, #331, .T. ) ;
#160 = ORIENTED_EDGE ( 'NONE', *, *, #304, .F. ) ;
#161 = ORIENTED_EDGE ( 'NONE', *, *, #305, .F. ) ;
#162 = ORIENTED_EDGE ( 'NONE', *, *, #307, .T. ) ;
#163 = ORIENTED_EDGE ( 'NONE', *, *, #272, .T. ) ;
#164 = ORIENTED_EDGE ( 'NONE', *, *, #308, .F. ) ;
#165 = ORIENTED_EDGE ( 'NONE', *, *, #309, .F. ) ;
#166 = ORIENTED_EDGE ( 'NONE', *, *, #310, .F. ) ;
#167 = ORIENTED_EDGE ( 'NONE', *, *, #311, .F. ) ;
#168 = ORIENTED_EDGE ( 'NONE', *, *, #312, .T. ) ;
#169 = ORIENTED_EDGE ( 'NONE', *, *, #305, .T. ) ;
#170 = ORIENTED_EDGE ( 'NONE', *, *, #315, .F. ) ;
#171 = ORIENTED_EDGE ( 'NONE', *, *, #316, .F. ) ;
#172 = ORIENTED_EDGE ( 'NONE', *, *, #317, .T. ) ;
#173 = ORIENTED_EDGE ( 'NONE', *, *, #311, .T. ) ;
#174 = ORIENTED_EDGE ( 'NONE', *, *, #319, .F. ) ;
#175 = ORIENTED_EDGE ( 'NONE', *, *, #320, .F. ) ;
#176 = ORIENTED_EDGE ( 'NONE', *, *, #321, .T. ) ;
#177 = ORIENTED_EDGE ( 'NONE', *, *, #316, .T. ) ;
#178 = ORIENTED_EDGE ( 'NONE', *, *, #322, .T. ) ;
#179 = ORIENTED_EDGE ( 'NONE', *, *, #323, .F. ) ;
#180 = ORIENTED_EDGE ( 'NONE', *, *, #324, .F. ) ;
#181 = ORIENTED_EDGE ( 'NONE', *, *, #320, .T. ) ;
#182 = ORIENTED_EDGE ( 'NONE', *, *, #325, .F. ) ;
#183 = ORIENTED_EDGE ( 'NONE', *, *, #326, .F. ) ;
#184 = ORIENTED_EDGE ( 'NONE', *, *, #327, .T. ) ;
#185 = ORIENTED_EDGE ( 'NONE', *, *, #330, .F. ) ;
#186 = ORIENTED_EDGE ( 'NONE', *, *, #328, .F. ) ;
#187 = ORIENTED_EDGE ( 'NONE', *, *, #323, .T. ) ;
#188 = VECTOR ( 'NONE', #395, 1000.000000000000000 ) ;
#189 = ORIENTED_EDGE ( 'NONE', *, *, #314, .T. ) ;
#190 = ORIENTED_EDGE ( 'NONE', *, *, #302, .F. ) ;
#191 = ORIENTED_EDGE ( 'NONE', *, *, #307, .F. ) ;
#192 = ORIENTED_EDGE ( 'NONE', *, *, #312, .F. ) ;
#193 = ORIENTED_EDGE ( 'NONE', *, *, #317, .F. ) ;
#194 = ORIENTED_EDGE ( 'NONE', *, *, #321, .F. ) ;
#195 = ORIENTED_EDGE ( 'NONE', *, *, #324, .T. ) ;
#196 = ORIENTED_EDGE ( 'NONE', *, *, #328, .T. ) ;
#197 = ORIENTED_EDGE ( 'NONE', *, *, #313, .F. ) ;
#198 = ORIENTED_EDGE ( 'NONE', *, *, #327, .F. ) ;
#199 = ORIENTED_EDGE ( 'NONE', *, *, #322, .F. ) ;
#200 = ORIENTED_EDGE ( 'NONE', *, *, #319, .T. ) ;
#201 = ORIENTED_EDGE ( 'NONE', *, *, #315, .T. ) ;
#202 = ORIENTED_EDGE ( 'NONE', *, *, #310, .T. ) ;
#203 = ORIENTED_EDGE ( 'NONE', *, *, #304, .T. ) ;
#204 = ORIENTED_EDGE ( 'NONE', *, *, #329, .T. ) ;
#205 = ORIENTED_EDGE ( 'NONE', *, *, #309, .T. ) ;
#206 = ORIENTED_EDGE ( 'NONE', *, *, #326, .T. ) ;
#207 = ORIENTED_EDGE ( 'NONE', *, *, #308, .T. ) ;
#208 = ORIENTED_EDGE ( 'NONE', *, *, #325, .T. ) ;
#209 = CLOSED_SHELL ( 'NONE', ( #361, #359, #357, #356, #355, #354, #353, #352, #360, #363, #362, #358 ) ) ;
#210 = VERTEX_POINT ( 'NONE', #429 ) ;
#211 = VERTEX_POINT ( 'NONE', #434 ) ;
#212 = VERTEX_POINT ( 'NONE', #431 ) ;
#213 = VERTEX_POINT ( 'NONE', #436 ) ;
#214 = VERTEX_POINT ( 'NONE', #432 ) ;
#215 = VERTEX_POINT ( 'NONE', #433 ) ;
#216 = VERTEX_POINT ( 'NONE', #437 ) ;
#217 = VERTEX_POINT ( 'NONE', #430 ) ;
#218 = LINE ( 'NONE', #421, #66 ) ;
#219 = EDGE_LOOP ( 'NONE', ( #170, #171, #172, #173 ) ) ;
#220 = VERTEX_POINT ( 'NONE', #435 ) ;
#221 = VERTEX_POINT ( 'NONE', #428 ) ;
#222 = VERTEX_POINT ( 'NONE', #427 ) ;
#223 = VERTEX_POINT ( 'NONE', #426 ) ;
#224 = VERTEX_POINT ( 'NONE', #425 ) ;
#225 = VERTEX_POINT ( 'NONE', #424 ) ;
#226 = VERTEX_POINT ( 'NONE', #423 ) ;
#227 = PERSON_AND_ORGANIZATION ( #35, #81 ) ;
#228 = PERSON_AND_ORGANIZATION ( #35, #81 ) ;
#229 = PERSON_AND_ORGANIZATION ( #35, #81 ) ;
#230 = APPROVAL_DATE_TIME ( #93, #346 ) ;
#231 = CALENDAR_DATE ( 2012, 9, 11 ) ;
#232 = DATE_AND_TIME ( #231, #233 ) ;
#233 = LOCAL_TIME ( 12, 45, 6.000000000000000000, #234 ) ;
#234 = COORDINATED_UNIVERSAL_TIME_OFFSET ( 4, 0, .AHEAD. ) ;
#235 = VERTEX_POINT ( 'NONE', #422 ) ;
#236 = CALENDAR_DATE ( 2012, 9, 11 ) ;
#237 = DATE_AND_TIME ( #236, #37 ) ;
#238 = APPROVAL_DATE_TIME ( #237, #345 ) ;
#239 = MANIFOLD_SOLID_BREP ( 'Âûðåç-Âûòÿíóòü1', #209 ) ;
#240 = ADVANCED_BREP_SHAPE_REPRESENTATION ( '¦¨v°úð ýð ºóþû òõ¨ªøúðû¹ývù òýõ°ýøù CDSD 90_38286', ( #239, #333 ), #334 ) ;
#241 = UNCERTAINTY_MEASURE_WITH_UNIT (LENGTH_MEASURE( 1.000000000000000100E-005 ), #16, 'distance_accuracy_value', 'NONE');
#242 = AXIS2_PLACEMENT_3D ( 'NONE', #283, #277, #293 ) ;
#243 = AXIS2_PLACEMENT_3D ( 'NONE', #278, #276, #288 ) ;
#244 = AXIS2_PLACEMENT_3D ( 'NONE', #254, #265, #286 ) ;
#245 = AXIS2_PLACEMENT_3D ( 'NONE', #263, #256, #255 ) ;
#246 = CC_DESIGN_PERSON_AND_ORGANIZATION_ASSIGNMENT ( #59, #10, ( #343 ) ) ;
#247 = AXIS2_PLACEMENT_3D ( 'NONE', #260, #259, #258 ) ;
#248 = SECURITY_CLASSIFICATION ( '', '', #1 ) ;
#249 = CC_DESIGN_SECURITY_CLASSIFICATION ( #248, ( #347 ) ) ;
#250 = AXIS2_PLACEMENT_3D ( 'NONE', #371, #370, #369 ) ;
#251 = CC_DESIGN_PERSON_AND_ORGANIZATION_ASSIGNMENT ( #228, #6, ( #347 ) ) ;
#252 = AXIS2_PLACEMENT_3D ( 'NONE', #374, #373, #372 ) ;
#253 = DIRECTION ( 'NONE',  ( 0.0000000000000000000, 1.000000000000000000, 0.0000000000000000000 ) ) ;
#254 = CARTESIAN_POINT ( 'NONE',  ( -201.0000000000000000, -14.00000000000000000, 531.0000000000000000 ) ) ;
#255 = DIRECTION ( 'NONE',  ( 0.0000000000000000000, 0.0000000000000000000, 1.000000000000000000 ) ) ;
#256 = DIRECTION ( 'NONE',  ( -1.000000000000000000, 0.0000000000000000000, 0.0000000000000000000 ) ) ;
#257 = PLANE ( 'NONE',  #245 ) ;
#258 = DIRECTION ( 'NONE',  ( 0.0000000000000000000, -0.0000000000000000000, 1.000000000000000000 ) ) ;
#259 = DIRECTION ( 'NONE',  ( 0.0000000000000000000, 1.000000000000000000, 0.0000000000000000000 ) ) ;
#260 = CARTESIAN_POINT ( 'NONE',  ( -201.0000000000000000, 0.0000000000000000000, 531.0000000000000000 ) ) ;
#261 = CARTESIAN_POINT ( 'NONE',  ( 1.734723475976807100E-015, -14.00099999999999900, 14.99999999999999300 ) ) ;
#262 = PLANE ( 'NONE',  #247 ) ;
#263 = CARTESIAN_POINT ( 'NONE',  ( -201.0000000000000000, 0.0000000000000000000, 531.0000000000000000 ) ) ;
#264 = DIRECTION ( 'NONE',  ( -0.0000000000000000000, -0.0000000000000000000, -1.000000000000000000 ) ) ;
#265 = DIRECTION ( 'NONE',  ( 0.0000000000000000000, -1.000000000000000000, 0.0000000000000000000 ) ) ;
#266 = CARTESIAN_POINT ( 'NONE',  ( 201.0000000000000000, -14.00000000000000000, 531.0000000000000000 ) ) ;
#267 = DIRECTION ( 'NONE',  ( -0.0000000000000000000, -0.0000000000000000000, -1.000000000000000000 ) ) ;
#268 = DIRECTION ( 'NONE',  ( -1.000000000000000000, 0.0000000000000000000, 0.0000000000000000000 ) ) ;
#269 = AXIS2_PLACEMENT_3D ( 'NONE', #405, #404, #403 ) ;
#270 = AXIS2_PLACEMENT_3D ( 'NONE', #261, #275, #287 ) ;
#271 = AXIS2_PLACEMENT_3D ( 'NONE', #408, #407, #406 ) ;
#272 = EDGE_CURVE ( 'NONE', #215, #223, #68, .T. ) ;
#273 = DIRECTION ( 'NONE',  ( 0.0000000000000000000, 0.0000000000000000000, 1.000000000000000000 ) ) ;
#274 = DIRECTION ( 'NONE',  ( -0.0000000000000000000, 1.000000000000000000, -0.0000000000000000000 ) ) ;
#275 = DIRECTION ( 'NONE',  ( -0.0000000000000000000, 1.000000000000000000, -0.0000000000000000000 ) ) ;
#276 = DIRECTION ( 'NONE',  ( 1.000000000000000000, 0.0000000000000000000, -0.0000000000000000000 ) ) ;
#277 = DIRECTION ( 'NONE',  ( -1.000000000000000000, 0.0000000000000000000, 0.0000000000000000000 ) ) ;
#278 = CARTESIAN_POINT ( 'NONE',  ( 201.0000000000000000, 0.0000000000000000000, 531.0000000000000000 ) ) ;
#279 = DIRECTION ( 'NONE',  ( 0.0000000000000000000, -1.000000000000000000, 0.0000000000000000000 ) ) ;
#280 = DIRECTION ( 'NONE',  ( -0.0000000000000000000, 0.0000000000000000000, -1.000000000000000000 ) ) ;
#281 = DIRECTION ( 'NONE',  ( -1.000000000000000000, 0.0000000000000000000, 0.0000000000000000000 ) ) ;
#282 = CARTESIAN_POINT ( 'NONE',  ( 201.0000000000000000, 0.0000000000000000000, 531.0000000000000000 ) ) ;
#283 = CARTESIAN_POINT ( 'NONE',  ( -201.8000000000000100, 0.0000000000000000000, 531.0000000000000000 ) ) ;
#284 = CARTESIAN_POINT ( 'NONE',  ( 0.0000000000000000000, -14.00099999999999900, 516.0000000000000000 ) ) ;
#285 = PLANE ( 'NONE',  #242 ) ;
#286 = DIRECTION ( 'NONE',  ( 0.0000000000000000000, -0.0000000000000000000, -1.000000000000000000 ) ) ;
#287 = DIRECTION ( 'NONE',  ( 0.0000000000000000000, 0.0000000000000000000, 1.000000000000000000 ) ) ;
#288 = DIRECTION ( 'NONE',  ( -0.0000000000000000000, 0.0000000000000000000, -1.000000000000000000 ) ) ;
#289 = DIRECTION ( 'NONE',  ( 0.0000000000000000000, -0.0000000000000000000, 1.000000000000000000 ) ) ;
#290 = CARTESIAN_POINT ( 'NONE',  ( 201.8000000000000100, 0.0000000000000000000, 531.0000000000000000 ) ) ;
#291 = PLANE ( 'NONE',  #341 ) ;
#292 = CARTESIAN_POINT ( 'NONE',  ( -201.0000000000000000, 0.8000000000000000400, 531.0000000000000000 ) ) ;
#293 = DIRECTION ( 'NONE',  ( 0.0000000000000000000, 0.0000000000000000000, 1.000000000000000000 ) ) ;
#294 = PLANE ( 'NONE',  #243 ) ;
#295 = PLANE ( 'NONE',  #340 ) ;
#296 = DIRECTION ( 'NONE',  ( 1.000000000000000000, 0.0000000000000000000, -0.0000000000000000000 ) ) ;
#297 = DIRECTION ( 'NONE',  ( -0.0000000000000000000, 0.0000000000000000000, -1.000000000000000000 ) ) ;
#298 = CARTESIAN_POINT ( 'NONE',  ( 201.8000000000000100, -14.00000000000000000, 531.0000000000000000 ) ) ;
#299 = PLANE ( 'NONE',  #336 ) ;
#300 = CARTESIAN_POINT ( 'NONE',  ( 0.0000000000000000000, 0.0000000000000000000, 531.0000000000000000 ) ) ;
#301 = DIRECTION ( 'NONE',  ( 0.0000000000000000000, -0.0000000000000000000, -1.000000000000000000 ) ) ;
#302 = EDGE_CURVE ( 'NONE', #215, #235, #218, .T. ) ;
#303 = PLANE ( 'NONE',  #337 ) ;
#304 = EDGE_CURVE ( 'NONE', #217, #223, #69, .T. ) ;
#305 = EDGE_CURVE ( 'NONE', #210, #217, #72, .T. ) ;
#306 = CC_DESIGN_PERSON_AND_ORGANIZATION_ASSIGNMENT ( #229, #7, ( #347 ) ) ;
#307 = EDGE_CURVE ( 'NONE', #210, #215, #62, .T. ) ;
#308 = EDGE_CURVE ( 'NONE', #101, #101, #60, .T. ) ;
#309 = EDGE_CURVE ( 'NONE', #97, #97, #53, .T. ) ;
#310 = EDGE_CURVE ( 'NONE', #222, #217, #55, .T. ) ;
#311 = EDGE_CURVE ( 'NONE', #224, #222, #54, .T. ) ;
#312 = EDGE_CURVE ( 'NONE', #224, #210, #64, .T. ) ;
#313 = EDGE_CURVE ( 'NONE', #216, #214, #49, .T. ) ;
#314 = EDGE_CURVE ( 'NONE', #225, #235, #50, .T. ) ;
#315 = EDGE_CURVE ( 'NONE', #212, #222, #47, .T. ) ;
#316 = EDGE_CURVE ( 'NONE', #211, #212, #147, .T. ) ;
#317 = EDGE_CURVE ( 'NONE', #211, #224, #149, .T. ) ;
#318 = AXIS2_PLACEMENT_3D ( 'NONE', #13, #23, #24 ) ;
#319 = EDGE_CURVE ( 'NONE', #221, #212, #143, .T. ) ;
#320 = EDGE_CURVE ( 'NONE', #220, #221, #141, .T. ) ;
#321 = EDGE_CURVE ( 'NONE', #220, #211, #145, .T. ) ;
#322 = EDGE_CURVE ( 'NONE', #221, #213, #137, .T. ) ;
#323 = EDGE_CURVE ( 'NONE', #226, #213, #135, .T. ) ;
#324 = EDGE_CURVE ( 'NONE', #220, #226, #139, .T. ) ;
#325 = EDGE_CURVE ( 'NONE', #96, #96, #131, .T. ) ;
#326 = EDGE_CURVE ( 'NONE', #94, #94, #127, .T. ) ;
#327 = EDGE_CURVE ( 'NONE', #213, #216, #129, .T. ) ;
#328 = EDGE_CURVE ( 'NONE', #226, #225, #128, .T. ) ;
#329 = EDGE_CURVE ( 'NONE', #223, #214, #124, .T. ) ;
#330 = EDGE_CURVE ( 'NONE', #225, #216, #123, .T. ) ;
#331 = EDGE_CURVE ( 'NONE', #235, #214, #121, .T. ) ;
#332 = CC_DESIGN_APPROVAL ( #335, ( #343 ) ) ;
#333 = AXIS2_PLACEMENT_3D ( 'NONE', #18, #17, #27 ) ;
#334 =( GEOMETRIC_REPRESENTATION_CONTEXT ( 3 ) GLOBAL_UNCERTAINTY_ASSIGNED_CONTEXT ( ( #241 ) ) GLOBAL_UNIT_ASSIGNED_CONTEXT ( ( #16, #20, #12 ) ) REPRESENTATION_CONTEXT ( 'NONE', 'WORKASPACE' ) );
#335 = APPROVAL ( #32, 'UNSPECIFIED' ) ;
#336 = AXIS2_PLACEMENT_3D ( 'NONE', #298, #279, #301 ) ;
#337 = AXIS2_PLACEMENT_3D ( 'NONE', #300, #280, #281 ) ;
#338 = AXIS2_PLACEMENT_3D ( 'NONE', #284, #274, #273 ) ;
#339 = CC_DESIGN_PERSON_AND_ORGANIZATION_ASSIGNMENT ( #79, #29, ( #34 ) ) ;
#340 = AXIS2_PLACEMENT_3D ( 'NONE', #290, #296, #297 ) ;
#341 = AXIS2_PLACEMENT_3D ( 'NONE', #292, #253, #289 ) ;
#342 = CC_DESIGN_DATE_AND_TIME_ASSIGNMENT ( #45, #9, ( #343 ) ) ;
#343 = PRODUCT_DEFINITION ( 'UNKNOWN', '', #347, #365 ) ;
#344 = CC_DESIGN_APPROVAL ( #346, ( #347 ) ) ;
#345 = APPROVAL ( #4, 'UNSPECIFIED' ) ;
#346 = APPROVAL ( #8, 'UNSPECIFIED' ) ;
#347 = PRODUCT_DEFINITION_FORMATION_WITH_SPECIFIED_SOURCE ( 'ANY', '', #34, .NOT_KNOWN. ) ;
#348 = PRODUCT_RELATED_PRODUCT_CATEGORY ( 'detail', '', ( #34 ) ) ;
#349 = CC_DESIGN_APPROVAL ( #345, ( #248 ) ) ;
#350 = CC_DESIGN_PERSON_AND_ORGANIZATION_ASSIGNMENT ( #227, #5, ( #248 ) ) ;
#351 = CC_DESIGN_DATE_AND_TIME_ASSIGNMENT ( #232, #2, ( #248 ) ) ;
#352 = ADVANCED_FACE ( 'NONE', ( #116, #133, #119 ), #262, .F. ) ;
#353 = ADVANCED_FACE ( 'NONE', ( #117 ), #257, .F. ) ;
#354 = ADVANCED_FACE ( 'NONE', ( #115 ), #375, .T. ) ;
#355 = ADVANCED_FACE ( 'NONE', ( #113 ), #285, .T. ) ;
#356 = ADVANCED_FACE ( 'NONE', ( #112, #109, #111 ), #291, .T. ) ;
#357 = ADVANCED_FACE ( 'NONE', ( #110 ), #295, .T. ) ;
#358 = ADVANCED_FACE ( 'NONE', ( #114, #105 ), #103, .F. ) ;
#359 = ADVANCED_FACE ( 'NONE', ( #108 ), #299, .T. ) ;
#360 = ADVANCED_FACE ( 'NONE', ( #107 ), #303, .F. ) ;
#361 = ADVANCED_FACE ( 'NONE', ( #106 ), #294, .F. ) ;
#362 = ADVANCED_FACE ( 'NONE', ( #102, #100 ), #98, .F. ) ;
#363 = ADVANCED_FACE ( 'NONE', ( #104 ), #21, .T. ) ;
#364 = PRODUCT_DEFINITION_SHAPE ( 'NONE', 'NONE',  #343 ) ;
#365 = DESIGN_CONTEXT ( 'detailed design', #30, 'design' ) ;
#366 = CARTESIAN_POINT ( 'NONE',  ( 201.8000000000000100, -14.00000000000000000, 0.0000000000000000000 ) ) ;
#367 = DIRECTION ( 'NONE',  ( 1.000000000000000000, 0.0000000000000000000, 0.0000000000000000000 ) ) ;
#368 = DIRECTION ( 'NONE',  ( 1.000000000000000000, 0.0000000000000000000, 0.0000000000000000000 ) ) ;
#369 = DIRECTION ( 'NONE',  ( 0.0000000000000000000, 0.0000000000000000000, 1.000000000000000000 ) ) ;
#370 = DIRECTION ( 'NONE',  ( -0.0000000000000000000, -1.000000000000000000, -0.0000000000000000000 ) ) ;
#371 = CARTESIAN_POINT ( 'NONE',  ( 1.734723475976807100E-015, 0.0000000000000000000, 14.99999999999999300 ) ) ;
#372 = DIRECTION ( 'NONE',  ( 0.0000000000000000000, 0.0000000000000000000, 1.000000000000000000 ) ) ;
#373 = DIRECTION ( 'NONE',  ( -0.0000000000000000000, -1.000000000000000000, -0.0000000000000000000 ) ) ;
#374 = CARTESIAN_POINT ( 'NONE',  ( 0.0000000000000000000, 0.0000000000000000000, 516.0000000000000000 ) ) ;
#375 = PLANE ( 'NONE',  #244 ) ;
#376 = CARTESIAN_POINT ( 'NONE',  ( -201.0000000000000000, 0.0000000000000000000, 531.0000000000000000 ) ) ;
#377 = DIRECTION ( 'NONE',  ( -0.0000000000000000000, 1.000000000000000000, -0.0000000000000000000 ) ) ;
#378 = DIRECTION ( 'NONE',  ( -0.0000000000000000000, -0.0000000000000000000, -1.000000000000000000 ) ) ;
#379 = CARTESIAN_POINT ( 'NONE',  ( -201.0000000000000000, 0.0000000000000000000, 0.0000000000000000000 ) ) ;
#380 = CARTESIAN_POINT ( 'NONE',  ( -201.0000000000000000, 0.0000000000000000000, 531.0000000000000000 ) ) ;
#381 = DIRECTION ( 'NONE',  ( -0.0000000000000000000, 1.000000000000000000, -0.0000000000000000000 ) ) ;
#382 = CARTESIAN_POINT ( 'NONE',  ( -201.0000000000000000, 0.0000000000000000000, 0.0000000000000000000 ) ) ;
#383 = DIRECTION ( 'NONE',  ( -1.000000000000000000, 0.0000000000000000000, 0.0000000000000000000 ) ) ;
#384 = DIRECTION ( 'NONE',  ( -0.0000000000000000000, -0.0000000000000000000, -1.000000000000000000 ) ) ;
#385 = CARTESIAN_POINT ( 'NONE',  ( -201.0000000000000000, -14.00000000000000000, 531.0000000000000000 ) ) ;
#386 = DIRECTION ( 'NONE',  ( -1.000000000000000000, 0.0000000000000000000, 0.0000000000000000000 ) ) ;
#387 = CARTESIAN_POINT ( 'NONE',  ( -201.0000000000000000, -14.00000000000000000, 0.0000000000000000000 ) ) ;
#388 = DIRECTION ( 'NONE',  ( 0.0000000000000000000, 1.000000000000000000, 0.0000000000000000000 ) ) ;
#389 = DIRECTION ( 'NONE',  ( -0.0000000000000000000, -0.0000000000000000000, -1.000000000000000000 ) ) ;
#390 = CARTESIAN_POINT ( 'NONE',  ( -201.0000000000000000, 0.0000000000000000000, 531.0000000000000000 ) ) ;
#391 = CARTESIAN_POINT ( 'NONE',  ( -201.8000000000000100, -14.00000000000000000, 531.0000000000000000 ) ) ;
#392 = DIRECTION ( 'NONE',  ( 0.0000000000000000000, 1.000000000000000000, 0.0000000000000000000 ) ) ;
#393 = CARTESIAN_POINT ( 'NONE',  ( -201.0000000000000000, -14.00000000000000000, 531.0000000000000000 ) ) ;
#394 = DIRECTION ( 'NONE',  ( 0.0000000000000000000, -1.000000000000000000, 0.0000000000000000000 ) ) ;
#395 = DIRECTION ( 'NONE',  ( 0.0000000000000000000, -1.000000000000000000, 0.0000000000000000000 ) ) ;
#396 = CARTESIAN_POINT ( 'NONE',  ( -201.8000000000000100, 0.0000000000000000000, 531.0000000000000000 ) ) ;
#397 = CARTESIAN_POINT ( 'NONE',  ( 201.0000000000000000, 0.0000000000000000000, 0.0000000000000000000 ) ) ;
#398 = DIRECTION ( 'NONE',  ( 1.000000000000000000, 0.0000000000000000000, 0.0000000000000000000 ) ) ;
#399 = DIRECTION ( 'NONE',  ( -0.0000000000000000000, -0.0000000000000000000, -1.000000000000000000 ) ) ;
#400 = CARTESIAN_POINT ( 'NONE',  ( -201.8000000000000100, 0.0000000000000000000, 0.0000000000000000000 ) ) ;
#401 = CARTESIAN_POINT ( 'NONE',  ( -201.0000000000000000, 0.8000000000000000400, 531.0000000000000000 ) ) ;
#402 = DIRECTION ( 'NONE',  ( 1.000000000000000000, 0.0000000000000000000, 0.0000000000000000000 ) ) ;
#403 = DIRECTION ( 'NONE',  ( 0.0000000000000000000, 0.0000000000000000000, 1.000000000000000000 ) ) ;
#404 = DIRECTION ( 'NONE',  ( 0.0000000000000000000, 1.000000000000000000, 0.0000000000000000000 ) ) ;
#405 = CARTESIAN_POINT ( 'NONE',  ( 1.734723475976807100E-015, 0.8000000000000000400, 14.99999999999999300 ) ) ;
#406 = DIRECTION ( 'NONE',  ( 0.0000000000000000000, 0.0000000000000000000, -1.000000000000000000 ) ) ;
#407 = DIRECTION ( 'NONE',  ( -0.0000000000000000000, 1.000000000000000000, -0.0000000000000000000 ) ) ;
#408 = CARTESIAN_POINT ( 'NONE',  ( 0.0000000000000000000, 0.8000000000000000400, 516.0000000000000000 ) ) ;
#409 = CARTESIAN_POINT ( 'NONE',  ( 201.0000000000000000, 0.0000000000000000000, 531.0000000000000000 ) ) ;
#410 = CARTESIAN_POINT ( 'NONE',  ( -201.8000000000000100, 0.8000000000000000400, 531.0000000000000000 ) ) ;
#411 = DIRECTION ( 'NONE',  ( -0.0000000000000000000, -1.000000000000000000, 0.0000000000000000000 ) ) ;
#412 = CARTESIAN_POINT ( 'NONE',  ( -201.0000000000000000, 0.8000000000000000400, 0.0000000000000000000 ) ) ;
#413 = DIRECTION ( 'NONE',  ( -0.0000000000000000000, -0.0000000000000000000, -1.000000000000000000 ) ) ;
#414 = DIRECTION ( 'NONE',  ( -0.0000000000000000000, -1.000000000000000000, 0.0000000000000000000 ) ) ;
#415 = CARTESIAN_POINT ( 'NONE',  ( 201.8000000000000100, 0.0000000000000000000, 531.0000000000000000 ) ) ;
#416 = DIRECTION ( 'NONE',  ( -1.000000000000000000, 0.0000000000000000000, 0.0000000000000000000 ) ) ;
#417 = DIRECTION ( 'NONE',  ( -0.0000000000000000000, -0.0000000000000000000, -1.000000000000000000 ) ) ;
#418 = CARTESIAN_POINT ( 'NONE',  ( 201.8000000000000100, -14.00000000000000000, 531.0000000000000000 ) ) ;
#419 = CARTESIAN_POINT ( 'NONE',  ( 201.8000000000000100, 0.8000000000000000400, 531.0000000000000000 ) ) ;
#420 = CARTESIAN_POINT ( 'NONE',  ( 201.8000000000000100, 0.0000000000000000000, 0.0000000000000000000 ) ) ;
#421 = CARTESIAN_POINT ( 'NONE',  ( 201.8000000000000100, -14.00000000000000000, 531.0000000000000000 ) ) ;
#422 = CARTESIAN_POINT ( 'NONE',  ( 201.0000000000000000, -14.00000000000000000, 531.0000000000000000 ) ) ;
#423 = CARTESIAN_POINT ( 'NONE',  ( -201.0000000000000000, 0.0000000000000000000, 531.0000000000000000 ) ) ;
#424 = CARTESIAN_POINT ( 'NONE',  ( 201.0000000000000000, 0.0000000000000000000, 531.0000000000000000 ) ) ;
#425 = CARTESIAN_POINT ( 'NONE',  ( -201.8000000000000100, 0.8000000000000000400, 531.0000000000000000 ) ) ;
#426 = CARTESIAN_POINT ( 'NONE',  ( 201.8000000000000100, -14.00000000000000000, 0.0000000000000000000 ) ) ;
#427 = CARTESIAN_POINT ( 'NONE',  ( -201.8000000000000100, 0.8000000000000000400, 0.0000000000000000000 ) ) ;
#428 = CARTESIAN_POINT ( 'NONE',  ( -201.0000000000000000, -14.00000000000000000, 0.0000000000000000000 ) ) ;
#429 = CARTESIAN_POINT ( 'NONE',  ( 201.8000000000000100, 0.8000000000000000400, 531.0000000000000000 ) ) ;
#430 = CARTESIAN_POINT ( 'NONE',  ( 201.8000000000000100, 0.8000000000000000400, 0.0000000000000000000 ) ) ;
#431 = CARTESIAN_POINT ( 'NONE',  ( -201.8000000000000100, -14.00000000000000000, 0.0000000000000000000 ) ) ;
#432 = CARTESIAN_POINT ( 'NONE',  ( 201.0000000000000000, -14.00000000000000000, 0.0000000000000000000 ) ) ;
#433 = CARTESIAN_POINT ( 'NONE',  ( 201.8000000000000100, -14.00000000000000000, 531.0000000000000000 ) ) ;
#434 = CARTESIAN_POINT ( 'NONE',  ( -201.8000000000000100, -14.00000000000000000, 531.0000000000000000 ) ) ;
#435 = CARTESIAN_POINT ( 'NONE',  ( -201.0000000000000000, -14.00000000000000000, 531.0000000000000000 ) ) ;
#436 = CARTESIAN_POINT ( 'NONE',  ( -201.0000000000000000, 0.0000000000000000000, 0.0000000000000000000 ) ) ;
#437 = CARTESIAN_POINT ( 'NONE',  ( 201.0000000000000000, 0.0000000000000000000, 0.0000000000000000000 ) ) ;
ENDSEC;
END-ISO-10303-21;
